  0
SECTION
  2
HEADER
  9
$ACADVER
  1
AC1006
  9
$EXTMIN
 10
3.071200
 20
4.549600
  9
$EXTMAX
 10
5.428720
 20
6.449960
  9
$LTSCALE
 40
0.044000
  9
$PDMODE
 70
    35
  9
$PDSIZE
 40
0.035200
  0
ENDSEC
  0
SECTION
  2
TABLES
  0
TABLE
  2
LTYPE
 70
     9
  0
LTYPE
  2
CONTINUOUS
 70
    64
  3
Solid line
 72
    65
 73
     0
 40
0.000000
  0
LTYPE
  2
DASHED
 70
    64
  3
__ __ __ __ __ __ __ __ __ __ __ __ __ __ __
 72
    65
 73
     2
 40
0.000330
 49
0.000220
 49
-0.000110
  0
LTYPE
  2
HIDDEN
 70
    64
  3
 _ _ _ _ _ _ _ _ _ _ _ _ _ _ _ _ _ _ _ _ _ _
 72
    65
 73
     2
 40
0.000165
 49
0.000110
 49
-0.000055
  0
LTYPE
  2
CENTER
 70
    64
  3
____ _ ____ _ ____ _ ____ _ ____ _ ____ _ ____
 72
    65
 73
     4
 40
0.000880
 49
0.000550
 49
-0.000110
 49
0.000110
 49
-0.000110
  0
LTYPE
  2
PHANTOM
 70
    64
  3
_____ _ _ _____ _ _ _____ _ _ _____ _ _ ____
 72
    65
 73
     6
 40
0.001100
 49
0.000550
 49
-0.000110
 49
0.000110
 49
-0.000110
 49
0.000110
 49
-0.000110
  0
LTYPE
  2
DOT
 70
    64
  3
...............................................
 72
    65
 73
     2
 40
0.000110
 49
0.000000
 49
-0.000110
  0
LTYPE
  2
DASHDOT
 70
    64
  3
__ . __ . __ . __ . __ . __ . __ . __ . __ . __
 72
    65
 73
     4
 40
0.000440
 49
0.000220
 49
-0.000110
 49
0.000000
 49
-0.000110
  0
LTYPE
  2
BORDER
 70
    64
  3
__ __ . __ __ . __ __ . __ __ . __ __ . __ __
 72
    65
 73
     6
 40
0.000770
 49
0.000220
 49
-0.000110
 49
0.000220
 49
-0.000110
 49
0.000000
 49
-0.000110
  0
LTYPE
  2
DIVIDE
 70
    64
  3
__ . . __ . . __ . . __ . . __ . . __ . . __
 72
    65
 73
     6
 40
0.000550
 49
0.000220
 49
-0.000110
 49
0.000000
 49
-0.000110
 49
0.000000
 49
-0.000110
  0
LTYPE
  2
DOTDOT
 70
    64
  3
 . .  . .  . .  . .  . .  . . 
 72
    65
 73
     5
 40
0.000242
 49
-0.000110
 49
0.000000
 49
-0.000110
 49
0.000000
 49
-0.000110
  0
ENDTAB
  0
TABLE
  2
STYLE
 70
     2
  0
STYLE
 70
     0
  2
SN0
 40
0.000000
 41
0.000440
 50
0.000000
 71
     0
 42
0.000000
  3
ROMAND
  0
STYLE
 70
    68
  2
SV0
 40
0.000000
 41
0.000440
 50
0.000000
 71
     0
 42
0.000000
  3
ROMAND
  0
ENDTAB
  0
TABLE
  2
LAYER
 70
     3
  0
LAYER
  2
FOREGROUND
 70
    64
 62
     7
  6
CONTINUOUS
  0
LAYER
  2
BACKGROUND
 70
    65
 62
    -7
  6
CONTINUOUS
  0
LAYER
  2
0
 70
    64
 62
     7
  6
CONTINUOUS
  0
ENDTAB
  0
ENDSEC
  0
SECTION
  2
ENTITIES
  0
POLYLINE
  8
FOREGROUND
  6
CONTINUOUS
 66
     1
 40
0.000000
 41
0.000000
  0
VERTEX
  8
FOREGROUND
  6
CONTINUOUS
 10
0.000000
 20
10.999560
  0
VERTEX
  8
FOREGROUND
  6
CONTINUOUS
 10
8.499920
 20
10.999560
  0
VERTEX
  8
FOREGROUND
  6
CONTINUOUS
 10
8.499920
 20
-0.000440
  0
VERTEX
  8
FOREGROUND
  6
CONTINUOUS
 10
0.000000
 20
-0.000440
  0
VERTEX
  8
FOREGROUND
  6
CONTINUOUS
 10
0.000000
 20
10.999560
  0
SEQEND
  8
0
  0
POLYLINE
  8
FOREGROUND
  6
CONTINUOUS
 66
     1
 40
0.000000
 41
0.000000
  0
VERTEX
  8
FOREGROUND
  6
CONTINUOUS
 10
0.000000
 20
10.999560
  0
VERTEX
  8
FOREGROUND
  6
CONTINUOUS
 10
8.499920
 20
10.999560
  0
VERTEX
  8
FOREGROUND
  6
CONTINUOUS
 10
8.499920
 20
-0.000440
  0
VERTEX
  8
FOREGROUND
  6
CONTINUOUS
 10
0.000000
 20
-0.000440
  0
VERTEX
  8
FOREGROUND
  6
CONTINUOUS
 10
0.000000
 20
10.999560
  0
SEQEND
  8
0
  0
TEXT
  8
0
 10
3.262160
 20
4.784120
 40
0.138097
  1
BA  686
 41
1.000000
  7
SN0
 71
     0
 72
     5
 11
3.852129
 21
4.784120
  0
TEXT
  8
0
 10
3.249400
 20
4.592720
 40
0.138097
  1
5/8" x 1"
 41
1.000000
  7
SN0
 71
     0
 72
     5
 11
3.864123
 21
4.592720
  0
SOLID
  8
0
 62
    15
 10
3.777840
 20
5.343800
 11
3.780480
 21
6.090040
 12
3.796320
 22
5.320040
 13
3.799400
 23
6.066280
  0
POLYLINE
  8
0
  6
CONTINUOUS
 66
     1
 40
0.000000
 41
0.000000
  0
VERTEX
  8
0
  6
CONTINUOUS
 10
3.777840
 20
5.343800
  0
VERTEX
  8
0
  6
CONTINUOUS
 10
3.780480
 20
6.090040
  0
VERTEX
  8
0
  6
CONTINUOUS
 10
3.799400
 20
6.066280
  0
VERTEX
  8
0
  6
CONTINUOUS
 10
3.796320
 20
5.320040
  0
VERTEX
  8
0
  6
CONTINUOUS
 10
3.777840
 20
5.343800
  0
SEQEND
  8
0
  0
SOLID
  8
0
 62
    15
 10
3.309240
 20
5.674680
 11
3.312320
 21
6.420920
 12
3.314080
 22
5.650040
 13
3.316720
 23
6.396280
  0
POLYLINE
  8
0
  6
CONTINUOUS
 66
     1
 40
0.000000
 41
0.000000
  0
VERTEX
  8
0
  6
CONTINUOUS
 10
3.309240
 20
5.674680
  0
VERTEX
  8
0
  6
CONTINUOUS
 10
3.312320
 20
6.420920
  0
VERTEX
  8
0
  6
CONTINUOUS
 10
3.316720
 20
6.396280
  0
VERTEX
  8
0
  6
CONTINUOUS
 10
3.314080
 20
5.650040
  0
VERTEX
  8
0
  6
CONTINUOUS
 10
3.309240
 20
5.674680
  0
SEQEND
  8
0
  0
SOLID
  8
0
 62
    15
 10
3.314080
 20
5.650040
 11
3.316720
 21
6.396280
 12
3.330800
 22
5.606480
 13
3.333440
 23
6.352720
  0
POLYLINE
  8
0
  6
CONTINUOUS
 66
     1
 40
0.000000
 41
0.000000
  0
VERTEX
  8
0
  6
CONTINUOUS
 10
3.314080
 20
5.650040
  0
VERTEX
  8
0
  6
CONTINUOUS
 10
3.316720
 20
6.396280
  0
VERTEX
  8
0
  6
CONTINUOUS
 10
3.333440
 20
6.352720
  0
VERTEX
  8
0
  6
CONTINUOUS
 10
3.330800
 20
5.606480
  0
VERTEX
  8
0
  6
CONTINUOUS
 10
3.314080
 20
5.650040
  0
SEQEND
  8
0
  0
SOLID
  8
0
 62
    15
 10
3.330800
 20
5.606480
 11
3.333440
 21
6.352720
 12
3.356320
 22
5.569080
 13
3.359400
 23
6.315320
  0
POLYLINE
  8
0
  6
CONTINUOUS
 66
     1
 40
0.000000
 41
0.000000
  0
VERTEX
  8
0
  6
CONTINUOUS
 10
3.330800
 20
5.606480
  0
VERTEX
  8
0
  6
CONTINUOUS
 10
3.333440
 20
6.352720
  0
VERTEX
  8
0
  6
CONTINUOUS
 10
3.359400
 20
6.315320
  0
VERTEX
  8
0
  6
CONTINUOUS
 10
3.356320
 20
5.569080
  0
VERTEX
  8
0
  6
CONTINUOUS
 10
3.330800
 20
5.606480
  0
SEQEND
  8
0
  0
SOLID
  8
0
 62
    15
 10
3.356320
 20
5.569080
 11
3.359400
 21
6.315320
 12
3.390640
 22
5.537400
 13
3.393280
 23
6.283640
  0
POLYLINE
  8
0
  6
CONTINUOUS
 66
     1
 40
0.000000
 41
0.000000
  0
VERTEX
  8
0
  6
CONTINUOUS
 10
3.356320
 20
5.569080
  0
VERTEX
  8
0
  6
CONTINUOUS
 10
3.359400
 20
6.315320
  0
VERTEX
  8
0
  6
CONTINUOUS
 10
3.393280
 20
6.283640
  0
VERTEX
  8
0
  6
CONTINUOUS
 10
3.390640
 20
5.537400
  0
VERTEX
  8
0
  6
CONTINUOUS
 10
3.356320
 20
5.569080
  0
SEQEND
  8
0
  0
SOLID
  8
0
 62
    15
 10
3.390640
 20
5.537400
 11
3.393280
 21
6.283640
 12
3.432000
 22
5.510120
 13
3.435080
 23
6.256360
  0
POLYLINE
  8
0
  6
CONTINUOUS
 66
     1
 40
0.000000
 41
0.000000
  0
VERTEX
  8
0
  6
CONTINUOUS
 10
3.390640
 20
5.537400
  0
VERTEX
  8
0
  6
CONTINUOUS
 10
3.393280
 20
6.283640
  0
VERTEX
  8
0
  6
CONTINUOUS
 10
3.435080
 20
6.256360
  0
VERTEX
  8
0
  6
CONTINUOUS
 10
3.432000
 20
5.510120
  0
VERTEX
  8
0
  6
CONTINUOUS
 10
3.390640
 20
5.537400
  0
SEQEND
  8
0
  0
SOLID
  8
0
 62
    15
 10
3.432000
 20
5.510120
 11
3.435080
 21
6.256360
 12
3.479960
 22
5.487240
 13
3.483040
 23
6.233480
  0
POLYLINE
  8
0
  6
CONTINUOUS
 66
     1
 40
0.000000
 41
0.000000
  0
VERTEX
  8
0
  6
CONTINUOUS
 10
3.432000
 20
5.510120
  0
VERTEX
  8
0
  6
CONTINUOUS
 10
3.435080
 20
6.256360
  0
VERTEX
  8
0
  6
CONTINUOUS
 10
3.483040
 20
6.233480
  0
VERTEX
  8
0
  6
CONTINUOUS
 10
3.479960
 20
5.487240
  0
VERTEX
  8
0
  6
CONTINUOUS
 10
3.432000
 20
5.510120
  0
SEQEND
  8
0
  0
SOLID
  8
0
 62
    15
 10
3.479960
 20
5.487240
 11
3.483040
 21
6.233480
 12
3.533640
 22
5.467000
 13
3.536720
 23
6.213240
  0
POLYLINE
  8
0
  6
CONTINUOUS
 66
     1
 40
0.000000
 41
0.000000
  0
VERTEX
  8
0
  6
CONTINUOUS
 10
3.479960
 20
5.487240
  0
VERTEX
  8
0
  6
CONTINUOUS
 10
3.483040
 20
6.233480
  0
VERTEX
  8
0
  6
CONTINUOUS
 10
3.536720
 20
6.213240
  0
VERTEX
  8
0
  6
CONTINUOUS
 10
3.533640
 20
5.467000
  0
VERTEX
  8
0
  6
CONTINUOUS
 10
3.479960
 20
5.487240
  0
SEQEND
  8
0
  0
SOLID
  8
0
 62
    15
 10
3.533640
 20
5.467000
 11
3.536720
 21
6.213240
 12
3.592600
 22
5.448960
 13
3.595680
 23
6.195200
  0
POLYLINE
  8
0
  6
CONTINUOUS
 66
     1
 40
0.000000
 41
0.000000
  0
VERTEX
  8
0
  6
CONTINUOUS
 10
3.533640
 20
5.467000
  0
VERTEX
  8
0
  6
CONTINUOUS
 10
3.536720
 20
6.213240
  0
VERTEX
  8
0
  6
CONTINUOUS
 10
3.595680
 20
6.195200
  0
VERTEX
  8
0
  6
CONTINUOUS
 10
3.592600
 20
5.448960
  0
VERTEX
  8
0
  6
CONTINUOUS
 10
3.533640
 20
5.467000
  0
SEQEND
  8
0
  0
SOLID
  8
0
 62
    15
 10
3.592600
 20
5.448960
 11
3.595680
 21
6.195200
 12
3.647600
 22
5.430480
 13
3.650680
 23
6.176720
  0
POLYLINE
  8
0
  6
CONTINUOUS
 66
     1
 40
0.000000
 41
0.000000
  0
VERTEX
  8
0
  6
CONTINUOUS
 10
3.592600
 20
5.448960
  0
VERTEX
  8
0
  6
CONTINUOUS
 10
3.595680
 20
6.195200
  0
VERTEX
  8
0
  6
CONTINUOUS
 10
3.650680
 20
6.176720
  0
VERTEX
  8
0
  6
CONTINUOUS
 10
3.647600
 20
5.430480
  0
VERTEX
  8
0
  6
CONTINUOUS
 10
3.592600
 20
5.448960
  0
SEQEND
  8
0
  0
SOLID
  8
0
 62
    15
 10
3.647600
 20
5.430480
 11
3.650680
 21
6.176720
 12
3.691600
 22
5.410680
 13
3.694680
 23
6.156920
  0
POLYLINE
  8
0
  6
CONTINUOUS
 66
     1
 40
0.000000
 41
0.000000
  0
VERTEX
  8
0
  6
CONTINUOUS
 10
3.647600
 20
5.430480
  0
VERTEX
  8
0
  6
CONTINUOUS
 10
3.650680
 20
6.176720
  0
VERTEX
  8
0
  6
CONTINUOUS
 10
3.694680
 20
6.156920
  0
VERTEX
  8
0
  6
CONTINUOUS
 10
3.691600
 20
5.410680
  0
VERTEX
  8
0
  6
CONTINUOUS
 10
3.647600
 20
5.430480
  0
SEQEND
  8
0
  0
SOLID
  8
0
 62
    15
 10
3.691600
 20
5.410680
 11
3.694680
 21
6.156920
 12
3.727240
 22
5.389120
 13
3.729880
 23
6.135360
  0
POLYLINE
  8
0
  6
CONTINUOUS
 66
     1
 40
0.000000
 41
0.000000
  0
VERTEX
  8
0
  6
CONTINUOUS
 10
3.691600
 20
5.410680
  0
VERTEX
  8
0
  6
CONTINUOUS
 10
3.694680
 20
6.156920
  0
VERTEX
  8
0
  6
CONTINUOUS
 10
3.729880
 20
6.135360
  0
VERTEX
  8
0
  6
CONTINUOUS
 10
3.727240
 20
5.389120
  0
VERTEX
  8
0
  6
CONTINUOUS
 10
3.691600
 20
5.410680
  0
SEQEND
  8
0
  0
SOLID
  8
0
 62
    15
 10
3.727240
 20
5.389120
 11
3.729880
 21
6.135360
 12
3.754960
 22
5.366680
 13
3.758040
 23
6.112920
  0
POLYLINE
  8
0
  6
CONTINUOUS
 66
     1
 40
0.000000
 41
0.000000
  0
VERTEX
  8
0
  6
CONTINUOUS
 10
3.727240
 20
5.389120
  0
VERTEX
  8
0
  6
CONTINUOUS
 10
3.729880
 20
6.135360
  0
VERTEX
  8
0
  6
CONTINUOUS
 10
3.758040
 20
6.112920
  0
VERTEX
  8
0
  6
CONTINUOUS
 10
3.754960
 20
5.366680
  0
VERTEX
  8
0
  6
CONTINUOUS
 10
3.727240
 20
5.389120
  0
SEQEND
  8
0
  0
SOLID
  8
0
 62
    15
 10
3.754960
 20
5.366680
 11
3.758040
 21
6.112920
 12
3.777840
 22
5.343800
 13
3.780480
 23
6.090040
  0
POLYLINE
  8
0
  6
CONTINUOUS
 66
     1
 40
0.000000
 41
0.000000
  0
VERTEX
  8
0
  6
CONTINUOUS
 10
3.754960
 20
5.366680
  0
VERTEX
  8
0
  6
CONTINUOUS
 10
3.758040
 20
6.112920
  0
VERTEX
  8
0
  6
CONTINUOUS
 10
3.780480
 20
6.090040
  0
VERTEX
  8
0
  6
CONTINUOUS
 10
3.777840
 20
5.343800
  0
VERTEX
  8
0
  6
CONTINUOUS
 10
3.754960
 20
5.366680
  0
SEQEND
  8
0
  0
SOLID
  8
0
 62
    15
 10
3.307040
 20
5.701080
 11
3.310120
 21
6.447320
 12
3.309240
 22
5.674680
 13
3.312320
 23
6.420920
  0
POLYLINE
  8
0
  6
CONTINUOUS
 66
     1
 40
0.000000
 41
0.000000
  0
VERTEX
  8
0
  6
CONTINUOUS
 10
3.307040
 20
5.701080
  0
VERTEX
  8
0
  6
CONTINUOUS
 10
3.310120
 20
6.447320
  0
VERTEX
  8
0
  6
CONTINUOUS
 10
3.312320
 20
6.420920
  0
VERTEX
  8
0
  6
CONTINUOUS
 10
3.309240
 20
5.674680
  0
VERTEX
  8
0
  6
CONTINUOUS
 10
3.307040
 20
5.701080
  0
SEQEND
  8
0
  0
SOLID
  8
0
 62
    15
 10
3.796320
 20
5.320040
 11
3.799400
 21
6.066280
 12
3.805120
 22
5.308600
 13
3.808200
 23
6.054840
  0
POLYLINE
  8
0
  6
CONTINUOUS
 66
     1
 40
0.000000
 41
0.000000
  0
VERTEX
  8
0
  6
CONTINUOUS
 10
3.796320
 20
5.320040
  0
VERTEX
  8
0
  6
CONTINUOUS
 10
3.799400
 20
6.066280
  0
VERTEX
  8
0
  6
CONTINUOUS
 10
3.808200
 20
6.054840
  0
VERTEX
  8
0
  6
CONTINUOUS
 10
3.805120
 20
5.308600
  0
VERTEX
  8
0
  6
CONTINUOUS
 10
3.796320
 20
5.320040
  0
SEQEND
  8
0
  0
SOLID
  8
0
 62
    15
 10
3.805120
 20
5.308600
 11
3.808200
 21
6.054840
 12
3.813480
 22
5.296720
 13
3.816120
 23
6.042960
  0
POLYLINE
  8
0
  6
CONTINUOUS
 66
     1
 40
0.000000
 41
0.000000
  0
VERTEX
  8
0
  6
CONTINUOUS
 10
3.805120
 20
5.308600
  0
VERTEX
  8
0
  6
CONTINUOUS
 10
3.808200
 20
6.054840
  0
VERTEX
  8
0
  6
CONTINUOUS
 10
3.816120
 20
6.042960
  0
VERTEX
  8
0
  6
CONTINUOUS
 10
3.813480
 20
5.296720
  0
VERTEX
  8
0
  6
CONTINUOUS
 10
3.805120
 20
5.308600
  0
SEQEND
  8
0
  0
SOLID
  8
0
 62
    15
 10
3.813480
 20
5.296720
 11
3.816120
 21
6.042960
 12
3.830200
 22
5.273840
 13
3.832840
 23
6.020080
  0
POLYLINE
  8
0
  6
CONTINUOUS
 66
     1
 40
0.000000
 41
0.000000
  0
VERTEX
  8
0
  6
CONTINUOUS
 10
3.813480
 20
5.296720
  0
VERTEX
  8
0
  6
CONTINUOUS
 10
3.816120
 20
6.042960
  0
VERTEX
  8
0
  6
CONTINUOUS
 10
3.832840
 20
6.020080
  0
VERTEX
  8
0
  6
CONTINUOUS
 10
3.830200
 20
5.273840
  0
VERTEX
  8
0
  6
CONTINUOUS
 10
3.813480
 20
5.296720
  0
SEQEND
  8
0
  0
SOLID
  8
0
 62
    15
 10
3.830200
 20
5.273840
 11
3.832840
 21
6.020080
 12
3.842960
 22
5.261080
 13
3.845600
 23
6.007320
  0
POLYLINE
  8
0
  6
CONTINUOUS
 66
     1
 40
0.000000
 41
0.000000
  0
VERTEX
  8
0
  6
CONTINUOUS
 10
3.830200
 20
5.273840
  0
VERTEX
  8
0
  6
CONTINUOUS
 10
3.832840
 20
6.020080
  0
VERTEX
  8
0
  6
CONTINUOUS
 10
3.845600
 20
6.007320
  0
VERTEX
  8
0
  6
CONTINUOUS
 10
3.842960
 20
5.261080
  0
VERTEX
  8
0
  6
CONTINUOUS
 10
3.830200
 20
5.273840
  0
SEQEND
  8
0
  0
SOLID
  8
0
 62
    15
 10
3.842960
 20
5.261080
 11
3.845600
 21
6.007320
 12
3.859240
 22
5.251840
 13
3.861880
 23
5.998080
  0
POLYLINE
  8
0
  6
CONTINUOUS
 66
     1
 40
0.000000
 41
0.000000
  0
VERTEX
  8
0
  6
CONTINUOUS
 10
3.842960
 20
5.261080
  0
VERTEX
  8
0
  6
CONTINUOUS
 10
3.845600
 20
6.007320
  0
VERTEX
  8
0
  6
CONTINUOUS
 10
3.861880
 20
5.998080
  0
VERTEX
  8
0
  6
CONTINUOUS
 10
3.859240
 20
5.251840
  0
VERTEX
  8
0
  6
CONTINUOUS
 10
3.842960
 20
5.261080
  0
SEQEND
  8
0
  0
SOLID
  8
0
 62
    15
 10
3.859240
 20
5.251840
 11
3.861880
 21
5.998080
 12
3.878600
 22
5.245680
 13
3.881240
 23
5.991920
  0
POLYLINE
  8
0
  6
CONTINUOUS
 66
     1
 40
0.000000
 41
0.000000
  0
VERTEX
  8
0
  6
CONTINUOUS
 10
3.859240
 20
5.251840
  0
VERTEX
  8
0
  6
CONTINUOUS
 10
3.861880
 20
5.998080
  0
VERTEX
  8
0
  6
CONTINUOUS
 10
3.881240
 20
5.991920
  0
VERTEX
  8
0
  6
CONTINUOUS
 10
3.878600
 20
5.245680
  0
VERTEX
  8
0
  6
CONTINUOUS
 10
3.859240
 20
5.251840
  0
SEQEND
  8
0
  0
SOLID
  8
0
 62
    15
 10
3.878600
 20
5.245680
 11
3.881240
 21
5.991920
 12
3.901040
 22
5.241720
 13
3.903680
 23
5.987960
  0
POLYLINE
  8
0
  6
CONTINUOUS
 66
     1
 40
0.000000
 41
0.000000
  0
VERTEX
  8
0
  6
CONTINUOUS
 10
3.878600
 20
5.245680
  0
VERTEX
  8
0
  6
CONTINUOUS
 10
3.881240
 20
5.991920
  0
VERTEX
  8
0
  6
CONTINUOUS
 10
3.903680
 20
5.987960
  0
VERTEX
  8
0
  6
CONTINUOUS
 10
3.901040
 20
5.241720
  0
VERTEX
  8
0
  6
CONTINUOUS
 10
3.878600
 20
5.245680
  0
SEQEND
  8
0
  0
SOLID
  8
0
 62
    15
 10
3.901040
 20
5.241720
 11
3.903680
 21
5.987960
 12
3.953840
 22
5.237320
 13
3.956480
 23
5.983560
  0
POLYLINE
  8
0
  6
CONTINUOUS
 66
     1
 40
0.000000
 41
0.000000
  0
VERTEX
  8
0
  6
CONTINUOUS
 10
3.901040
 20
5.241720
  0
VERTEX
  8
0
  6
CONTINUOUS
 10
3.903680
 20
5.987960
  0
VERTEX
  8
0
  6
CONTINUOUS
 10
3.956480
 20
5.983560
  0
VERTEX
  8
0
  6
CONTINUOUS
 10
3.953840
 20
5.237320
  0
VERTEX
  8
0
  6
CONTINUOUS
 10
3.901040
 20
5.241720
  0
SEQEND
  8
0
  0
SOLID
  8
0
 62
    15
 10
3.953840
 20
5.237320
 11
3.956480
 21
5.983560
 12
3.983760
 22
5.236000
 13
3.986400
 23
5.982240
  0
POLYLINE
  8
0
  6
CONTINUOUS
 66
     1
 40
0.000000
 41
0.000000
  0
VERTEX
  8
0
  6
CONTINUOUS
 10
3.953840
 20
5.237320
  0
VERTEX
  8
0
  6
CONTINUOUS
 10
3.956480
 20
5.983560
  0
VERTEX
  8
0
  6
CONTINUOUS
 10
3.986400
 20
5.982240
  0
VERTEX
  8
0
  6
CONTINUOUS
 10
3.983760
 20
5.236000
  0
VERTEX
  8
0
  6
CONTINUOUS
 10
3.953840
 20
5.237320
  0
SEQEND
  8
0
  0
SOLID
  8
0
 62
    15
 10
3.983760
 20
5.236000
 11
3.986400
 21
5.982240
 12
4.015440
 22
5.234240
 13
4.018520
 23
5.980480
  0
POLYLINE
  8
0
  6
CONTINUOUS
 66
     1
 40
0.000000
 41
0.000000
  0
VERTEX
  8
0
  6
CONTINUOUS
 10
3.983760
 20
5.236000
  0
VERTEX
  8
0
  6
CONTINUOUS
 10
3.986400
 20
5.982240
  0
VERTEX
  8
0
  6
CONTINUOUS
 10
4.018520
 20
5.980480
  0
VERTEX
  8
0
  6
CONTINUOUS
 10
4.015440
 20
5.234240
  0
VERTEX
  8
0
  6
CONTINUOUS
 10
3.983760
 20
5.236000
  0
SEQEND
  8
0
  0
SOLID
  8
0
 62
    15
 10
4.040520
 20
5.234240
 11
4.043600
 21
5.980480
 12
4.040520
 22
5.065280
 13
4.043600
 23
5.811520
  0
POLYLINE
  8
0
  6
CONTINUOUS
 66
     1
 40
0.000000
 41
0.000000
  0
VERTEX
  8
0
  6
CONTINUOUS
 10
4.040520
 20
5.234240
  0
VERTEX
  8
0
  6
CONTINUOUS
 10
4.043600
 20
5.980480
  0
VERTEX
  8
0
  6
CONTINUOUS
 10
4.043600
 20
5.811520
  0
VERTEX
  8
0
  6
CONTINUOUS
 10
4.040520
 20
5.065280
  0
VERTEX
  8
0
  6
CONTINUOUS
 10
4.040520
 20
5.234240
  0
SEQEND
  8
0
  0
SOLID
  8
0
 62
    15
 10
4.015440
 20
5.234240
 11
4.018520
 21
5.980480
 12
4.040520
 22
5.234240
 13
4.043600
 23
5.980480
  0
POLYLINE
  8
0
  6
CONTINUOUS
 66
     1
 40
0.000000
 41
0.000000
  0
VERTEX
  8
0
  6
CONTINUOUS
 10
4.015440
 20
5.234240
  0
VERTEX
  8
0
  6
CONTINUOUS
 10
4.018520
 20
5.980480
  0
VERTEX
  8
0
  6
CONTINUOUS
 10
4.043600
 20
5.980480
  0
VERTEX
  8
0
  6
CONTINUOUS
 10
4.040520
 20
5.234240
  0
VERTEX
  8
0
  6
CONTINUOUS
 10
4.015440
 20
5.234240
  0
SEQEND
  8
0
  0
SOLID
  8
0
 62
    15
 10
3.071640
 20
5.702840
 11
3.074720
 21
6.449080
 12
3.307040
 22
5.702840
 13
3.310120
 23
6.449080
  0
POLYLINE
  8
0
  6
CONTINUOUS
 66
     1
 40
0.000000
 41
0.000000
  0
VERTEX
  8
0
  6
CONTINUOUS
 10
3.071640
 20
5.702840
  0
VERTEX
  8
0
  6
CONTINUOUS
 10
3.074720
 20
6.449080
  0
VERTEX
  8
0
  6
CONTINUOUS
 10
3.310120
 20
6.449080
  0
VERTEX
  8
0
  6
CONTINUOUS
 10
3.307040
 20
5.702840
  0
VERTEX
  8
0
  6
CONTINUOUS
 10
3.071640
 20
5.702840
  0
SEQEND
  8
0
  0
SOLID
  8
0
 62
    15
 10
3.307040
 20
5.702840
 11
3.310120
 21
6.449080
 12
3.307040
 22
5.701080
 13
3.310120
 23
6.447320
  0
POLYLINE
  8
0
  6
CONTINUOUS
 66
     1
 40
0.000000
 41
0.000000
  0
VERTEX
  8
0
  6
CONTINUOUS
 10
3.307040
 20
5.702840
  0
VERTEX
  8
0
  6
CONTINUOUS
 10
3.310120
 20
6.449080
  0
VERTEX
  8
0
  6
CONTINUOUS
 10
3.310120
 20
6.447320
  0
VERTEX
  8
0
  6
CONTINUOUS
 10
3.307040
 20
5.701080
  0
VERTEX
  8
0
  6
CONTINUOUS
 10
3.307040
 20
5.702840
  0
SEQEND
  8
0
  0
POLYLINE
  8
0
  6
CONTINUOUS
 66
     1
 40
0.000000
 41
0.000000
  0
VERTEX
  8
0
  6
CONTINUOUS
 10
3.307040
 20
5.701080
  0
VERTEX
  8
0
  6
CONTINUOUS
 10
3.309240
 20
5.674680
  0
VERTEX
  8
0
  6
CONTINUOUS
 10
3.314080
 20
5.650040
  0
VERTEX
  8
0
  6
CONTINUOUS
 10
3.330800
 20
5.606480
  0
VERTEX
  8
0
  6
CONTINUOUS
 10
3.356320
 20
5.569080
  0
VERTEX
  8
0
  6
CONTINUOUS
 10
3.390640
 20
5.537400
  0
VERTEX
  8
0
  6
CONTINUOUS
 10
3.432000
 20
5.510120
  0
VERTEX
  8
0
  6
CONTINUOUS
 10
3.479960
 20
5.487240
  0
VERTEX
  8
0
  6
CONTINUOUS
 10
3.533640
 20
5.467000
  0
VERTEX
  8
0
  6
CONTINUOUS
 10
3.592600
 20
5.448960
  0
VERTEX
  8
0
  6
CONTINUOUS
 10
3.647600
 20
5.430480
  0
VERTEX
  8
0
  6
CONTINUOUS
 10
3.691600
 20
5.410680
  0
VERTEX
  8
0
  6
CONTINUOUS
 10
3.727240
 20
5.389120
  0
VERTEX
  8
0
  6
CONTINUOUS
 10
3.754960
 20
5.366680
  0
VERTEX
  8
0
  6
CONTINUOUS
 10
3.777840
 20
5.343800
  0
VERTEX
  8
0
  6
CONTINUOUS
 10
3.796320
 20
5.320040
  0
VERTEX
  8
0
  6
CONTINUOUS
 10
3.805120
 20
5.308600
  0
VERTEX
  8
0
  6
CONTINUOUS
 10
3.813480
 20
5.296720
  0
VERTEX
  8
0
  6
CONTINUOUS
 10
3.830200
 20
5.273840
  0
VERTEX
  8
0
  6
CONTINUOUS
 10
3.842960
 20
5.261080
  0
VERTEX
  8
0
  6
CONTINUOUS
 10
3.859240
 20
5.251840
  0
VERTEX
  8
0
  6
CONTINUOUS
 10
3.878600
 20
5.245680
  0
VERTEX
  8
0
  6
CONTINUOUS
 10
3.901040
 20
5.241720
  0
VERTEX
  8
0
  6
CONTINUOUS
 10
3.953840
 20
5.237320
  0
VERTEX
  8
0
  6
CONTINUOUS
 10
3.983760
 20
5.236000
  0
VERTEX
  8
0
  6
CONTINUOUS
 10
4.015440
 20
5.234240
  0
VERTEX
  8
0
  6
CONTINUOUS
 10
4.040520
 20
5.234240
  0
VERTEX
  8
0
  6
CONTINUOUS
 10
4.040520
 20
5.065280
  0
VERTEX
  8
0
  6
CONTINUOUS
 10
3.071640
 20
5.065280
  0
VERTEX
  8
0
  6
CONTINUOUS
 10
3.071640
 20
5.702840
  0
VERTEX
  8
0
  6
CONTINUOUS
 10
3.307040
 20
5.702840
  0
VERTEX
  8
0
  6
CONTINUOUS
 10
3.307040
 20
5.701080
  0
SEQEND
  8
0
  0
POLYLINE
  8
0
  6
CONTINUOUS
 66
     1
 40
0.014080
 41
0.014080
  0
VERTEX
  8
0
  6
CONTINUOUS
 10
4.688200
 20
5.939560
  0
VERTEX
  8
0
  6
CONTINUOUS
 10
4.692160
 20
5.900840
  0
VERTEX
  8
0
  6
CONTINUOUS
 10
4.702280
 20
5.866080
  0
VERTEX
  8
0
  6
CONTINUOUS
 10
4.711520
 20
5.844960
  0
VERTEX
  8
0
  6
CONTINUOUS
 10
4.730000
 20
5.816800
  0
VERTEX
  8
0
  6
CONTINUOUS
 10
4.753320
 20
5.791280
  0
VERTEX
  8
0
  6
CONTINUOUS
 10
4.771360
 20
5.775880
  0
VERTEX
  8
0
  6
CONTINUOUS
 10
4.791160
 20
5.761800
  0
VERTEX
  8
0
  6
CONTINUOUS
 10
4.836040
 20
5.736720
  0
VERTEX
  8
0
  6
CONTINUOUS
 10
4.887080
 20
5.715160
  0
VERTEX
  8
0
  6
CONTINUOUS
 10
5.028320
 20
5.669400
  0
VERTEX
  8
0
  6
CONTINUOUS
 10
5.072760
 20
5.649160
  0
VERTEX
  8
0
  6
CONTINUOUS
 10
5.107960
 20
5.628040
  0
VERTEX
  8
0
  6
CONTINUOUS
 10
5.136120
 20
5.605600
  0
VERTEX
  8
0
  6
CONTINUOUS
 10
5.158560
 20
5.582280
  0
VERTEX
  8
0
  6
CONTINUOUS
 10
5.177480
 20
5.558960
  0
VERTEX
  8
0
  6
CONTINUOUS
 10
5.216640
 20
5.505280
  0
VERTEX
  8
0
  6
CONTINUOUS
 10
5.231160
 20
5.494720
  0
VERTEX
  8
0
  6
CONTINUOUS
 10
5.249200
 20
5.486800
  0
VERTEX
  8
0
  6
CONTINUOUS
 10
5.281760
 20
5.480200
  0
VERTEX
  8
0
  6
CONTINUOUS
 10
5.306840
 20
5.477560
  0
VERTEX
  8
0
  6
CONTINUOUS
 10
5.396600
 20
5.472720
  0
VERTEX
  8
0
  6
CONTINUOUS
 10
5.421240
 20
5.472720
  0
VERTEX
  8
0
  6
CONTINUOUS
 10
5.421240
 20
5.304200
  0
VERTEX
  8
0
  6
CONTINUOUS
 10
4.452800
 20
5.304200
  0
VERTEX
  8
0
  6
CONTINUOUS
 10
4.452800
 20
5.941760
  0
VERTEX
  8
0
  6
CONTINUOUS
 10
4.688200
 20
5.941760
  0
VERTEX
  8
0
  6
CONTINUOUS
 10
4.688200
 20
5.939560
  0
SEQEND
  8
0
  0
TEXT
  8
0
 10
4.636280
 20
5.069680
 40
0.138097
  1
BA  686
 41
1.000000
  7
SN0
 71
     0
 72
     5
 11
5.226249
 21
5.069680
  0
TEXT
  8
0
 10
4.623520
 20
4.878280
 40
0.138097
  1
5/8" x 1"
 41
1.000000
  7
SN0
 71
     0
 72
     5
 11
5.238243
 21
4.878280
  0
ENDSEC
  0
EOF
