  0
SECTION
  2
HEADER
  9
$ACADVER
  1
AC1006
  9
$EXTMIN
 10
2.660240
 20
0.333080
  9
$EXTMAX
 10
6.921200
 20
4.690840
  9
$LTSCALE
 40
0.044000
  9
$PDMODE
 70
    35
  9
$PDSIZE
 40
0.035200
  0
ENDSEC
  0
SECTION
  2
TABLES
  0
TABLE
  2
LTYPE
 70
     9
  0
LTYPE
  2
CONTINUOUS
 70
    64
  3
Solid line
 72
    65
 73
     0
 40
0.000000
  0
LTYPE
  2
DASHED
 70
    64
  3
__ __ __ __ __ __ __ __ __ __ __ __ __ __ __
 72
    65
 73
     2
 40
0.000330
 49
0.000220
 49
-0.000110
  0
LTYPE
  2
HIDDEN
 70
    64
  3
 _ _ _ _ _ _ _ _ _ _ _ _ _ _ _ _ _ _ _ _ _ _
 72
    65
 73
     2
 40
0.000165
 49
0.000110
 49
-0.000055
  0
LTYPE
  2
CENTER
 70
    64
  3
____ _ ____ _ ____ _ ____ _ ____ _ ____ _ ____
 72
    65
 73
     4
 40
0.000880
 49
0.000550
 49
-0.000110
 49
0.000110
 49
-0.000110
  0
LTYPE
  2
PHANTOM
 70
    64
  3
_____ _ _ _____ _ _ _____ _ _ _____ _ _ ____
 72
    65
 73
     6
 40
0.001100
 49
0.000550
 49
-0.000110
 49
0.000110
 49
-0.000110
 49
0.000110
 49
-0.000110
  0
LTYPE
  2
DOT
 70
    64
  3
...............................................
 72
    65
 73
     2
 40
0.000110
 49
0.000000
 49
-0.000110
  0
LTYPE
  2
DASHDOT
 70
    64
  3
__ . __ . __ . __ . __ . __ . __ . __ . __ . __
 72
    65
 73
     4
 40
0.000440
 49
0.000220
 49
-0.000110
 49
0.000000
 49
-0.000110
  0
LTYPE
  2
BORDER
 70
    64
  3
__ __ . __ __ . __ __ . __ __ . __ __ . __ __
 72
    65
 73
     6
 40
0.000770
 49
0.000220
 49
-0.000110
 49
0.000220
 49
-0.000110
 49
0.000000
 49
-0.000110
  0
LTYPE
  2
DIVIDE
 70
    64
  3
__ . . __ . . __ . . __ . . __ . . __ . . __
 72
    65
 73
     6
 40
0.000550
 49
0.000220
 49
-0.000110
 49
0.000000
 49
-0.000110
 49
0.000000
 49
-0.000110
  0
LTYPE
  2
DOTDOT
 70
    64
  3
 . .  . .  . .  . .  . .  . . 
 72
    65
 73
     5
 40
0.000242
 49
-0.000110
 49
0.000000
 49
-0.000110
 49
0.000000
 49
-0.000110
  0
ENDTAB
  0
TABLE
  2
STYLE
 70
     2
  0
STYLE
 70
     0
  2
SN0
 40
0.000000
 41
0.000440
 50
0.000000
 71
     0
 42
0.000000
  3
ROMAND
  0
STYLE
 70
    68
  2
SV0
 40
0.000000
 41
0.000440
 50
0.000000
 71
     0
 42
0.000000
  3
ROMAND
  0
ENDTAB
  0
TABLE
  2
LAYER
 70
     3
  0
LAYER
  2
FOREGROUND
 70
    64
 62
     7
  6
CONTINUOUS
  0
LAYER
  2
BACKGROUND
 70
    65
 62
    -7
  6
CONTINUOUS
  0
LAYER
  2
0
 70
    64
 62
     7
  6
CONTINUOUS
  0
ENDTAB
  0
ENDSEC
  0
SECTION
  2
ENTITIES
  0
POLYLINE
  8
FOREGROUND
  6
CONTINUOUS
 66
     1
 40
0.000000
 41
0.000000
  0
VERTEX
  8
FOREGROUND
  6
CONTINUOUS
 10
0.000000
 20
5.023920
  0
VERTEX
  8
FOREGROUND
  6
CONTINUOUS
 10
8.499920
 20
5.023920
  0
VERTEX
  8
FOREGROUND
  6
CONTINUOUS
 10
8.499920
 20
-5.976080
  0
VERTEX
  8
FOREGROUND
  6
CONTINUOUS
 10
0.000000
 20
-5.976080
  0
VERTEX
  8
FOREGROUND
  6
CONTINUOUS
 10
0.000000
 20
5.023920
  0
SEQEND
  8
0
  0
POLYLINE
  8
FOREGROUND
  6
CONTINUOUS
 66
     1
 40
0.000000
 41
0.000000
  0
VERTEX
  8
FOREGROUND
  6
CONTINUOUS
 10
0.000000
 20
5.023920
  0
VERTEX
  8
FOREGROUND
  6
CONTINUOUS
 10
8.499920
 20
5.023920
  0
VERTEX
  8
FOREGROUND
  6
CONTINUOUS
 10
8.499920
 20
-5.976080
  0
VERTEX
  8
FOREGROUND
  6
CONTINUOUS
 10
0.000000
 20
-5.976080
  0
VERTEX
  8
FOREGROUND
  6
CONTINUOUS
 10
0.000000
 20
5.023920
  0
SEQEND
  8
0
  0
SOLID
  8
0
 62
    15
 10
4.967600
 20
2.283160
 11
5.615280
 21
1.918400
 12
4.891920
 22
2.143680
 13
5.539600
 23
1.778920
  0
POLYLINE
  8
0
  6
CONTINUOUS
 66
     1
 40
0.000000
 41
0.000000
  0
VERTEX
  8
0
  6
CONTINUOUS
 10
4.967600
 20
2.283160
  0
VERTEX
  8
0
  6
CONTINUOUS
 10
5.615280
 20
1.918400
  0
VERTEX
  8
0
  6
CONTINUOUS
 10
5.539600
 20
1.778920
  0
VERTEX
  8
0
  6
CONTINUOUS
 10
4.891920
 20
2.143680
  0
VERTEX
  8
0
  6
CONTINUOUS
 10
4.967600
 20
2.283160
  0
SEQEND
  8
0
  0
SOLID
  8
0
 62
    15
 10
6.273080
 20
2.947560
 11
6.920760
 21
2.582800
 12
6.139320
 22
2.942720
 13
6.787000
 23
2.577960
  0
POLYLINE
  8
0
  6
CONTINUOUS
 66
     1
 40
0.000000
 41
0.000000
  0
VERTEX
  8
0
  6
CONTINUOUS
 10
6.273080
 20
2.947560
  0
VERTEX
  8
0
  6
CONTINUOUS
 10
6.920760
 20
2.582800
  0
VERTEX
  8
0
  6
CONTINUOUS
 10
6.787000
 20
2.577960
  0
VERTEX
  8
0
  6
CONTINUOUS
 10
6.139320
 20
2.942720
  0
VERTEX
  8
0
  6
CONTINUOUS
 10
6.273080
 20
2.947560
  0
SEQEND
  8
0
  0
SOLID
  8
0
 62
    15
 10
6.139320
 20
2.942720
 11
6.787000
 21
2.577960
 12
6.109400
 22
2.886400
 13
6.757080
 23
2.521640
  0
POLYLINE
  8
0
  6
CONTINUOUS
 66
     1
 40
0.000000
 41
0.000000
  0
VERTEX
  8
0
  6
CONTINUOUS
 10
6.139320
 20
2.942720
  0
VERTEX
  8
0
  6
CONTINUOUS
 10
6.787000
 20
2.577960
  0
VERTEX
  8
0
  6
CONTINUOUS
 10
6.757080
 20
2.521640
  0
VERTEX
  8
0
  6
CONTINUOUS
 10
6.109400
 20
2.886400
  0
VERTEX
  8
0
  6
CONTINUOUS
 10
6.139320
 20
2.942720
  0
SEQEND
  8
0
  0
SOLID
  8
0
 62
    15
 10
6.109400
 20
2.886400
 11
6.757080
 21
2.521640
 12
6.065840
 22
2.837560
 13
6.713960
 23
2.472800
  0
POLYLINE
  8
0
  6
CONTINUOUS
 66
     1
 40
0.000000
 41
0.000000
  0
VERTEX
  8
0
  6
CONTINUOUS
 10
6.109400
 20
2.886400
  0
VERTEX
  8
0
  6
CONTINUOUS
 10
6.757080
 20
2.521640
  0
VERTEX
  8
0
  6
CONTINUOUS
 10
6.713960
 20
2.472800
  0
VERTEX
  8
0
  6
CONTINUOUS
 10
6.065840
 20
2.837560
  0
VERTEX
  8
0
  6
CONTINUOUS
 10
6.109400
 20
2.886400
  0
SEQEND
  8
0
  0
SOLID
  8
0
 62
    15
 10
6.065840
 20
2.837560
 11
6.713960
 21
2.472800
 12
6.010400
 22
2.797080
 13
6.658520
 23
2.432320
  0
POLYLINE
  8
0
  6
CONTINUOUS
 66
     1
 40
0.000000
 41
0.000000
  0
VERTEX
  8
0
  6
CONTINUOUS
 10
6.065840
 20
2.837560
  0
VERTEX
  8
0
  6
CONTINUOUS
 10
6.713960
 20
2.472800
  0
VERTEX
  8
0
  6
CONTINUOUS
 10
6.658520
 20
2.432320
  0
VERTEX
  8
0
  6
CONTINUOUS
 10
6.010400
 20
2.797080
  0
VERTEX
  8
0
  6
CONTINUOUS
 10
6.065840
 20
2.837560
  0
SEQEND
  8
0
  0
SOLID
  8
0
 62
    15
 10
6.010400
 20
2.797080
 11
6.658520
 21
2.432320
 12
5.945280
 22
2.766280
 13
6.592960
 23
2.401520
  0
POLYLINE
  8
0
  6
CONTINUOUS
 66
     1
 40
0.000000
 41
0.000000
  0
VERTEX
  8
0
  6
CONTINUOUS
 10
6.010400
 20
2.797080
  0
VERTEX
  8
0
  6
CONTINUOUS
 10
6.658520
 20
2.432320
  0
VERTEX
  8
0
  6
CONTINUOUS
 10
6.592960
 20
2.401520
  0
VERTEX
  8
0
  6
CONTINUOUS
 10
5.945280
 20
2.766280
  0
VERTEX
  8
0
  6
CONTINUOUS
 10
6.010400
 20
2.797080
  0
SEQEND
  8
0
  0
SOLID
  8
0
 62
    15
 10
5.945280
 20
2.766280
 11
6.592960
 21
2.401520
 12
5.871800
 22
2.746480
 13
6.519480
 23
2.381720
  0
POLYLINE
  8
0
  6
CONTINUOUS
 66
     1
 40
0.000000
 41
0.000000
  0
VERTEX
  8
0
  6
CONTINUOUS
 10
5.945280
 20
2.766280
  0
VERTEX
  8
0
  6
CONTINUOUS
 10
6.592960
 20
2.401520
  0
VERTEX
  8
0
  6
CONTINUOUS
 10
6.519480
 20
2.381720
  0
VERTEX
  8
0
  6
CONTINUOUS
 10
5.871800
 20
2.746480
  0
VERTEX
  8
0
  6
CONTINUOUS
 10
5.945280
 20
2.766280
  0
SEQEND
  8
0
  0
SOLID
  8
0
 62
    15
 10
5.871800
 20
2.746480
 11
6.519480
 21
2.381720
 12
5.791720
 22
2.738560
 13
6.439400
 23
2.373800
  0
POLYLINE
  8
0
  6
CONTINUOUS
 66
     1
 40
0.000000
 41
0.000000
  0
VERTEX
  8
0
  6
CONTINUOUS
 10
5.871800
 20
2.746480
  0
VERTEX
  8
0
  6
CONTINUOUS
 10
6.519480
 20
2.381720
  0
VERTEX
  8
0
  6
CONTINUOUS
 10
6.439400
 20
2.373800
  0
VERTEX
  8
0
  6
CONTINUOUS
 10
5.791720
 20
2.738560
  0
VERTEX
  8
0
  6
CONTINUOUS
 10
5.871800
 20
2.746480
  0
SEQEND
  8
0
  0
SOLID
  8
0
 62
    15
 10
5.791720
 20
2.738560
 11
6.439400
 21
2.373800
 12
5.707240
 22
2.743400
 13
6.354920
 23
2.378640
  0
POLYLINE
  8
0
  6
CONTINUOUS
 66
     1
 40
0.000000
 41
0.000000
  0
VERTEX
  8
0
  6
CONTINUOUS
 10
5.791720
 20
2.738560
  0
VERTEX
  8
0
  6
CONTINUOUS
 10
6.439400
 20
2.373800
  0
VERTEX
  8
0
  6
CONTINUOUS
 10
6.354920
 20
2.378640
  0
VERTEX
  8
0
  6
CONTINUOUS
 10
5.707240
 20
2.743400
  0
VERTEX
  8
0
  6
CONTINUOUS
 10
5.791720
 20
2.738560
  0
SEQEND
  8
0
  0
SOLID
  8
0
 62
    15
 10
5.707240
 20
2.743400
 11
6.354920
 21
2.378640
 12
5.620560
 22
2.762320
 13
6.268240
 23
2.397560
  0
POLYLINE
  8
0
  6
CONTINUOUS
 66
     1
 40
0.000000
 41
0.000000
  0
VERTEX
  8
0
  6
CONTINUOUS
 10
5.707240
 20
2.743400
  0
VERTEX
  8
0
  6
CONTINUOUS
 10
6.354920
 20
2.378640
  0
VERTEX
  8
0
  6
CONTINUOUS
 10
6.268240
 20
2.397560
  0
VERTEX
  8
0
  6
CONTINUOUS
 10
5.620560
 20
2.762320
  0
VERTEX
  8
0
  6
CONTINUOUS
 10
5.707240
 20
2.743400
  0
SEQEND
  8
0
  0
SOLID
  8
0
 62
    15
 10
5.620560
 20
2.762320
 11
6.268240
 21
2.397560
 12
5.527720
 22
2.619320
 13
6.175840
 23
2.255000
  0
POLYLINE
  8
0
  6
CONTINUOUS
 66
     1
 40
0.000000
 41
0.000000
  0
VERTEX
  8
0
  6
CONTINUOUS
 10
5.620560
 20
2.762320
  0
VERTEX
  8
0
  6
CONTINUOUS
 10
6.268240
 20
2.397560
  0
VERTEX
  8
0
  6
CONTINUOUS
 10
6.175840
 20
2.255000
  0
VERTEX
  8
0
  6
CONTINUOUS
 10
5.527720
 20
2.619320
  0
VERTEX
  8
0
  6
CONTINUOUS
 10
5.620560
 20
2.762320
  0
SEQEND
  8
0
  0
SOLID
  8
0
 62
    15
 10
5.527720
 20
2.619320
 11
6.175840
 21
2.255000
 12
5.408040
 22
2.663760
 13
6.055720
 23
2.299440
  0
POLYLINE
  8
0
  6
CONTINUOUS
 66
     1
 40
0.000000
 41
0.000000
  0
VERTEX
  8
0
  6
CONTINUOUS
 10
5.527720
 20
2.619320
  0
VERTEX
  8
0
  6
CONTINUOUS
 10
6.175840
 20
2.255000
  0
VERTEX
  8
0
  6
CONTINUOUS
 10
6.055720
 20
2.299440
  0
VERTEX
  8
0
  6
CONTINUOUS
 10
5.408040
 20
2.663760
  0
VERTEX
  8
0
  6
CONTINUOUS
 10
5.527720
 20
2.619320
  0
SEQEND
  8
0
  0
SOLID
  8
0
 62
    15
 10
5.408040
 20
2.663760
 11
6.055720
 21
2.299440
 12
5.307720
 22
2.606560
 13
5.955400
 23
2.241800
  0
POLYLINE
  8
0
  6
CONTINUOUS
 66
     1
 40
0.000000
 41
0.000000
  0
VERTEX
  8
0
  6
CONTINUOUS
 10
5.408040
 20
2.663760
  0
VERTEX
  8
0
  6
CONTINUOUS
 10
6.055720
 20
2.299440
  0
VERTEX
  8
0
  6
CONTINUOUS
 10
5.955400
 20
2.241800
  0
VERTEX
  8
0
  6
CONTINUOUS
 10
5.307720
 20
2.606560
  0
VERTEX
  8
0
  6
CONTINUOUS
 10
5.408040
 20
2.663760
  0
SEQEND
  8
0
  0
SOLID
  8
0
 62
    15
 10
5.307720
 20
2.606560
 11
5.955400
 21
2.241800
 12
5.219280
 22
2.545840
 13
5.866960
 23
2.181520
  0
POLYLINE
  8
0
  6
CONTINUOUS
 66
     1
 40
0.000000
 41
0.000000
  0
VERTEX
  8
0
  6
CONTINUOUS
 10
5.307720
 20
2.606560
  0
VERTEX
  8
0
  6
CONTINUOUS
 10
5.955400
 20
2.241800
  0
VERTEX
  8
0
  6
CONTINUOUS
 10
5.866960
 20
2.181520
  0
VERTEX
  8
0
  6
CONTINUOUS
 10
5.219280
 20
2.545840
  0
VERTEX
  8
0
  6
CONTINUOUS
 10
5.307720
 20
2.606560
  0
SEQEND
  8
0
  0
SOLID
  8
0
 62
    15
 10
5.219280
 20
2.545840
 11
5.866960
 21
2.181520
 12
5.074520
 22
2.418240
 13
5.722200
 23
2.053480
  0
POLYLINE
  8
0
  6
CONTINUOUS
 66
     1
 40
0.000000
 41
0.000000
  0
VERTEX
  8
0
  6
CONTINUOUS
 10
5.219280
 20
2.545840
  0
VERTEX
  8
0
  6
CONTINUOUS
 10
5.866960
 20
2.181520
  0
VERTEX
  8
0
  6
CONTINUOUS
 10
5.722200
 20
2.053480
  0
VERTEX
  8
0
  6
CONTINUOUS
 10
5.074520
 20
2.418240
  0
VERTEX
  8
0
  6
CONTINUOUS
 10
5.219280
 20
2.545840
  0
SEQEND
  8
0
  0
SOLID
  8
0
 62
    15
 10
5.074520
 20
2.418240
 11
5.722200
 21
2.053480
 12
4.967600
 22
2.283160
 13
5.615280
 23
1.918400
  0
POLYLINE
  8
0
  6
CONTINUOUS
 66
     1
 40
0.000000
 41
0.000000
  0
VERTEX
  8
0
  6
CONTINUOUS
 10
5.074520
 20
2.418240
  0
VERTEX
  8
0
  6
CONTINUOUS
 10
5.722200
 20
2.053480
  0
VERTEX
  8
0
  6
CONTINUOUS
 10
5.615280
 20
1.918400
  0
VERTEX
  8
0
  6
CONTINUOUS
 10
4.967600
 20
2.283160
  0
VERTEX
  8
0
  6
CONTINUOUS
 10
5.074520
 20
2.418240
  0
SEQEND
  8
0
  0
SOLID
  8
0
 62
    15
 10
6.269560
 20
3.330800
 11
6.917240
 21
2.966480
 12
6.273080
 22
2.947560
 13
6.920760
 23
2.582800
  0
POLYLINE
  8
0
  6
CONTINUOUS
 66
     1
 40
0.000000
 41
0.000000
  0
VERTEX
  8
0
  6
CONTINUOUS
 10
6.269560
 20
3.330800
  0
VERTEX
  8
0
  6
CONTINUOUS
 10
6.917240
 20
2.966480
  0
VERTEX
  8
0
  6
CONTINUOUS
 10
6.920760
 20
2.582800
  0
VERTEX
  8
0
  6
CONTINUOUS
 10
6.273080
 20
2.947560
  0
VERTEX
  8
0
  6
CONTINUOUS
 10
6.269560
 20
3.330800
  0
SEQEND
  8
0
  0
SOLID
  8
0
 62
    15
 10
4.891920
 20
2.143680
 11
5.539600
 21
1.778920
 12
4.840880
 22
2.002440
 13
5.488560
 23
1.637680
  0
POLYLINE
  8
0
  6
CONTINUOUS
 66
     1
 40
0.000000
 41
0.000000
  0
VERTEX
  8
0
  6
CONTINUOUS
 10
4.891920
 20
2.143680
  0
VERTEX
  8
0
  6
CONTINUOUS
 10
5.539600
 20
1.778920
  0
VERTEX
  8
0
  6
CONTINUOUS
 10
5.488560
 20
1.637680
  0
VERTEX
  8
0
  6
CONTINUOUS
 10
4.840880
 20
2.002440
  0
VERTEX
  8
0
  6
CONTINUOUS
 10
4.891920
 20
2.143680
  0
SEQEND
  8
0
  0
SOLID
  8
0
 62
    15
 10
4.840880
 20
2.002440
 11
5.488560
 21
1.637680
 12
4.807440
 22
1.861640
 13
5.455560
 23
1.497320
  0
POLYLINE
  8
0
  6
CONTINUOUS
 66
     1
 40
0.000000
 41
0.000000
  0
VERTEX
  8
0
  6
CONTINUOUS
 10
4.840880
 20
2.002440
  0
VERTEX
  8
0
  6
CONTINUOUS
 10
5.488560
 20
1.637680
  0
VERTEX
  8
0
  6
CONTINUOUS
 10
5.455560
 20
1.497320
  0
VERTEX
  8
0
  6
CONTINUOUS
 10
4.807440
 20
1.861640
  0
VERTEX
  8
0
  6
CONTINUOUS
 10
4.840880
 20
2.002440
  0
SEQEND
  8
0
  0
SOLID
  8
0
 62
    15
 10
4.807440
 20
1.861640
 11
5.455560
 21
1.497320
 12
4.785880
 22
1.724800
 13
5.433560
 23
1.360040
  0
POLYLINE
  8
0
  6
CONTINUOUS
 66
     1
 40
0.000000
 41
0.000000
  0
VERTEX
  8
0
  6
CONTINUOUS
 10
4.807440
 20
1.861640
  0
VERTEX
  8
0
  6
CONTINUOUS
 10
5.455560
 20
1.497320
  0
VERTEX
  8
0
  6
CONTINUOUS
 10
5.433560
 20
1.360040
  0
VERTEX
  8
0
  6
CONTINUOUS
 10
4.785880
 20
1.724800
  0
VERTEX
  8
0
  6
CONTINUOUS
 10
4.807440
 20
1.861640
  0
SEQEND
  8
0
  0
SOLID
  8
0
 62
    15
 10
4.785880
 20
1.724800
 11
5.433560
 21
1.360040
 12
4.781480
 22
1.691360
 13
5.429160
 23
1.326600
  0
POLYLINE
  8
0
  6
CONTINUOUS
 66
     1
 40
0.000000
 41
0.000000
  0
VERTEX
  8
0
  6
CONTINUOUS
 10
4.785880
 20
1.724800
  0
VERTEX
  8
0
  6
CONTINUOUS
 10
5.433560
 20
1.360040
  0
VERTEX
  8
0
  6
CONTINUOUS
 10
5.429160
 20
1.326600
  0
VERTEX
  8
0
  6
CONTINUOUS
 10
4.781480
 20
1.691360
  0
VERTEX
  8
0
  6
CONTINUOUS
 10
4.785880
 20
1.724800
  0
SEQEND
  8
0
  0
SOLID
  8
0
 62
    15
 10
4.781480
 20
1.691360
 11
5.429160
 21
1.326600
 12
4.769160
 22
1.593680
 13
5.416840
 23
1.229360
  0
POLYLINE
  8
0
  6
CONTINUOUS
 66
     1
 40
0.000000
 41
0.000000
  0
VERTEX
  8
0
  6
CONTINUOUS
 10
4.781480
 20
1.691360
  0
VERTEX
  8
0
  6
CONTINUOUS
 10
5.429160
 20
1.326600
  0
VERTEX
  8
0
  6
CONTINUOUS
 10
5.416840
 20
1.229360
  0
VERTEX
  8
0
  6
CONTINUOUS
 10
4.769160
 20
1.593680
  0
VERTEX
  8
0
  6
CONTINUOUS
 10
4.781480
 20
1.691360
  0
SEQEND
  8
0
  0
SOLID
  8
0
 62
    15
 10
4.769160
 20
1.593680
 11
5.416840
 21
1.229360
 12
4.596680
 22
1.586200
 13
5.244360
 23
1.221440
  0
POLYLINE
  8
0
  6
CONTINUOUS
 66
     1
 40
0.000000
 41
0.000000
  0
VERTEX
  8
0
  6
CONTINUOUS
 10
4.769160
 20
1.593680
  0
VERTEX
  8
0
  6
CONTINUOUS
 10
5.416840
 20
1.229360
  0
VERTEX
  8
0
  6
CONTINUOUS
 10
5.244360
 20
1.221440
  0
VERTEX
  8
0
  6
CONTINUOUS
 10
4.596680
 20
1.586200
  0
VERTEX
  8
0
  6
CONTINUOUS
 10
4.769160
 20
1.593680
  0
SEQEND
  8
0
  0
SOLID
  8
0
 62
    15
 10
4.596680
 20
1.586200
 11
5.244360
 21
1.221440
 12
4.572040
 22
1.462560
 13
5.219720
 23
1.098240
  0
POLYLINE
  8
0
  6
CONTINUOUS
 66
     1
 40
0.000000
 41
0.000000
  0
VERTEX
  8
0
  6
CONTINUOUS
 10
4.596680
 20
1.586200
  0
VERTEX
  8
0
  6
CONTINUOUS
 10
5.244360
 20
1.221440
  0
VERTEX
  8
0
  6
CONTINUOUS
 10
5.219720
 20
1.098240
  0
VERTEX
  8
0
  6
CONTINUOUS
 10
4.572040
 20
1.462560
  0
VERTEX
  8
0
  6
CONTINUOUS
 10
4.596680
 20
1.586200
  0
SEQEND
  8
0
  0
SOLID
  8
0
 62
    15
 10
4.572040
 20
1.462560
 11
5.219720
 21
1.098240
 12
4.515280
 22
1.342880
 13
5.162960
 23
0.978120
  0
POLYLINE
  8
0
  6
CONTINUOUS
 66
     1
 40
0.000000
 41
0.000000
  0
VERTEX
  8
0
  6
CONTINUOUS
 10
4.572040
 20
1.462560
  0
VERTEX
  8
0
  6
CONTINUOUS
 10
5.219720
 20
1.098240
  0
VERTEX
  8
0
  6
CONTINUOUS
 10
5.162960
 20
0.978120
  0
VERTEX
  8
0
  6
CONTINUOUS
 10
4.515280
 20
1.342880
  0
VERTEX
  8
0
  6
CONTINUOUS
 10
4.572040
 20
1.462560
  0
SEQEND
  8
0
  0
SOLID
  8
0
 62
    15
 10
4.515280
 20
1.342880
 11
5.162960
 21
0.978120
 12
4.433440
 22
1.231560
 13
5.081120
 23
0.866800
  0
POLYLINE
  8
0
  6
CONTINUOUS
 66
     1
 40
0.000000
 41
0.000000
  0
VERTEX
  8
0
  6
CONTINUOUS
 10
4.515280
 20
1.342880
  0
VERTEX
  8
0
  6
CONTINUOUS
 10
5.162960
 20
0.978120
  0
VERTEX
  8
0
  6
CONTINUOUS
 10
5.081120
 20
0.866800
  0
VERTEX
  8
0
  6
CONTINUOUS
 10
4.433440
 20
1.231560
  0
VERTEX
  8
0
  6
CONTINUOUS
 10
4.515280
 20
1.342880
  0
SEQEND
  8
0
  0
SOLID
  8
0
 62
    15
 10
4.433440
 20
1.231560
 11
5.081120
 21
0.866800
 12
4.332680
 22
1.134320
 13
4.980800
 23
0.769560
  0
POLYLINE
  8
0
  6
CONTINUOUS
 66
     1
 40
0.000000
 41
0.000000
  0
VERTEX
  8
0
  6
CONTINUOUS
 10
4.433440
 20
1.231560
  0
VERTEX
  8
0
  6
CONTINUOUS
 10
5.081120
 20
0.866800
  0
VERTEX
  8
0
  6
CONTINUOUS
 10
4.980800
 20
0.769560
  0
VERTEX
  8
0
  6
CONTINUOUS
 10
4.332680
 20
1.134320
  0
VERTEX
  8
0
  6
CONTINUOUS
 10
4.433440
 20
1.231560
  0
SEQEND
  8
0
  0
SOLID
  8
0
 62
    15
 10
4.332680
 20
1.134320
 11
4.980800
 21
0.769560
 12
4.220040
 22
1.056880
 13
4.867720
 23
0.692560
  0
POLYLINE
  8
0
  6
CONTINUOUS
 66
     1
 40
0.000000
 41
0.000000
  0
VERTEX
  8
0
  6
CONTINUOUS
 10
4.332680
 20
1.134320
  0
VERTEX
  8
0
  6
CONTINUOUS
 10
4.980800
 20
0.769560
  0
VERTEX
  8
0
  6
CONTINUOUS
 10
4.867720
 20
0.692560
  0
VERTEX
  8
0
  6
CONTINUOUS
 10
4.220040
 20
1.056880
  0
VERTEX
  8
0
  6
CONTINUOUS
 10
4.332680
 20
1.134320
  0
SEQEND
  8
0
  0
SOLID
  8
0
 62
    15
 10
4.220040
 20
1.056880
 11
4.867720
 21
0.692560
 12
4.101680
 22
1.004960
 13
4.749360
 23
0.640200
  0
POLYLINE
  8
0
  6
CONTINUOUS
 66
     1
 40
0.000000
 41
0.000000
  0
VERTEX
  8
0
  6
CONTINUOUS
 10
4.220040
 20
1.056880
  0
VERTEX
  8
0
  6
CONTINUOUS
 10
4.867720
 20
0.692560
  0
VERTEX
  8
0
  6
CONTINUOUS
 10
4.749360
 20
0.640200
  0
VERTEX
  8
0
  6
CONTINUOUS
 10
4.101680
 20
1.004960
  0
VERTEX
  8
0
  6
CONTINUOUS
 10
4.220040
 20
1.056880
  0
SEQEND
  8
0
  0
SOLID
  8
0
 62
    15
 10
4.101680
 20
1.004960
 11
4.749360
 21
0.640200
 12
3.983760
 22
0.982960
 13
4.631880
 23
0.618200
  0
POLYLINE
  8
0
  6
CONTINUOUS
 66
     1
 40
0.000000
 41
0.000000
  0
VERTEX
  8
0
  6
CONTINUOUS
 10
4.101680
 20
1.004960
  0
VERTEX
  8
0
  6
CONTINUOUS
 10
4.749360
 20
0.640200
  0
VERTEX
  8
0
  6
CONTINUOUS
 10
4.631880
 20
0.618200
  0
VERTEX
  8
0
  6
CONTINUOUS
 10
3.983760
 20
0.982960
  0
VERTEX
  8
0
  6
CONTINUOUS
 10
4.101680
 20
1.004960
  0
SEQEND
  8
0
  0
SOLID
  8
0
 62
    15
 10
3.983760
 20
0.982960
 11
4.631880
 21
0.618200
 12
3.873760
 22
0.997480
 13
4.521440
 23
0.632720
  0
POLYLINE
  8
0
  6
CONTINUOUS
 66
     1
 40
0.000000
 41
0.000000
  0
VERTEX
  8
0
  6
CONTINUOUS
 10
3.983760
 20
0.982960
  0
VERTEX
  8
0
  6
CONTINUOUS
 10
4.631880
 20
0.618200
  0
VERTEX
  8
0
  6
CONTINUOUS
 10
4.521440
 20
0.632720
  0
VERTEX
  8
0
  6
CONTINUOUS
 10
3.873760
 20
0.997480
  0
VERTEX
  8
0
  6
CONTINUOUS
 10
3.983760
 20
0.982960
  0
SEQEND
  8
0
  0
SOLID
  8
0
 62
    15
 10
3.873760
 20
0.997480
 11
4.521440
 21
0.632720
 12
3.870240
 22
0.708840
 13
4.517920
 23
0.344520
  0
POLYLINE
  8
0
  6
CONTINUOUS
 66
     1
 40
0.000000
 41
0.000000
  0
VERTEX
  8
0
  6
CONTINUOUS
 10
3.873760
 20
0.997480
  0
VERTEX
  8
0
  6
CONTINUOUS
 10
4.521440
 20
0.632720
  0
VERTEX
  8
0
  6
CONTINUOUS
 10
4.517920
 20
0.344520
  0
VERTEX
  8
0
  6
CONTINUOUS
 10
3.870240
 20
0.708840
  0
VERTEX
  8
0
  6
CONTINUOUS
 10
3.873760
 20
0.997480
  0
SEQEND
  8
0
  0
SOLID
  8
0
 62
    15
 10
3.870240
 20
0.708840
 11
4.517920
 21
0.344520
 12
3.285480
 22
0.708840
 13
3.933160
 23
0.344080
  0
POLYLINE
  8
0
  6
CONTINUOUS
 66
     1
 40
0.000000
 41
0.000000
  0
VERTEX
  8
0
  6
CONTINUOUS
 10
3.870240
 20
0.708840
  0
VERTEX
  8
0
  6
CONTINUOUS
 10
4.517920
 20
0.344520
  0
VERTEX
  8
0
  6
CONTINUOUS
 10
3.933160
 20
0.344080
  0
VERTEX
  8
0
  6
CONTINUOUS
 10
3.285480
 20
0.708840
  0
VERTEX
  8
0
  6
CONTINUOUS
 10
3.870240
 20
0.708840
  0
SEQEND
  8
0
  0
POLYLINE
  8
0
  6
CONTINUOUS
 66
     1
 40
0.000000
 41
0.000000
  0
VERTEX
  8
0
  6
CONTINUOUS
 10
3.289440
 20
1.177000
  0
VERTEX
  8
0
  6
CONTINUOUS
 10
5.695360
 20
3.335640
  0
VERTEX
  8
0
  6
CONTINUOUS
 10
6.269560
 20
3.330800
  0
VERTEX
  8
0
  6
CONTINUOUS
 10
6.273080
 20
2.947560
  0
VERTEX
  8
0
  6
CONTINUOUS
 10
6.139320
 20
2.942720
  0
VERTEX
  8
0
  6
CONTINUOUS
 10
6.109400
 20
2.886400
  0
VERTEX
  8
0
  6
CONTINUOUS
 10
6.065840
 20
2.837560
  0
VERTEX
  8
0
  6
CONTINUOUS
 10
6.010400
 20
2.797080
  0
VERTEX
  8
0
  6
CONTINUOUS
 10
5.945280
 20
2.766280
  0
VERTEX
  8
0
  6
CONTINUOUS
 10
5.871800
 20
2.746480
  0
VERTEX
  8
0
  6
CONTINUOUS
 10
5.791720
 20
2.738560
  0
VERTEX
  8
0
  6
CONTINUOUS
 10
5.707240
 20
2.743400
  0
VERTEX
  8
0
  6
CONTINUOUS
 10
5.620560
 20
2.762320
  0
VERTEX
  8
0
  6
CONTINUOUS
 10
5.527720
 20
2.619320
  0
VERTEX
  8
0
  6
CONTINUOUS
 10
5.408040
 20
2.663760
  0
VERTEX
  8
0
  6
CONTINUOUS
 10
5.307720
 20
2.606560
  0
VERTEX
  8
0
  6
CONTINUOUS
 10
5.219280
 20
2.545840
  0
VERTEX
  8
0
  6
CONTINUOUS
 10
5.074520
 20
2.418240
  0
VERTEX
  8
0
  6
CONTINUOUS
 10
4.967600
 20
2.283160
  0
VERTEX
  8
0
  6
CONTINUOUS
 10
4.891920
 20
2.143680
  0
VERTEX
  8
0
  6
CONTINUOUS
 10
4.840880
 20
2.002440
  0
VERTEX
  8
0
  6
CONTINUOUS
 10
4.807440
 20
1.861640
  0
VERTEX
  8
0
  6
CONTINUOUS
 10
4.785880
 20
1.724800
  0
VERTEX
  8
0
  6
CONTINUOUS
 10
4.781480
 20
1.691360
  0
VERTEX
  8
0
  6
CONTINUOUS
 10
4.769160
 20
1.593680
  0
VERTEX
  8
0
  6
CONTINUOUS
 10
4.596680
 20
1.586200
  0
VERTEX
  8
0
  6
CONTINUOUS
 10
4.572040
 20
1.462560
  0
VERTEX
  8
0
  6
CONTINUOUS
 10
4.515280
 20
1.342880
  0
VERTEX
  8
0
  6
CONTINUOUS
 10
4.433440
 20
1.231560
  0
VERTEX
  8
0
  6
CONTINUOUS
 10
4.332680
 20
1.134320
  0
VERTEX
  8
0
  6
CONTINUOUS
 10
4.220040
 20
1.056880
  0
VERTEX
  8
0
  6
CONTINUOUS
 10
4.101680
 20
1.004960
  0
VERTEX
  8
0
  6
CONTINUOUS
 10
3.983760
 20
0.982960
  0
VERTEX
  8
0
  6
CONTINUOUS
 10
3.873760
 20
0.997480
  0
VERTEX
  8
0
  6
CONTINUOUS
 10
3.870240
 20
0.708840
  0
VERTEX
  8
0
  6
CONTINUOUS
 10
3.285480
 20
0.708840
  0
VERTEX
  8
0
  6
CONTINUOUS
 10
3.289440
 20
1.177000
  0
SEQEND
  8
0
  0
TEXT
  8
0
 10
5.076720
 20
0.568920
 40
0.138219
  1
BA  685
 41
1.000000
  7
SN0
 71
     0
 72
     5
 11
5.666543
 21
0.568920
  0
TEXT
  8
0
 10
5.063960
 20
0.377520
 40
0.138219
  1
3/4" x 4"
 41
1.000000
  7
SN0
 71
     0
 72
     5
 11
5.678186
 21
0.377520
  0
TEXT
  8
0
 10
4.036560
 20
4.448400
 40
0.220511
  1
BA  777 for curves
 41
1.000000
  7
SN0
 71
     0
 72
     5
 11
6.214786
 21
4.448400
  0
POLYLINE
  8
0
  6
CONTINUOUS
 66
     1
 40
0.014080
 41
0.014080
  0
VERTEX
  8
0
  6
CONTINUOUS
 10
6.643120
 20
3.860560
  0
VERTEX
  8
0
  6
CONTINUOUS
 10
6.207520
 20
4.250840
  0
VERTEX
  8
0
  6
CONTINUOUS
 10
6.012600
 20
4.038760
  0
VERTEX
  8
0
  6
CONTINUOUS
 10
5.989280
 20
4.073080
  0
VERTEX
  8
0
  6
CONTINUOUS
 10
5.961120
 20
4.103880
  0
VERTEX
  8
0
  6
CONTINUOUS
 10
5.917120
 20
4.140840
  0
VERTEX
  8
0
  6
CONTINUOUS
 10
5.892040
 20
4.157120
  0
VERTEX
  8
0
  6
CONTINUOUS
 10
5.837920
 20
4.185280
  0
VERTEX
  8
0
  6
CONTINUOUS
 10
5.808880
 20
4.197600
  0
VERTEX
  8
0
  6
CONTINUOUS
 10
5.747280
 20
4.217400
  0
VERTEX
  8
0
  6
CONTINUOUS
 10
5.714720
 20
4.225760
  0
VERTEX
  8
0
  6
CONTINUOUS
 10
5.648280
 20
4.237200
  0
VERTEX
  8
0
  6
CONTINUOUS
 10
5.613960
 20
4.241160
  0
VERTEX
  8
0
  6
CONTINUOUS
 10
5.544440
 20
4.244240
  0
VERTEX
  8
0
  6
CONTINUOUS
 10
5.509240
 20
4.243800
  0
VERTEX
  8
0
  6
CONTINUOUS
 10
5.439720
 20
4.238080
  0
VERTEX
  8
0
  6
CONTINUOUS
 10
5.370640
 20
4.227080
  0
VERTEX
  8
0
  6
CONTINUOUS
 10
5.304200
 20
4.209920
  0
VERTEX
  8
0
  6
CONTINUOUS
 10
5.272080
 20
4.199360
  0
VERTEX
  8
0
  6
CONTINUOUS
 10
5.210920
 20
4.173840
  0
VERTEX
  8
0
  6
CONTINUOUS
 10
5.181880
 20
4.158440
  0
VERTEX
  8
0
  6
CONTINUOUS
 10
5.128200
 20
4.123680
  0
VERTEX
  8
0
  6
CONTINUOUS
 10
5.104000
 20
4.104320
  0
VERTEX
  8
0
  6
CONTINUOUS
 10
5.081120
 20
4.083200
  0
VERTEX
  8
0
  6
CONTINUOUS
 10
4.947800
 20
4.192760
  0
VERTEX
  8
0
  6
CONTINUOUS
 10
4.795120
 20
4.062520
  0
VERTEX
  8
0
  6
CONTINUOUS
 10
4.711520
 20
3.997400
  0
VERTEX
  8
0
  6
CONTINUOUS
 10
4.652560
 20
3.956040
  0
VERTEX
  8
0
  6
CONTINUOUS
 10
4.590080
 20
3.917320
  0
VERTEX
  8
0
  6
CONTINUOUS
 10
4.557520
 20
3.898840
  0
VERTEX
  8
0
  6
CONTINUOUS
 10
4.489320
 20
3.864960
  0
VERTEX
  8
0
  6
CONTINUOUS
 10
4.416720
 20
3.835920
  0
VERTEX
  8
0
  6
CONTINUOUS
 10
4.378880
 20
3.823160
  0
VERTEX
  8
0
  6
CONTINUOUS
 10
4.339720
 20
3.811720
  0
VERTEX
  8
0
  6
CONTINUOUS
 10
4.299240
 20
3.802040
  0
VERTEX
  8
0
  6
CONTINUOUS
 10
4.257440
 20
3.794120
  0
VERTEX
  8
0
  6
CONTINUOUS
 10
4.214320
 20
3.787520
  0
VERTEX
  8
0
  6
CONTINUOUS
 10
4.169880
 20
3.782680
  0
VERTEX
  8
0
  6
CONTINUOUS
 10
4.124120
 20
3.780040
  0
VERTEX
  8
0
  6
CONTINUOUS
 10
4.052400
 20
3.779600
  0
VERTEX
  8
0
  6
CONTINUOUS
 10
4.002680
 20
3.782240
  0
VERTEX
  8
0
  6
CONTINUOUS
 10
3.924800
 20
3.790160
  0
VERTEX
  8
0
  6
CONTINUOUS
 10
3.842960
 20
3.803360
  0
VERTEX
  8
0
  6
CONTINUOUS
 10
3.757600
 20
3.822720
  0
VERTEX
  8
0
  6
CONTINUOUS
 10
3.698200
 20
3.935800
  0
VERTEX
  8
0
  6
CONTINUOUS
 10
3.533640
 20
3.891360
  0
VERTEX
  8
0
  6
CONTINUOUS
 10
3.495360
 20
3.946800
  0
VERTEX
  8
0
  6
CONTINUOUS
 10
3.467640
 20
3.979800
  0
VERTEX
  8
0
  6
CONTINUOUS
 10
3.437720
 20
4.010160
  0
VERTEX
  8
0
  6
CONTINUOUS
 10
3.390200
 20
4.049320
  0
VERTEX
  8
0
  6
CONTINUOUS
 10
3.340480
 20
4.081000
  0
VERTEX
  8
0
  6
CONTINUOUS
 10
3.306600
 20
4.098160
  0
VERTEX
  8
0
  6
CONTINUOUS
 10
3.271840
 20
4.111800
  0
VERTEX
  8
0
  6
CONTINUOUS
 10
3.237520
 20
4.122360
  0
VERTEX
  8
0
  6
CONTINUOUS
 10
3.202760
 20
4.129400
  0
VERTEX
  8
0
  6
CONTINUOUS
 10
3.168880
 20
4.132920
  0
VERTEX
  8
0
  6
CONTINUOUS
 10
3.135000
 20
4.132920
  0
VERTEX
  8
0
  6
CONTINUOUS
 10
3.102440
 20
4.128960
  0
VERTEX
  8
0
  6
CONTINUOUS
 10
3.071200
 20
4.121920
  0
VERTEX
  8
0
  6
CONTINUOUS
 10
3.041280
 20
4.110920
  0
VERTEX
  8
0
  6
CONTINUOUS
 10
3.026760
 20
4.103880
  0
VERTEX
  8
0
  6
CONTINUOUS
 10
2.924240
 20
4.189240
  0
VERTEX
  8
0
  6
CONTINUOUS
 10
2.670800
 20
3.901480
  0
VERTEX
  8
0
  6
CONTINUOUS
 10
3.095400
 20
3.514720
  0
VERTEX
  8
0
  6
CONTINUOUS
 10
6.327640
 20
3.514720
  0
VERTEX
  8
0
  6
CONTINUOUS
 10
6.643120
 20
3.860560
  0
SEQEND
  8
0
  0
TEXT
  8
0
 10
5.108400
 20
3.834160
 40
0.138219
  1
BA  685
 41
1.000000
  7
SN0
 71
     0
 72
     5
 11
5.698223
 21
3.834160
  0
TEXT
  8
0
 10
5.095640
 20
3.642320
 40
0.138219
  1
3/4" x 4"
 41
1.000000
  7
SN0
 71
     0
 72
     5
 11
5.709866
 21
3.642320
  0
ENDSEC
  0
EOF
