  0
SECTION
  2
HEADER
  9
$ACADVER
  1
AC1006
  9
$EXTMIN
 10
2.538360
 20
0.777920
  9
$EXTMAX
 10
7.516960
 20
4.238960
  9
$LTSCALE
 40
0.044000
  9
$PDMODE
 70
    35
  9
$PDSIZE
 40
0.035200
  0
ENDSEC
  0
SECTION
  2
TABLES
  0
TABLE
  2
LTYPE
 70
     9
  0
LTYPE
  2
CONTINUOUS
 70
    64
  3
Solid line
 72
    65
 73
     0
 40
0.000000
  0
LTYPE
  2
DASHED
 70
    64
  3
__ __ __ __ __ __ __ __ __ __ __ __ __ __ __
 72
    65
 73
     2
 40
0.000330
 49
0.000220
 49
-0.000110
  0
LTYPE
  2
HIDDEN
 70
    64
  3
 _ _ _ _ _ _ _ _ _ _ _ _ _ _ _ _ _ _ _ _ _ _
 72
    65
 73
     2
 40
0.000165
 49
0.000110
 49
-0.000055
  0
LTYPE
  2
CENTER
 70
    64
  3
____ _ ____ _ ____ _ ____ _ ____ _ ____ _ ____
 72
    65
 73
     4
 40
0.000880
 49
0.000550
 49
-0.000110
 49
0.000110
 49
-0.000110
  0
LTYPE
  2
PHANTOM
 70
    64
  3
_____ _ _ _____ _ _ _____ _ _ _____ _ _ ____
 72
    65
 73
     6
 40
0.001100
 49
0.000550
 49
-0.000110
 49
0.000110
 49
-0.000110
 49
0.000110
 49
-0.000110
  0
LTYPE
  2
DOT
 70
    64
  3
...............................................
 72
    65
 73
     2
 40
0.000110
 49
0.000000
 49
-0.000110
  0
LTYPE
  2
DASHDOT
 70
    64
  3
__ . __ . __ . __ . __ . __ . __ . __ . __ . __
 72
    65
 73
     4
 40
0.000440
 49
0.000220
 49
-0.000110
 49
0.000000
 49
-0.000110
  0
LTYPE
  2
BORDER
 70
    64
  3
__ __ . __ __ . __ __ . __ __ . __ __ . __ __
 72
    65
 73
     6
 40
0.000770
 49
0.000220
 49
-0.000110
 49
0.000220
 49
-0.000110
 49
0.000000
 49
-0.000110
  0
LTYPE
  2
DIVIDE
 70
    64
  3
__ . . __ . . __ . . __ . . __ . . __ . . __
 72
    65
 73
     6
 40
0.000550
 49
0.000220
 49
-0.000110
 49
0.000000
 49
-0.000110
 49
0.000000
 49
-0.000110
  0
LTYPE
  2
DOTDOT
 70
    64
  3
 . .  . .  . .  . .  . .  . . 
 72
    65
 73
     5
 40
0.000242
 49
-0.000110
 49
0.000000
 49
-0.000110
 49
0.000000
 49
-0.000110
  0
ENDTAB
  0
TABLE
  2
STYLE
 70
     2
  0
STYLE
 70
     0
  2
SN0
 40
0.000000
 41
0.000440
 50
0.000000
 71
     0
 42
0.000000
  3
ROMAND
  0
STYLE
 70
    68
  2
SV0
 40
0.000000
 41
0.000440
 50
0.000000
 71
     0
 42
0.000000
  3
ROMAND
  0
ENDTAB
  0
TABLE
  2
LAYER
 70
     3
  0
LAYER
  2
FOREGROUND
 70
    64
 62
     7
  6
CONTINUOUS
  0
LAYER
  2
BACKGROUND
 70
    65
 62
    -7
  6
CONTINUOUS
  0
LAYER
  2
0
 70
    64
 62
     7
  6
CONTINUOUS
  0
ENDTAB
  0
ENDSEC
  0
SECTION
  2
ENTITIES
  0
POLYLINE
  8
FOREGROUND
  6
CONTINUOUS
 66
     1
 40
0.000000
 41
0.000000
  0
VERTEX
  8
FOREGROUND
  6
CONTINUOUS
 10
0.000000
 20
5.016880
  0
VERTEX
  8
FOREGROUND
  6
CONTINUOUS
 10
8.499920
 20
5.016880
  0
VERTEX
  8
FOREGROUND
  6
CONTINUOUS
 10
8.499920
 20
-5.983120
  0
VERTEX
  8
FOREGROUND
  6
CONTINUOUS
 10
0.000000
 20
-5.983120
  0
VERTEX
  8
FOREGROUND
  6
CONTINUOUS
 10
0.000000
 20
5.016880
  0
SEQEND
  8
0
  0
POLYLINE
  8
FOREGROUND
  6
CONTINUOUS
 66
     1
 40
0.000000
 41
0.000000
  0
VERTEX
  8
FOREGROUND
  6
CONTINUOUS
 10
0.000000
 20
5.016880
  0
VERTEX
  8
FOREGROUND
  6
CONTINUOUS
 10
8.499920
 20
5.016880
  0
VERTEX
  8
FOREGROUND
  6
CONTINUOUS
 10
8.499920
 20
-5.983120
  0
VERTEX
  8
FOREGROUND
  6
CONTINUOUS
 10
0.000000
 20
-5.983120
  0
VERTEX
  8
FOREGROUND
  6
CONTINUOUS
 10
0.000000
 20
5.016880
  0
SEQEND
  8
0
  0
SOLID
  8
0
 62
    15
 10
3.730760
 20
1.939520
 11
3.732960
 21
2.681800
 12
3.759360
 22
1.943040
 13
3.761560
 23
2.684880
  0
POLYLINE
  8
0
  6
CONTINUOUS
 66
     1
 40
0.000000
 41
0.000000
  0
VERTEX
  8
0
  6
CONTINUOUS
 10
3.730760
 20
1.939520
  0
VERTEX
  8
0
  6
CONTINUOUS
 10
3.732960
 20
2.681800
  0
VERTEX
  8
0
  6
CONTINUOUS
 10
3.761560
 20
2.684880
  0
VERTEX
  8
0
  6
CONTINUOUS
 10
3.759360
 20
1.943040
  0
VERTEX
  8
0
  6
CONTINUOUS
 10
3.730760
 20
1.939520
  0
SEQEND
  8
0
  0
SOLID
  8
0
 62
    15
 10
6.284080
 20
1.617880
 11
6.286280
 21
2.360160
 12
6.305200
 22
1.617000
 13
6.307400
 23
2.359280
  0
POLYLINE
  8
0
  6
CONTINUOUS
 66
     1
 40
0.000000
 41
0.000000
  0
VERTEX
  8
0
  6
CONTINUOUS
 10
6.284080
 20
1.617880
  0
VERTEX
  8
0
  6
CONTINUOUS
 10
6.286280
 20
2.360160
  0
VERTEX
  8
0
  6
CONTINUOUS
 10
6.307400
 20
2.359280
  0
VERTEX
  8
0
  6
CONTINUOUS
 10
6.305200
 20
1.617000
  0
VERTEX
  8
0
  6
CONTINUOUS
 10
6.284080
 20
1.617880
  0
SEQEND
  8
0
  0
SOLID
  8
0
 62
    15
 10
6.305200
 20
1.617000
 11
6.307400
 21
2.359280
 12
6.332480
 22
1.613920
 13
6.334240
 23
2.356200
  0
POLYLINE
  8
0
  6
CONTINUOUS
 66
     1
 40
0.000000
 41
0.000000
  0
VERTEX
  8
0
  6
CONTINUOUS
 10
6.305200
 20
1.617000
  0
VERTEX
  8
0
  6
CONTINUOUS
 10
6.307400
 20
2.359280
  0
VERTEX
  8
0
  6
CONTINUOUS
 10
6.334240
 20
2.356200
  0
VERTEX
  8
0
  6
CONTINUOUS
 10
6.332480
 20
1.613920
  0
VERTEX
  8
0
  6
CONTINUOUS
 10
6.305200
 20
1.617000
  0
SEQEND
  8
0
  0
SOLID
  8
0
 62
    15
 10
6.332480
 20
1.613920
 11
6.334240
 21
2.356200
 12
6.360640
 22
1.607320
 13
6.362840
 23
2.349600
  0
POLYLINE
  8
0
  6
CONTINUOUS
 66
     1
 40
0.000000
 41
0.000000
  0
VERTEX
  8
0
  6
CONTINUOUS
 10
6.332480
 20
1.613920
  0
VERTEX
  8
0
  6
CONTINUOUS
 10
6.334240
 20
2.356200
  0
VERTEX
  8
0
  6
CONTINUOUS
 10
6.362840
 20
2.349600
  0
VERTEX
  8
0
  6
CONTINUOUS
 10
6.360640
 20
1.607320
  0
VERTEX
  8
0
  6
CONTINUOUS
 10
6.332480
 20
1.613920
  0
SEQEND
  8
0
  0
SOLID
  8
0
 62
    15
 10
6.360640
 20
1.607320
 11
6.362840
 21
2.349600
 12
6.386160
 22
1.596320
 13
6.388360
 23
2.338600
  0
POLYLINE
  8
0
  6
CONTINUOUS
 66
     1
 40
0.000000
 41
0.000000
  0
VERTEX
  8
0
  6
CONTINUOUS
 10
6.360640
 20
1.607320
  0
VERTEX
  8
0
  6
CONTINUOUS
 10
6.362840
 20
2.349600
  0
VERTEX
  8
0
  6
CONTINUOUS
 10
6.388360
 20
2.338600
  0
VERTEX
  8
0
  6
CONTINUOUS
 10
6.386160
 20
1.596320
  0
VERTEX
  8
0
  6
CONTINUOUS
 10
6.360640
 20
1.607320
  0
SEQEND
  8
0
  0
SOLID
  8
0
 62
    15
 10
6.386160
 20
1.596320
 11
6.388360
 21
2.338600
 12
6.404640
 22
1.580040
 13
6.406840
 23
2.322320
  0
POLYLINE
  8
0
  6
CONTINUOUS
 66
     1
 40
0.000000
 41
0.000000
  0
VERTEX
  8
0
  6
CONTINUOUS
 10
6.386160
 20
1.596320
  0
VERTEX
  8
0
  6
CONTINUOUS
 10
6.388360
 20
2.338600
  0
VERTEX
  8
0
  6
CONTINUOUS
 10
6.406840
 20
2.322320
  0
VERTEX
  8
0
  6
CONTINUOUS
 10
6.404640
 20
1.580040
  0
VERTEX
  8
0
  6
CONTINUOUS
 10
6.386160
 20
1.596320
  0
SEQEND
  8
0
  0
SOLID
  8
0
 62
    15
 10
6.404640
 20
1.580040
 11
6.406840
 21
2.322320
 12
6.411680
 22
1.557160
 13
6.413880
 23
2.299440
  0
POLYLINE
  8
0
  6
CONTINUOUS
 66
     1
 40
0.000000
 41
0.000000
  0
VERTEX
  8
0
  6
CONTINUOUS
 10
6.404640
 20
1.580040
  0
VERTEX
  8
0
  6
CONTINUOUS
 10
6.406840
 20
2.322320
  0
VERTEX
  8
0
  6
CONTINUOUS
 10
6.413880
 20
2.299440
  0
VERTEX
  8
0
  6
CONTINUOUS
 10
6.411680
 20
1.557160
  0
VERTEX
  8
0
  6
CONTINUOUS
 10
6.404640
 20
1.580040
  0
SEQEND
  8
0
  0
SOLID
  8
0
 62
    15
 10
7.443040
 20
1.557160
 11
7.445240
 21
2.299440
 12
7.443040
 22
1.263240
 13
7.445240
 23
2.005520
  0
POLYLINE
  8
0
  6
CONTINUOUS
 66
     1
 40
0.000000
 41
0.000000
  0
VERTEX
  8
0
  6
CONTINUOUS
 10
7.443040
 20
1.557160
  0
VERTEX
  8
0
  6
CONTINUOUS
 10
7.445240
 20
2.299440
  0
VERTEX
  8
0
  6
CONTINUOUS
 10
7.445240
 20
2.005520
  0
VERTEX
  8
0
  6
CONTINUOUS
 10
7.443040
 20
1.263240
  0
VERTEX
  8
0
  6
CONTINUOUS
 10
7.443040
 20
1.557160
  0
SEQEND
  8
0
  0
SOLID
  8
0
 62
    15
 10
6.411680
 20
1.557160
 11
6.413880
 21
2.299440
 12
7.443040
 22
1.557160
 13
7.445240
 23
2.299440
  0
POLYLINE
  8
0
  6
CONTINUOUS
 66
     1
 40
0.000000
 41
0.000000
  0
VERTEX
  8
0
  6
CONTINUOUS
 10
6.411680
 20
1.557160
  0
VERTEX
  8
0
  6
CONTINUOUS
 10
6.413880
 20
2.299440
  0
VERTEX
  8
0
  6
CONTINUOUS
 10
7.445240
 20
2.299440
  0
VERTEX
  8
0
  6
CONTINUOUS
 10
7.443040
 20
1.557160
  0
VERTEX
  8
0
  6
CONTINUOUS
 10
6.411680
 20
1.557160
  0
SEQEND
  8
0
  0
SOLID
  8
0
 62
    15
 10
2.538800
 20
2.136200
 11
2.541000
 21
2.878480
 12
2.836680
 22
2.136200
 13
2.838880
 23
2.878480
  0
POLYLINE
  8
0
  6
CONTINUOUS
 66
     1
 40
0.000000
 41
0.000000
  0
VERTEX
  8
0
  6
CONTINUOUS
 10
2.538800
 20
2.136200
  0
VERTEX
  8
0
  6
CONTINUOUS
 10
2.541000
 20
2.878480
  0
VERTEX
  8
0
  6
CONTINUOUS
 10
2.838880
 20
2.878480
  0
VERTEX
  8
0
  6
CONTINUOUS
 10
2.836680
 20
2.136200
  0
VERTEX
  8
0
  6
CONTINUOUS
 10
2.538800
 20
2.136200
  0
SEQEND
  8
0
  0
SOLID
  8
0
 62
    15
 10
2.836680
 20
2.136200
 11
2.838880
 21
2.878480
 12
2.847240
 22
2.005080
 13
2.849440
 23
2.747360
  0
POLYLINE
  8
0
  6
CONTINUOUS
 66
     1
 40
0.000000
 41
0.000000
  0
VERTEX
  8
0
  6
CONTINUOUS
 10
2.836680
 20
2.136200
  0
VERTEX
  8
0
  6
CONTINUOUS
 10
2.838880
 20
2.878480
  0
VERTEX
  8
0
  6
CONTINUOUS
 10
2.849440
 20
2.747360
  0
VERTEX
  8
0
  6
CONTINUOUS
 10
2.847240
 20
2.005080
  0
VERTEX
  8
0
  6
CONTINUOUS
 10
2.836680
 20
2.136200
  0
SEQEND
  8
0
  0
SOLID
  8
0
 62
    15
 10
2.847240
 20
2.005080
 11
2.849440
 21
2.747360
 12
2.849440
 22
2.007280
 13
2.851200
 23
2.749120
  0
POLYLINE
  8
0
  6
CONTINUOUS
 66
     1
 40
0.000000
 41
0.000000
  0
VERTEX
  8
0
  6
CONTINUOUS
 10
2.847240
 20
2.005080
  0
VERTEX
  8
0
  6
CONTINUOUS
 10
2.849440
 20
2.747360
  0
VERTEX
  8
0
  6
CONTINUOUS
 10
2.851200
 20
2.749120
  0
VERTEX
  8
0
  6
CONTINUOUS
 10
2.849440
 20
2.007280
  0
VERTEX
  8
0
  6
CONTINUOUS
 10
2.847240
 20
2.005080
  0
SEQEND
  8
0
  0
SOLID
  8
0
 62
    15
 10
2.849440
 20
2.007280
 11
2.851200
 21
2.749120
 12
2.896520
 22
2.039840
 13
2.898720
 23
2.782120
  0
POLYLINE
  8
0
  6
CONTINUOUS
 66
     1
 40
0.000000
 41
0.000000
  0
VERTEX
  8
0
  6
CONTINUOUS
 10
2.849440
 20
2.007280
  0
VERTEX
  8
0
  6
CONTINUOUS
 10
2.851200
 20
2.749120
  0
VERTEX
  8
0
  6
CONTINUOUS
 10
2.898720
 20
2.782120
  0
VERTEX
  8
0
  6
CONTINUOUS
 10
2.896520
 20
2.039840
  0
VERTEX
  8
0
  6
CONTINUOUS
 10
2.849440
 20
2.007280
  0
SEQEND
  8
0
  0
SOLID
  8
0
 62
    15
 10
2.896520
 20
2.039840
 11
2.898720
 21
2.782120
 12
2.946680
 22
2.063160
 13
2.948880
 23
2.805000
  0
POLYLINE
  8
0
  6
CONTINUOUS
 66
     1
 40
0.000000
 41
0.000000
  0
VERTEX
  8
0
  6
CONTINUOUS
 10
2.896520
 20
2.039840
  0
VERTEX
  8
0
  6
CONTINUOUS
 10
2.898720
 20
2.782120
  0
VERTEX
  8
0
  6
CONTINUOUS
 10
2.948880
 20
2.805000
  0
VERTEX
  8
0
  6
CONTINUOUS
 10
2.946680
 20
2.063160
  0
VERTEX
  8
0
  6
CONTINUOUS
 10
2.896520
 20
2.039840
  0
SEQEND
  8
0
  0
SOLID
  8
0
 62
    15
 10
2.946680
 20
2.063160
 11
2.948880
 21
2.805000
 12
2.999040
 22
2.077240
 13
3.001240
 23
2.819520
  0
POLYLINE
  8
0
  6
CONTINUOUS
 66
     1
 40
0.000000
 41
0.000000
  0
VERTEX
  8
0
  6
CONTINUOUS
 10
2.946680
 20
2.063160
  0
VERTEX
  8
0
  6
CONTINUOUS
 10
2.948880
 20
2.805000
  0
VERTEX
  8
0
  6
CONTINUOUS
 10
3.001240
 20
2.819520
  0
VERTEX
  8
0
  6
CONTINUOUS
 10
2.999040
 20
2.077240
  0
VERTEX
  8
0
  6
CONTINUOUS
 10
2.946680
 20
2.063160
  0
SEQEND
  8
0
  0
SOLID
  8
0
 62
    15
 10
2.999040
 20
2.077240
 11
3.001240
 21
2.819520
 12
3.052280
 22
2.082960
 13
3.054480
 23
2.825240
  0
POLYLINE
  8
0
  6
CONTINUOUS
 66
     1
 40
0.000000
 41
0.000000
  0
VERTEX
  8
0
  6
CONTINUOUS
 10
2.999040
 20
2.077240
  0
VERTEX
  8
0
  6
CONTINUOUS
 10
3.001240
 20
2.819520
  0
VERTEX
  8
0
  6
CONTINUOUS
 10
3.054480
 20
2.825240
  0
VERTEX
  8
0
  6
CONTINUOUS
 10
3.052280
 20
2.082960
  0
VERTEX
  8
0
  6
CONTINUOUS
 10
2.999040
 20
2.077240
  0
SEQEND
  8
0
  0
SOLID
  8
0
 62
    15
 10
3.052280
 20
2.082960
 11
3.054480
 21
2.825240
 12
3.106400
 22
2.082080
 13
3.108160
 23
2.824360
  0
POLYLINE
  8
0
  6
CONTINUOUS
 66
     1
 40
0.000000
 41
0.000000
  0
VERTEX
  8
0
  6
CONTINUOUS
 10
3.052280
 20
2.082960
  0
VERTEX
  8
0
  6
CONTINUOUS
 10
3.054480
 20
2.825240
  0
VERTEX
  8
0
  6
CONTINUOUS
 10
3.108160
 20
2.824360
  0
VERTEX
  8
0
  6
CONTINUOUS
 10
3.106400
 20
2.082080
  0
VERTEX
  8
0
  6
CONTINUOUS
 10
3.052280
 20
2.082960
  0
SEQEND
  8
0
  0
SOLID
  8
0
 62
    15
 10
3.106400
 20
2.082080
 11
3.108160
 21
2.824360
 12
3.159640
 22
2.074160
 13
3.161840
 23
2.816440
  0
POLYLINE
  8
0
  6
CONTINUOUS
 66
     1
 40
0.000000
 41
0.000000
  0
VERTEX
  8
0
  6
CONTINUOUS
 10
3.106400
 20
2.082080
  0
VERTEX
  8
0
  6
CONTINUOUS
 10
3.108160
 20
2.824360
  0
VERTEX
  8
0
  6
CONTINUOUS
 10
3.161840
 20
2.816440
  0
VERTEX
  8
0
  6
CONTINUOUS
 10
3.159640
 20
2.074160
  0
VERTEX
  8
0
  6
CONTINUOUS
 10
3.106400
 20
2.082080
  0
SEQEND
  8
0
  0
SOLID
  8
0
 62
    15
 10
3.159640
 20
2.074160
 11
3.161840
 21
2.816440
 12
3.211560
 22
2.060520
 13
3.213760
 23
2.802800
  0
POLYLINE
  8
0
  6
CONTINUOUS
 66
     1
 40
0.000000
 41
0.000000
  0
VERTEX
  8
0
  6
CONTINUOUS
 10
3.159640
 20
2.074160
  0
VERTEX
  8
0
  6
CONTINUOUS
 10
3.161840
 20
2.816440
  0
VERTEX
  8
0
  6
CONTINUOUS
 10
3.213760
 20
2.802800
  0
VERTEX
  8
0
  6
CONTINUOUS
 10
3.211560
 20
2.060520
  0
VERTEX
  8
0
  6
CONTINUOUS
 10
3.159640
 20
2.074160
  0
SEQEND
  8
0
  0
SOLID
  8
0
 62
    15
 10
3.211560
 20
2.060520
 11
3.213760
 21
2.802800
 12
3.261280
 22
2.042040
 13
3.263480
 23
2.784320
  0
POLYLINE
  8
0
  6
CONTINUOUS
 66
     1
 40
0.000000
 41
0.000000
  0
VERTEX
  8
0
  6
CONTINUOUS
 10
3.211560
 20
2.060520
  0
VERTEX
  8
0
  6
CONTINUOUS
 10
3.213760
 20
2.802800
  0
VERTEX
  8
0
  6
CONTINUOUS
 10
3.263480
 20
2.784320
  0
VERTEX
  8
0
  6
CONTINUOUS
 10
3.261280
 20
2.042040
  0
VERTEX
  8
0
  6
CONTINUOUS
 10
3.211560
 20
2.060520
  0
SEQEND
  8
0
  0
SOLID
  8
0
 62
    15
 10
3.261280
 20
2.042040
 11
3.263480
 21
2.784320
 12
3.308360
 22
2.019600
 13
3.310560
 23
2.761880
  0
POLYLINE
  8
0
  6
CONTINUOUS
 66
     1
 40
0.000000
 41
0.000000
  0
VERTEX
  8
0
  6
CONTINUOUS
 10
3.261280
 20
2.042040
  0
VERTEX
  8
0
  6
CONTINUOUS
 10
3.263480
 20
2.784320
  0
VERTEX
  8
0
  6
CONTINUOUS
 10
3.310560
 20
2.761880
  0
VERTEX
  8
0
  6
CONTINUOUS
 10
3.308360
 20
2.019600
  0
VERTEX
  8
0
  6
CONTINUOUS
 10
3.261280
 20
2.042040
  0
SEQEND
  8
0
  0
SOLID
  8
0
 62
    15
 10
3.308360
 20
2.019600
 11
3.310560
 21
2.761880
 12
3.351480
 22
1.994080
 13
3.353680
 23
2.735920
  0
POLYLINE
  8
0
  6
CONTINUOUS
 66
     1
 40
0.000000
 41
0.000000
  0
VERTEX
  8
0
  6
CONTINUOUS
 10
3.308360
 20
2.019600
  0
VERTEX
  8
0
  6
CONTINUOUS
 10
3.310560
 20
2.761880
  0
VERTEX
  8
0
  6
CONTINUOUS
 10
3.353680
 20
2.735920
  0
VERTEX
  8
0
  6
CONTINUOUS
 10
3.351480
 20
1.994080
  0
VERTEX
  8
0
  6
CONTINUOUS
 10
3.308360
 20
2.019600
  0
SEQEND
  8
0
  0
SOLID
  8
0
 62
    15
 10
3.351480
 20
1.994080
 11
3.353680
 21
2.735920
 12
3.389760
 22
1.965480
 13
3.391960
 23
2.707760
  0
POLYLINE
  8
0
  6
CONTINUOUS
 66
     1
 40
0.000000
 41
0.000000
  0
VERTEX
  8
0
  6
CONTINUOUS
 10
3.351480
 20
1.994080
  0
VERTEX
  8
0
  6
CONTINUOUS
 10
3.353680
 20
2.735920
  0
VERTEX
  8
0
  6
CONTINUOUS
 10
3.391960
 20
2.707760
  0
VERTEX
  8
0
  6
CONTINUOUS
 10
3.389760
 20
1.965480
  0
VERTEX
  8
0
  6
CONTINUOUS
 10
3.351480
 20
1.994080
  0
SEQEND
  8
0
  0
SOLID
  8
0
 62
    15
 10
3.389760
 20
1.965480
 11
3.391960
 21
2.707760
 12
3.423200
 22
1.935120
 13
3.425400
 23
2.677400
  0
POLYLINE
  8
0
  6
CONTINUOUS
 66
     1
 40
0.000000
 41
0.000000
  0
VERTEX
  8
0
  6
CONTINUOUS
 10
3.389760
 20
1.965480
  0
VERTEX
  8
0
  6
CONTINUOUS
 10
3.391960
 20
2.707760
  0
VERTEX
  8
0
  6
CONTINUOUS
 10
3.425400
 20
2.677400
  0
VERTEX
  8
0
  6
CONTINUOUS
 10
3.423200
 20
1.935120
  0
VERTEX
  8
0
  6
CONTINUOUS
 10
3.389760
 20
1.965480
  0
SEQEND
  8
0
  0
SOLID
  8
0
 62
    15
 10
3.423200
 20
1.935120
 11
3.425400
 21
2.677400
 12
3.450040
 22
1.904320
 13
3.452240
 23
2.646600
  0
POLYLINE
  8
0
  6
CONTINUOUS
 66
     1
 40
0.000000
 41
0.000000
  0
VERTEX
  8
0
  6
CONTINUOUS
 10
3.423200
 20
1.935120
  0
VERTEX
  8
0
  6
CONTINUOUS
 10
3.425400
 20
2.677400
  0
VERTEX
  8
0
  6
CONTINUOUS
 10
3.452240
 20
2.646600
  0
VERTEX
  8
0
  6
CONTINUOUS
 10
3.450040
 20
1.904320
  0
VERTEX
  8
0
  6
CONTINUOUS
 10
3.423200
 20
1.935120
  0
SEQEND
  8
0
  0
SOLID
  8
0
 62
    15
 10
3.450040
 20
1.904320
 11
3.452240
 21
2.646600
 12
3.469840
 22
1.873080
 13
3.472040
 23
2.615360
  0
POLYLINE
  8
0
  6
CONTINUOUS
 66
     1
 40
0.000000
 41
0.000000
  0
VERTEX
  8
0
  6
CONTINUOUS
 10
3.450040
 20
1.904320
  0
VERTEX
  8
0
  6
CONTINUOUS
 10
3.452240
 20
2.646600
  0
VERTEX
  8
0
  6
CONTINUOUS
 10
3.472040
 20
2.615360
  0
VERTEX
  8
0
  6
CONTINUOUS
 10
3.469840
 20
1.873080
  0
VERTEX
  8
0
  6
CONTINUOUS
 10
3.450040
 20
1.904320
  0
SEQEND
  8
0
  0
SOLID
  8
0
 62
    15
 10
3.469840
 20
1.873080
 11
3.472040
 21
2.615360
 12
3.481280
 22
1.842280
 13
3.483480
 23
2.584560
  0
POLYLINE
  8
0
  6
CONTINUOUS
 66
     1
 40
0.000000
 41
0.000000
  0
VERTEX
  8
0
  6
CONTINUOUS
 10
3.469840
 20
1.873080
  0
VERTEX
  8
0
  6
CONTINUOUS
 10
3.472040
 20
2.615360
  0
VERTEX
  8
0
  6
CONTINUOUS
 10
3.483480
 20
2.584560
  0
VERTEX
  8
0
  6
CONTINUOUS
 10
3.481280
 20
1.842280
  0
VERTEX
  8
0
  6
CONTINUOUS
 10
3.469840
 20
1.873080
  0
SEQEND
  8
0
  0
SOLID
  8
0
 62
    15
 10
3.481280
 20
1.842280
 11
3.483480
 21
2.584560
 12
3.484800
 22
1.813240
 13
3.487000
 23
2.555520
  0
POLYLINE
  8
0
  6
CONTINUOUS
 66
     1
 40
0.000000
 41
0.000000
  0
VERTEX
  8
0
  6
CONTINUOUS
 10
3.481280
 20
1.842280
  0
VERTEX
  8
0
  6
CONTINUOUS
 10
3.483480
 20
2.584560
  0
VERTEX
  8
0
  6
CONTINUOUS
 10
3.487000
 20
2.555520
  0
VERTEX
  8
0
  6
CONTINUOUS
 10
3.484800
 20
1.813240
  0
VERTEX
  8
0
  6
CONTINUOUS
 10
3.481280
 20
1.842280
  0
SEQEND
  8
0
  0
SOLID
  8
0
 62
    15
 10
3.484800
 20
1.813240
 11
3.487000
 21
2.555520
 12
3.484800
 22
1.809280
 13
3.487000
 23
2.551120
  0
POLYLINE
  8
0
  6
CONTINUOUS
 66
     1
 40
0.000000
 41
0.000000
  0
VERTEX
  8
0
  6
CONTINUOUS
 10
3.484800
 20
1.813240
  0
VERTEX
  8
0
  6
CONTINUOUS
 10
3.487000
 20
2.555520
  0
VERTEX
  8
0
  6
CONTINUOUS
 10
3.487000
 20
2.551120
  0
VERTEX
  8
0
  6
CONTINUOUS
 10
3.484800
 20
1.809280
  0
VERTEX
  8
0
  6
CONTINUOUS
 10
3.484800
 20
1.813240
  0
SEQEND
  8
0
  0
SOLID
  8
0
 62
    15
 10
3.484800
 20
1.809280
 11
3.487000
 21
2.551120
 12
3.601400
 22
1.809280
 13
3.603600
 23
2.551120
  0
POLYLINE
  8
0
  6
CONTINUOUS
 66
     1
 40
0.000000
 41
0.000000
  0
VERTEX
  8
0
  6
CONTINUOUS
 10
3.484800
 20
1.809280
  0
VERTEX
  8
0
  6
CONTINUOUS
 10
3.487000
 20
2.551120
  0
VERTEX
  8
0
  6
CONTINUOUS
 10
3.603600
 20
2.551120
  0
VERTEX
  8
0
  6
CONTINUOUS
 10
3.601400
 20
1.809280
  0
VERTEX
  8
0
  6
CONTINUOUS
 10
3.484800
 20
1.809280
  0
SEQEND
  8
0
  0
SOLID
  8
0
 62
    15
 10
3.601400
 20
1.809280
 11
3.603600
 21
2.551120
 12
3.614160
 22
1.844480
 13
3.616360
 23
2.586760
  0
POLYLINE
  8
0
  6
CONTINUOUS
 66
     1
 40
0.000000
 41
0.000000
  0
VERTEX
  8
0
  6
CONTINUOUS
 10
3.601400
 20
1.809280
  0
VERTEX
  8
0
  6
CONTINUOUS
 10
3.603600
 20
2.551120
  0
VERTEX
  8
0
  6
CONTINUOUS
 10
3.616360
 20
2.586760
  0
VERTEX
  8
0
  6
CONTINUOUS
 10
3.614160
 20
1.844480
  0
VERTEX
  8
0
  6
CONTINUOUS
 10
3.601400
 20
1.809280
  0
SEQEND
  8
0
  0
SOLID
  8
0
 62
    15
 10
3.614160
 20
1.844480
 11
3.616360
 21
2.586760
 12
3.631760
 22
1.874400
 13
3.633960
 23
2.616680
  0
POLYLINE
  8
0
  6
CONTINUOUS
 66
     1
 40
0.000000
 41
0.000000
  0
VERTEX
  8
0
  6
CONTINUOUS
 10
3.614160
 20
1.844480
  0
VERTEX
  8
0
  6
CONTINUOUS
 10
3.616360
 20
2.586760
  0
VERTEX
  8
0
  6
CONTINUOUS
 10
3.633960
 20
2.616680
  0
VERTEX
  8
0
  6
CONTINUOUS
 10
3.631760
 20
1.874400
  0
VERTEX
  8
0
  6
CONTINUOUS
 10
3.614160
 20
1.844480
  0
SEQEND
  8
0
  0
SOLID
  8
0
 62
    15
 10
3.631760
 20
1.874400
 11
3.633960
 21
2.616680
 12
3.652880
 22
1.898600
 13
3.655080
 23
2.640880
  0
POLYLINE
  8
0
  6
CONTINUOUS
 66
     1
 40
0.000000
 41
0.000000
  0
VERTEX
  8
0
  6
CONTINUOUS
 10
3.631760
 20
1.874400
  0
VERTEX
  8
0
  6
CONTINUOUS
 10
3.633960
 20
2.616680
  0
VERTEX
  8
0
  6
CONTINUOUS
 10
3.655080
 20
2.640880
  0
VERTEX
  8
0
  6
CONTINUOUS
 10
3.652880
 20
1.898600
  0
VERTEX
  8
0
  6
CONTINUOUS
 10
3.631760
 20
1.874400
  0
SEQEND
  8
0
  0
SOLID
  8
0
 62
    15
 10
3.652880
 20
1.898600
 11
3.655080
 21
2.640880
 12
3.676640
 22
1.917520
 13
3.678840
 23
2.659800
  0
POLYLINE
  8
0
  6
CONTINUOUS
 66
     1
 40
0.000000
 41
0.000000
  0
VERTEX
  8
0
  6
CONTINUOUS
 10
3.652880
 20
1.898600
  0
VERTEX
  8
0
  6
CONTINUOUS
 10
3.655080
 20
2.640880
  0
VERTEX
  8
0
  6
CONTINUOUS
 10
3.678840
 20
2.659800
  0
VERTEX
  8
0
  6
CONTINUOUS
 10
3.676640
 20
1.917520
  0
VERTEX
  8
0
  6
CONTINUOUS
 10
3.652880
 20
1.898600
  0
SEQEND
  8
0
  0
SOLID
  8
0
 62
    15
 10
3.676640
 20
1.917520
 11
3.678840
 21
2.659800
 12
3.703040
 22
1.931160
 13
3.705240
 23
2.673440
  0
POLYLINE
  8
0
  6
CONTINUOUS
 66
     1
 40
0.000000
 41
0.000000
  0
VERTEX
  8
0
  6
CONTINUOUS
 10
3.676640
 20
1.917520
  0
VERTEX
  8
0
  6
CONTINUOUS
 10
3.678840
 20
2.659800
  0
VERTEX
  8
0
  6
CONTINUOUS
 10
3.705240
 20
2.673440
  0
VERTEX
  8
0
  6
CONTINUOUS
 10
3.703040
 20
1.931160
  0
VERTEX
  8
0
  6
CONTINUOUS
 10
3.676640
 20
1.917520
  0
SEQEND
  8
0
  0
SOLID
  8
0
 62
    15
 10
3.703040
 20
1.931160
 11
3.705240
 21
2.673440
 12
3.730760
 22
1.939520
 13
3.732960
 23
2.681800
  0
POLYLINE
  8
0
  6
CONTINUOUS
 66
     1
 40
0.000000
 41
0.000000
  0
VERTEX
  8
0
  6
CONTINUOUS
 10
3.703040
 20
1.931160
  0
VERTEX
  8
0
  6
CONTINUOUS
 10
3.705240
 20
2.673440
  0
VERTEX
  8
0
  6
CONTINUOUS
 10
3.732960
 20
2.681800
  0
VERTEX
  8
0
  6
CONTINUOUS
 10
3.730760
 20
1.939520
  0
VERTEX
  8
0
  6
CONTINUOUS
 10
3.703040
 20
1.931160
  0
SEQEND
  8
0
  0
SOLID
  8
0
 62
    15
 10
6.267800
 20
1.617440
 11
6.270000
 21
2.359720
 12
6.276160
 22
1.617440
 13
6.278360
 23
2.359720
  0
POLYLINE
  8
0
  6
CONTINUOUS
 66
     1
 40
0.000000
 41
0.000000
  0
VERTEX
  8
0
  6
CONTINUOUS
 10
6.267800
 20
1.617440
  0
VERTEX
  8
0
  6
CONTINUOUS
 10
6.270000
 20
2.359720
  0
VERTEX
  8
0
  6
CONTINUOUS
 10
6.278360
 20
2.359720
  0
VERTEX
  8
0
  6
CONTINUOUS
 10
6.276160
 20
1.617440
  0
VERTEX
  8
0
  6
CONTINUOUS
 10
6.267800
 20
1.617440
  0
SEQEND
  8
0
  0
SOLID
  8
0
 62
    15
 10
3.759360
 20
1.943040
 11
3.761560
 21
2.684880
 12
3.787960
 22
1.941280
 13
3.790160
 23
2.683560
  0
POLYLINE
  8
0
  6
CONTINUOUS
 66
     1
 40
0.000000
 41
0.000000
  0
VERTEX
  8
0
  6
CONTINUOUS
 10
3.759360
 20
1.943040
  0
VERTEX
  8
0
  6
CONTINUOUS
 10
3.761560
 20
2.684880
  0
VERTEX
  8
0
  6
CONTINUOUS
 10
3.790160
 20
2.683560
  0
VERTEX
  8
0
  6
CONTINUOUS
 10
3.787960
 20
1.941280
  0
VERTEX
  8
0
  6
CONTINUOUS
 10
3.759360
 20
1.943040
  0
SEQEND
  8
0
  0
SOLID
  8
0
 62
    15
 10
3.787960
 20
1.941280
 11
3.790160
 21
2.683560
 12
3.816120
 22
1.934680
 13
3.818320
 23
2.676960
  0
POLYLINE
  8
0
  6
CONTINUOUS
 66
     1
 40
0.000000
 41
0.000000
  0
VERTEX
  8
0
  6
CONTINUOUS
 10
3.787960
 20
1.941280
  0
VERTEX
  8
0
  6
CONTINUOUS
 10
3.790160
 20
2.683560
  0
VERTEX
  8
0
  6
CONTINUOUS
 10
3.818320
 20
2.676960
  0
VERTEX
  8
0
  6
CONTINUOUS
 10
3.816120
 20
1.934680
  0
VERTEX
  8
0
  6
CONTINUOUS
 10
3.787960
 20
1.941280
  0
SEQEND
  8
0
  0
SOLID
  8
0
 62
    15
 10
3.816120
 20
1.934680
 11
3.818320
 21
2.676960
 12
3.842520
 22
1.923680
 13
3.844720
 23
2.665960
  0
POLYLINE
  8
0
  6
CONTINUOUS
 66
     1
 40
0.000000
 41
0.000000
  0
VERTEX
  8
0
  6
CONTINUOUS
 10
3.816120
 20
1.934680
  0
VERTEX
  8
0
  6
CONTINUOUS
 10
3.818320
 20
2.676960
  0
VERTEX
  8
0
  6
CONTINUOUS
 10
3.844720
 20
2.665960
  0
VERTEX
  8
0
  6
CONTINUOUS
 10
3.842520
 20
1.923680
  0
VERTEX
  8
0
  6
CONTINUOUS
 10
3.816120
 20
1.934680
  0
SEQEND
  8
0
  0
SOLID
  8
0
 62
    15
 10
3.842520
 20
1.923680
 11
3.844720
 21
2.665960
 12
3.867160
 22
1.908280
 13
3.868920
 23
2.650560
  0
POLYLINE
  8
0
  6
CONTINUOUS
 66
     1
 40
0.000000
 41
0.000000
  0
VERTEX
  8
0
  6
CONTINUOUS
 10
3.842520
 20
1.923680
  0
VERTEX
  8
0
  6
CONTINUOUS
 10
3.844720
 20
2.665960
  0
VERTEX
  8
0
  6
CONTINUOUS
 10
3.868920
 20
2.650560
  0
VERTEX
  8
0
  6
CONTINUOUS
 10
3.867160
 20
1.908280
  0
VERTEX
  8
0
  6
CONTINUOUS
 10
3.842520
 20
1.923680
  0
SEQEND
  8
0
  0
SOLID
  8
0
 62
    15
 10
3.867160
 20
1.908280
 11
3.868920
 21
2.650560
 12
3.888720
 22
1.888040
 13
3.890920
 23
2.630320
  0
POLYLINE
  8
0
  6
CONTINUOUS
 66
     1
 40
0.000000
 41
0.000000
  0
VERTEX
  8
0
  6
CONTINUOUS
 10
3.867160
 20
1.908280
  0
VERTEX
  8
0
  6
CONTINUOUS
 10
3.868920
 20
2.650560
  0
VERTEX
  8
0
  6
CONTINUOUS
 10
3.890920
 20
2.630320
  0
VERTEX
  8
0
  6
CONTINUOUS
 10
3.888720
 20
1.888040
  0
VERTEX
  8
0
  6
CONTINUOUS
 10
3.867160
 20
1.908280
  0
SEQEND
  8
0
  0
SOLID
  8
0
 62
    15
 10
3.888720
 20
1.888040
 11
3.890920
 21
2.630320
 12
3.906760
 22
1.863400
 13
3.908960
 23
2.605680
  0
POLYLINE
  8
0
  6
CONTINUOUS
 66
     1
 40
0.000000
 41
0.000000
  0
VERTEX
  8
0
  6
CONTINUOUS
 10
3.888720
 20
1.888040
  0
VERTEX
  8
0
  6
CONTINUOUS
 10
3.890920
 20
2.630320
  0
VERTEX
  8
0
  6
CONTINUOUS
 10
3.908960
 20
2.605680
  0
VERTEX
  8
0
  6
CONTINUOUS
 10
3.906760
 20
1.863400
  0
VERTEX
  8
0
  6
CONTINUOUS
 10
3.888720
 20
1.888040
  0
SEQEND
  8
0
  0
SOLID
  8
0
 62
    15
 10
3.906760
 20
1.863400
 11
3.908960
 21
2.605680
 12
3.920400
 22
1.834800
 13
3.922600
 23
2.577080
  0
POLYLINE
  8
0
  6
CONTINUOUS
 66
     1
 40
0.000000
 41
0.000000
  0
VERTEX
  8
0
  6
CONTINUOUS
 10
3.906760
 20
1.863400
  0
VERTEX
  8
0
  6
CONTINUOUS
 10
3.908960
 20
2.605680
  0
VERTEX
  8
0
  6
CONTINUOUS
 10
3.922600
 20
2.577080
  0
VERTEX
  8
0
  6
CONTINUOUS
 10
3.920400
 20
1.834800
  0
VERTEX
  8
0
  6
CONTINUOUS
 10
3.906760
 20
1.863400
  0
SEQEND
  8
0
  0
SOLID
  8
0
 62
    15
 10
3.920400
 20
1.834800
 11
3.922600
 21
2.577080
 12
3.929200
 22
1.802240
 13
3.931400
 23
2.544520
  0
POLYLINE
  8
0
  6
CONTINUOUS
 66
     1
 40
0.000000
 41
0.000000
  0
VERTEX
  8
0
  6
CONTINUOUS
 10
3.920400
 20
1.834800
  0
VERTEX
  8
0
  6
CONTINUOUS
 10
3.922600
 20
2.577080
  0
VERTEX
  8
0
  6
CONTINUOUS
 10
3.931400
 20
2.544520
  0
VERTEX
  8
0
  6
CONTINUOUS
 10
3.929200
 20
1.802240
  0
VERTEX
  8
0
  6
CONTINUOUS
 10
3.920400
 20
1.834800
  0
SEQEND
  8
0
  0
SOLID
  8
0
 62
    15
 10
3.929200
 20
1.802240
 11
3.931400
 21
2.544520
 12
3.932720
 22
1.765280
 13
3.934920
 23
2.507560
  0
POLYLINE
  8
0
  6
CONTINUOUS
 66
     1
 40
0.000000
 41
0.000000
  0
VERTEX
  8
0
  6
CONTINUOUS
 10
3.929200
 20
1.802240
  0
VERTEX
  8
0
  6
CONTINUOUS
 10
3.931400
 20
2.544520
  0
VERTEX
  8
0
  6
CONTINUOUS
 10
3.934920
 20
2.507560
  0
VERTEX
  8
0
  6
CONTINUOUS
 10
3.932720
 20
1.765280
  0
VERTEX
  8
0
  6
CONTINUOUS
 10
3.929200
 20
1.802240
  0
SEQEND
  8
0
  0
SOLID
  8
0
 62
    15
 10
3.932720
 20
1.765280
 11
3.934920
 21
2.507560
 12
5.767960
 22
1.765280
 13
5.770160
 23
2.507560
  0
POLYLINE
  8
0
  6
CONTINUOUS
 66
     1
 40
0.000000
 41
0.000000
  0
VERTEX
  8
0
  6
CONTINUOUS
 10
3.932720
 20
1.765280
  0
VERTEX
  8
0
  6
CONTINUOUS
 10
3.934920
 20
2.507560
  0
VERTEX
  8
0
  6
CONTINUOUS
 10
5.770160
 20
2.507560
  0
VERTEX
  8
0
  6
CONTINUOUS
 10
5.767960
 20
1.765280
  0
VERTEX
  8
0
  6
CONTINUOUS
 10
3.932720
 20
1.765280
  0
SEQEND
  8
0
  0
SOLID
  8
0
 62
    15
 10
5.767960
 20
1.765280
 11
5.770160
 21
2.507560
 12
5.770160
 22
1.763520
 13
5.772360
 23
2.505360
  0
POLYLINE
  8
0
  6
CONTINUOUS
 66
     1
 40
0.000000
 41
0.000000
  0
VERTEX
  8
0
  6
CONTINUOUS
 10
5.767960
 20
1.765280
  0
VERTEX
  8
0
  6
CONTINUOUS
 10
5.770160
 20
2.507560
  0
VERTEX
  8
0
  6
CONTINUOUS
 10
5.772360
 20
2.505360
  0
VERTEX
  8
0
  6
CONTINUOUS
 10
5.770160
 20
1.763520
  0
VERTEX
  8
0
  6
CONTINUOUS
 10
5.767960
 20
1.765280
  0
SEQEND
  8
0
  0
SOLID
  8
0
 62
    15
 10
5.770160
 20
1.763520
 11
5.772360
 21
2.505360
 12
5.789520
 22
1.764400
 13
5.791720
 23
2.506680
  0
POLYLINE
  8
0
  6
CONTINUOUS
 66
     1
 40
0.000000
 41
0.000000
  0
VERTEX
  8
0
  6
CONTINUOUS
 10
5.770160
 20
1.763520
  0
VERTEX
  8
0
  6
CONTINUOUS
 10
5.772360
 20
2.505360
  0
VERTEX
  8
0
  6
CONTINUOUS
 10
5.791720
 20
2.506680
  0
VERTEX
  8
0
  6
CONTINUOUS
 10
5.789520
 20
1.764400
  0
VERTEX
  8
0
  6
CONTINUOUS
 10
5.770160
 20
1.763520
  0
SEQEND
  8
0
  0
SOLID
  8
0
 62
    15
 10
5.789520
 20
1.764400
 11
5.791720
 21
2.506680
 12
5.808440
 22
1.761320
 13
5.810640
 23
2.503600
  0
POLYLINE
  8
0
  6
CONTINUOUS
 66
     1
 40
0.000000
 41
0.000000
  0
VERTEX
  8
0
  6
CONTINUOUS
 10
5.789520
 20
1.764400
  0
VERTEX
  8
0
  6
CONTINUOUS
 10
5.791720
 20
2.506680
  0
VERTEX
  8
0
  6
CONTINUOUS
 10
5.810640
 20
2.503600
  0
VERTEX
  8
0
  6
CONTINUOUS
 10
5.808440
 20
1.761320
  0
VERTEX
  8
0
  6
CONTINUOUS
 10
5.789520
 20
1.764400
  0
SEQEND
  8
0
  0
SOLID
  8
0
 62
    15
 10
5.808440
 20
1.761320
 11
5.810640
 21
2.503600
 12
5.826040
 22
1.754280
 13
5.827800
 23
2.496560
  0
POLYLINE
  8
0
  6
CONTINUOUS
 66
     1
 40
0.000000
 41
0.000000
  0
VERTEX
  8
0
  6
CONTINUOUS
 10
5.808440
 20
1.761320
  0
VERTEX
  8
0
  6
CONTINUOUS
 10
5.810640
 20
2.503600
  0
VERTEX
  8
0
  6
CONTINUOUS
 10
5.827800
 20
2.496560
  0
VERTEX
  8
0
  6
CONTINUOUS
 10
5.826040
 20
1.754280
  0
VERTEX
  8
0
  6
CONTINUOUS
 10
5.808440
 20
1.761320
  0
SEQEND
  8
0
  0
SOLID
  8
0
 62
    15
 10
5.826040
 20
1.754280
 11
5.827800
 21
2.496560
 12
5.841440
 22
1.744160
 13
5.843640
 23
2.486440
  0
POLYLINE
  8
0
  6
CONTINUOUS
 66
     1
 40
0.000000
 41
0.000000
  0
VERTEX
  8
0
  6
CONTINUOUS
 10
5.826040
 20
1.754280
  0
VERTEX
  8
0
  6
CONTINUOUS
 10
5.827800
 20
2.496560
  0
VERTEX
  8
0
  6
CONTINUOUS
 10
5.843640
 20
2.486440
  0
VERTEX
  8
0
  6
CONTINUOUS
 10
5.841440
 20
1.744160
  0
VERTEX
  8
0
  6
CONTINUOUS
 10
5.826040
 20
1.754280
  0
SEQEND
  8
0
  0
SOLID
  8
0
 62
    15
 10
5.841440
 20
1.744160
 11
5.843640
 21
2.486440
 12
5.854640
 22
1.730520
 13
5.856840
 23
2.472360
  0
POLYLINE
  8
0
  6
CONTINUOUS
 66
     1
 40
0.000000
 41
0.000000
  0
VERTEX
  8
0
  6
CONTINUOUS
 10
5.841440
 20
1.744160
  0
VERTEX
  8
0
  6
CONTINUOUS
 10
5.843640
 20
2.486440
  0
VERTEX
  8
0
  6
CONTINUOUS
 10
5.856840
 20
2.472360
  0
VERTEX
  8
0
  6
CONTINUOUS
 10
5.854640
 20
1.730520
  0
VERTEX
  8
0
  6
CONTINUOUS
 10
5.841440
 20
1.744160
  0
SEQEND
  8
0
  0
SOLID
  8
0
 62
    15
 10
5.854640
 20
1.730520
 11
5.856840
 21
2.472360
 12
5.864320
 22
1.713360
 13
5.866520
 23
2.455640
  0
POLYLINE
  8
0
  6
CONTINUOUS
 66
     1
 40
0.000000
 41
0.000000
  0
VERTEX
  8
0
  6
CONTINUOUS
 10
5.854640
 20
1.730520
  0
VERTEX
  8
0
  6
CONTINUOUS
 10
5.856840
 20
2.472360
  0
VERTEX
  8
0
  6
CONTINUOUS
 10
5.866520
 20
2.455640
  0
VERTEX
  8
0
  6
CONTINUOUS
 10
5.864320
 20
1.713360
  0
VERTEX
  8
0
  6
CONTINUOUS
 10
5.854640
 20
1.730520
  0
SEQEND
  8
0
  0
SOLID
  8
0
 62
    15
 10
5.872240
 20
1.671560
 11
5.874440
 21
2.413840
 12
5.884560
 22
1.671560
 13
5.886760
 23
2.413840
  0
POLYLINE
  8
0
  6
CONTINUOUS
 66
     1
 40
0.000000
 41
0.000000
  0
VERTEX
  8
0
  6
CONTINUOUS
 10
5.872240
 20
1.671560
  0
VERTEX
  8
0
  6
CONTINUOUS
 10
5.874440
 20
2.413840
  0
VERTEX
  8
0
  6
CONTINUOUS
 10
5.886760
 20
2.413840
  0
VERTEX
  8
0
  6
CONTINUOUS
 10
5.884560
 20
1.671560
  0
VERTEX
  8
0
  6
CONTINUOUS
 10
5.872240
 20
1.671560
  0
SEQEND
  8
0
  0
SOLID
  8
0
 62
    15
 10
5.870480
 20
1.694000
 11
5.872680
 21
2.436280
 12
5.872240
 22
1.671560
 13
5.874440
 23
2.413840
  0
POLYLINE
  8
0
  6
CONTINUOUS
 66
     1
 40
0.000000
 41
0.000000
  0
VERTEX
  8
0
  6
CONTINUOUS
 10
5.870480
 20
1.694000
  0
VERTEX
  8
0
  6
CONTINUOUS
 10
5.872680
 20
2.436280
  0
VERTEX
  8
0
  6
CONTINUOUS
 10
5.874440
 20
2.413840
  0
VERTEX
  8
0
  6
CONTINUOUS
 10
5.872240
 20
1.671560
  0
VERTEX
  8
0
  6
CONTINUOUS
 10
5.870480
 20
1.694000
  0
SEQEND
  8
0
  0
SOLID
  8
0
 62
    15
 10
5.864320
 20
1.713360
 11
5.866520
 21
2.455640
 12
5.870480
 22
1.694000
 13
5.872680
 23
2.436280
  0
POLYLINE
  8
0
  6
CONTINUOUS
 66
     1
 40
0.000000
 41
0.000000
  0
VERTEX
  8
0
  6
CONTINUOUS
 10
5.864320
 20
1.713360
  0
VERTEX
  8
0
  6
CONTINUOUS
 10
5.866520
 20
2.455640
  0
VERTEX
  8
0
  6
CONTINUOUS
 10
5.872680
 20
2.436280
  0
VERTEX
  8
0
  6
CONTINUOUS
 10
5.870480
 20
1.694000
  0
VERTEX
  8
0
  6
CONTINUOUS
 10
5.864320
 20
1.713360
  0
SEQEND
  8
0
  0
SOLID
  8
0
 62
    15
 10
5.884560
 20
1.671560
 11
5.886760
 21
2.413840
 12
5.908320
 22
1.689600
 13
5.910520
 23
2.431880
  0
POLYLINE
  8
0
  6
CONTINUOUS
 66
     1
 40
0.000000
 41
0.000000
  0
VERTEX
  8
0
  6
CONTINUOUS
 10
5.884560
 20
1.671560
  0
VERTEX
  8
0
  6
CONTINUOUS
 10
5.886760
 20
2.413840
  0
VERTEX
  8
0
  6
CONTINUOUS
 10
5.910520
 20
2.431880
  0
VERTEX
  8
0
  6
CONTINUOUS
 10
5.908320
 20
1.689600
  0
VERTEX
  8
0
  6
CONTINUOUS
 10
5.884560
 20
1.671560
  0
SEQEND
  8
0
  0
SOLID
  8
0
 62
    15
 10
5.908320
 20
1.689600
 11
5.910520
 21
2.431880
 12
5.930320
 22
1.703680
 13
5.932520
 23
2.445960
  0
POLYLINE
  8
0
  6
CONTINUOUS
 66
     1
 40
0.000000
 41
0.000000
  0
VERTEX
  8
0
  6
CONTINUOUS
 10
5.908320
 20
1.689600
  0
VERTEX
  8
0
  6
CONTINUOUS
 10
5.910520
 20
2.431880
  0
VERTEX
  8
0
  6
CONTINUOUS
 10
5.932520
 20
2.445960
  0
VERTEX
  8
0
  6
CONTINUOUS
 10
5.930320
 20
1.703680
  0
VERTEX
  8
0
  6
CONTINUOUS
 10
5.908320
 20
1.689600
  0
SEQEND
  8
0
  0
SOLID
  8
0
 62
    15
 10
5.930320
 20
1.703680
 11
5.932520
 21
2.445960
 12
5.968600
 22
1.722600
 13
5.970800
 23
2.464440
  0
POLYLINE
  8
0
  6
CONTINUOUS
 66
     1
 40
0.000000
 41
0.000000
  0
VERTEX
  8
0
  6
CONTINUOUS
 10
5.930320
 20
1.703680
  0
VERTEX
  8
0
  6
CONTINUOUS
 10
5.932520
 20
2.445960
  0
VERTEX
  8
0
  6
CONTINUOUS
 10
5.970800
 20
2.464440
  0
VERTEX
  8
0
  6
CONTINUOUS
 10
5.968600
 20
1.722600
  0
VERTEX
  8
0
  6
CONTINUOUS
 10
5.930320
 20
1.703680
  0
SEQEND
  8
0
  0
SOLID
  8
0
 62
    15
 10
5.968600
 20
1.722600
 11
5.970800
 21
2.464440
 12
6.001160
 22
1.729640
 13
6.003360
 23
2.471920
  0
POLYLINE
  8
0
  6
CONTINUOUS
 66
     1
 40
0.000000
 41
0.000000
  0
VERTEX
  8
0
  6
CONTINUOUS
 10
5.968600
 20
1.722600
  0
VERTEX
  8
0
  6
CONTINUOUS
 10
5.970800
 20
2.464440
  0
VERTEX
  8
0
  6
CONTINUOUS
 10
6.003360
 20
2.471920
  0
VERTEX
  8
0
  6
CONTINUOUS
 10
6.001160
 20
1.729640
  0
VERTEX
  8
0
  6
CONTINUOUS
 10
5.968600
 20
1.722600
  0
SEQEND
  8
0
  0
SOLID
  8
0
 62
    15
 10
6.001160
 20
1.729640
 11
6.003360
 21
2.471920
 12
6.028000
 22
1.727440
 13
6.030200
 23
2.469720
  0
POLYLINE
  8
0
  6
CONTINUOUS
 66
     1
 40
0.000000
 41
0.000000
  0
VERTEX
  8
0
  6
CONTINUOUS
 10
6.001160
 20
1.729640
  0
VERTEX
  8
0
  6
CONTINUOUS
 10
6.003360
 20
2.471920
  0
VERTEX
  8
0
  6
CONTINUOUS
 10
6.030200
 20
2.469720
  0
VERTEX
  8
0
  6
CONTINUOUS
 10
6.028000
 20
1.727440
  0
VERTEX
  8
0
  6
CONTINUOUS
 10
6.001160
 20
1.729640
  0
SEQEND
  8
0
  0
SOLID
  8
0
 62
    15
 10
6.028000
 20
1.727440
 11
6.030200
 21
2.469720
 12
6.050440
 22
1.719080
 13
6.052640
 23
2.461360
  0
POLYLINE
  8
0
  6
CONTINUOUS
 66
     1
 40
0.000000
 41
0.000000
  0
VERTEX
  8
0
  6
CONTINUOUS
 10
6.028000
 20
1.727440
  0
VERTEX
  8
0
  6
CONTINUOUS
 10
6.030200
 20
2.469720
  0
VERTEX
  8
0
  6
CONTINUOUS
 10
6.052640
 20
2.461360
  0
VERTEX
  8
0
  6
CONTINUOUS
 10
6.050440
 20
1.719080
  0
VERTEX
  8
0
  6
CONTINUOUS
 10
6.028000
 20
1.727440
  0
SEQEND
  8
0
  0
SOLID
  8
0
 62
    15
 10
6.050440
 20
1.719080
 11
6.052640
 21
2.461360
 12
6.068480
 22
1.705880
 13
6.070680
 23
2.448160
  0
POLYLINE
  8
0
  6
CONTINUOUS
 66
     1
 40
0.000000
 41
0.000000
  0
VERTEX
  8
0
  6
CONTINUOUS
 10
6.050440
 20
1.719080
  0
VERTEX
  8
0
  6
CONTINUOUS
 10
6.052640
 20
2.461360
  0
VERTEX
  8
0
  6
CONTINUOUS
 10
6.070680
 20
2.448160
  0
VERTEX
  8
0
  6
CONTINUOUS
 10
6.068480
 20
1.705880
  0
VERTEX
  8
0
  6
CONTINUOUS
 10
6.050440
 20
1.719080
  0
SEQEND
  8
0
  0
SOLID
  8
0
 62
    15
 10
6.068480
 20
1.705880
 11
6.070680
 21
2.448160
 12
6.083000
 22
1.690920
 13
6.085200
 23
2.432760
  0
POLYLINE
  8
0
  6
CONTINUOUS
 66
     1
 40
0.000000
 41
0.000000
  0
VERTEX
  8
0
  6
CONTINUOUS
 10
6.068480
 20
1.705880
  0
VERTEX
  8
0
  6
CONTINUOUS
 10
6.070680
 20
2.448160
  0
VERTEX
  8
0
  6
CONTINUOUS
 10
6.085200
 20
2.432760
  0
VERTEX
  8
0
  6
CONTINUOUS
 10
6.083000
 20
1.690920
  0
VERTEX
  8
0
  6
CONTINUOUS
 10
6.068480
 20
1.705880
  0
SEQEND
  8
0
  0
SOLID
  8
0
 62
    15
 10
6.083000
 20
1.690920
 11
6.085200
 21
2.432760
 12
6.089160
 22
1.683000
 13
6.091360
 23
2.425280
  0
POLYLINE
  8
0
  6
CONTINUOUS
 66
     1
 40
0.000000
 41
0.000000
  0
VERTEX
  8
0
  6
CONTINUOUS
 10
6.083000
 20
1.690920
  0
VERTEX
  8
0
  6
CONTINUOUS
 10
6.085200
 20
2.432760
  0
VERTEX
  8
0
  6
CONTINUOUS
 10
6.091360
 20
2.425280
  0
VERTEX
  8
0
  6
CONTINUOUS
 10
6.089160
 20
1.683000
  0
VERTEX
  8
0
  6
CONTINUOUS
 10
6.083000
 20
1.690920
  0
SEQEND
  8
0
  0
SOLID
  8
0
 62
    15
 10
6.089160
 20
1.683000
 11
6.091360
 21
2.425280
 12
6.095320
 22
1.675960
 13
6.097080
 23
2.418240
  0
POLYLINE
  8
0
  6
CONTINUOUS
 66
     1
 40
0.000000
 41
0.000000
  0
VERTEX
  8
0
  6
CONTINUOUS
 10
6.089160
 20
1.683000
  0
VERTEX
  8
0
  6
CONTINUOUS
 10
6.091360
 20
2.425280
  0
VERTEX
  8
0
  6
CONTINUOUS
 10
6.097080
 20
2.418240
  0
VERTEX
  8
0
  6
CONTINUOUS
 10
6.095320
 20
1.675960
  0
VERTEX
  8
0
  6
CONTINUOUS
 10
6.089160
 20
1.683000
  0
SEQEND
  8
0
  0
SOLID
  8
0
 62
    15
 10
6.095320
 20
1.675960
 11
6.097080
 21
2.418240
 12
6.115560
 22
1.652200
 13
6.117760
 23
2.394040
  0
POLYLINE
  8
0
  6
CONTINUOUS
 66
     1
 40
0.000000
 41
0.000000
  0
VERTEX
  8
0
  6
CONTINUOUS
 10
6.095320
 20
1.675960
  0
VERTEX
  8
0
  6
CONTINUOUS
 10
6.097080
 20
2.418240
  0
VERTEX
  8
0
  6
CONTINUOUS
 10
6.117760
 20
2.394040
  0
VERTEX
  8
0
  6
CONTINUOUS
 10
6.115560
 20
1.652200
  0
VERTEX
  8
0
  6
CONTINUOUS
 10
6.095320
 20
1.675960
  0
SEQEND
  8
0
  0
SOLID
  8
0
 62
    15
 10
6.115560
 20
1.652200
 11
6.117760
 21
2.394040
 12
6.137560
 22
1.634160
 13
6.139760
 23
2.376440
  0
POLYLINE
  8
0
  6
CONTINUOUS
 66
     1
 40
0.000000
 41
0.000000
  0
VERTEX
  8
0
  6
CONTINUOUS
 10
6.115560
 20
1.652200
  0
VERTEX
  8
0
  6
CONTINUOUS
 10
6.117760
 20
2.394040
  0
VERTEX
  8
0
  6
CONTINUOUS
 10
6.139760
 20
2.376440
  0
VERTEX
  8
0
  6
CONTINUOUS
 10
6.137560
 20
1.634160
  0
VERTEX
  8
0
  6
CONTINUOUS
 10
6.115560
 20
1.652200
  0
SEQEND
  8
0
  0
SOLID
  8
0
 62
    15
 10
6.137560
 20
1.634160
 11
6.139760
 21
2.376440
 12
6.163960
 22
1.622280
 13
6.166160
 23
2.364560
  0
POLYLINE
  8
0
  6
CONTINUOUS
 66
     1
 40
0.000000
 41
0.000000
  0
VERTEX
  8
0
  6
CONTINUOUS
 10
6.137560
 20
1.634160
  0
VERTEX
  8
0
  6
CONTINUOUS
 10
6.139760
 20
2.376440
  0
VERTEX
  8
0
  6
CONTINUOUS
 10
6.166160
 20
2.364560
  0
VERTEX
  8
0
  6
CONTINUOUS
 10
6.163960
 20
1.622280
  0
VERTEX
  8
0
  6
CONTINUOUS
 10
6.137560
 20
1.634160
  0
SEQEND
  8
0
  0
SOLID
  8
0
 62
    15
 10
6.163960
 20
1.622280
 11
6.166160
 21
2.364560
 12
6.196960
 22
1.617440
 13
6.199160
 23
2.359720
  0
POLYLINE
  8
0
  6
CONTINUOUS
 66
     1
 40
0.000000
 41
0.000000
  0
VERTEX
  8
0
  6
CONTINUOUS
 10
6.163960
 20
1.622280
  0
VERTEX
  8
0
  6
CONTINUOUS
 10
6.166160
 20
2.364560
  0
VERTEX
  8
0
  6
CONTINUOUS
 10
6.199160
 20
2.359720
  0
VERTEX
  8
0
  6
CONTINUOUS
 10
6.196960
 20
1.617440
  0
VERTEX
  8
0
  6
CONTINUOUS
 10
6.163960
 20
1.622280
  0
SEQEND
  8
0
  0
SOLID
  8
0
 62
    15
 10
6.196960
 20
1.617440
 11
6.199160
 21
2.359720
 12
6.267800
 22
1.617440
 13
6.270000
 23
2.359720
  0
POLYLINE
  8
0
  6
CONTINUOUS
 66
     1
 40
0.000000
 41
0.000000
  0
VERTEX
  8
0
  6
CONTINUOUS
 10
6.196960
 20
1.617440
  0
VERTEX
  8
0
  6
CONTINUOUS
 10
6.199160
 20
2.359720
  0
VERTEX
  8
0
  6
CONTINUOUS
 10
6.270000
 20
2.359720
  0
VERTEX
  8
0
  6
CONTINUOUS
 10
6.267800
 20
1.617440
  0
VERTEX
  8
0
  6
CONTINUOUS
 10
6.196960
 20
1.617440
  0
SEQEND
  8
0
  0
SOLID
  8
0
 62
    15
 10
6.273080
 20
1.617880
 11
6.275280
 21
2.360160
 12
6.284080
 22
1.617880
 13
6.286280
 23
2.360160
  0
POLYLINE
  8
0
  6
CONTINUOUS
 66
     1
 40
0.000000
 41
0.000000
  0
VERTEX
  8
0
  6
CONTINUOUS
 10
6.273080
 20
1.617880
  0
VERTEX
  8
0
  6
CONTINUOUS
 10
6.275280
 20
2.360160
  0
VERTEX
  8
0
  6
CONTINUOUS
 10
6.286280
 20
2.360160
  0
VERTEX
  8
0
  6
CONTINUOUS
 10
6.284080
 20
1.617880
  0
VERTEX
  8
0
  6
CONTINUOUS
 10
6.273080
 20
1.617880
  0
SEQEND
  8
0
  0
POLYLINE
  8
0
  6
CONTINUOUS
 66
     1
 40
0.000000
 41
0.000000
  0
VERTEX
  8
0
  6
CONTINUOUS
 10
6.276160
 20
1.617440
  0
VERTEX
  8
0
  6
CONTINUOUS
 10
6.273080
 20
1.617880
  0
VERTEX
  8
0
  6
CONTINUOUS
 10
6.305200
 20
1.617000
  0
VERTEX
  8
0
  6
CONTINUOUS
 10
6.332480
 20
1.613920
  0
VERTEX
  8
0
  6
CONTINUOUS
 10
6.360640
 20
1.607320
  0
VERTEX
  8
0
  6
CONTINUOUS
 10
6.386160
 20
1.596320
  0
VERTEX
  8
0
  6
CONTINUOUS
 10
6.404640
 20
1.580040
  0
VERTEX
  8
0
  6
CONTINUOUS
 10
6.411680
 20
1.557160
  0
VERTEX
  8
0
  6
CONTINUOUS
 10
7.443040
 20
1.557160
  0
VERTEX
  8
0
  6
CONTINUOUS
 10
7.443040
 20
1.263240
  0
VERTEX
  8
0
  6
CONTINUOUS
 10
2.538800
 20
1.263240
  0
VERTEX
  8
0
  6
CONTINUOUS
 10
2.538800
 20
2.136200
  0
VERTEX
  8
0
  6
CONTINUOUS
 10
2.836680
 20
2.136200
  0
VERTEX
  8
0
  6
CONTINUOUS
 10
2.847240
 20
2.005080
  0
VERTEX
  8
0
  6
CONTINUOUS
 10
2.896520
 20
2.039840
  0
VERTEX
  8
0
  6
CONTINUOUS
 10
2.946680
 20
2.063160
  0
VERTEX
  8
0
  6
CONTINUOUS
 10
2.999040
 20
2.077240
  0
VERTEX
  8
0
  6
CONTINUOUS
 10
3.052280
 20
2.082960
  0
VERTEX
  8
0
  6
CONTINUOUS
 10
3.106400
 20
2.082080
  0
VERTEX
  8
0
  6
CONTINUOUS
 10
3.159640
 20
2.074160
  0
VERTEX
  8
0
  6
CONTINUOUS
 10
3.211560
 20
2.060520
  0
VERTEX
  8
0
  6
CONTINUOUS
 10
3.261280
 20
2.042040
  0
VERTEX
  8
0
  6
CONTINUOUS
 10
3.308360
 20
2.019600
  0
VERTEX
  8
0
  6
CONTINUOUS
 10
3.351480
 20
1.994080
  0
VERTEX
  8
0
  6
CONTINUOUS
 10
3.389760
 20
1.965480
  0
VERTEX
  8
0
  6
CONTINUOUS
 10
3.423200
 20
1.935120
  0
VERTEX
  8
0
  6
CONTINUOUS
 10
3.450040
 20
1.904320
  0
VERTEX
  8
0
  6
CONTINUOUS
 10
3.469840
 20
1.873080
  0
VERTEX
  8
0
  6
CONTINUOUS
 10
3.481280
 20
1.842280
  0
VERTEX
  8
0
  6
CONTINUOUS
 10
3.484800
 20
1.809280
  0
VERTEX
  8
0
  6
CONTINUOUS
 10
3.601400
 20
1.809280
  0
VERTEX
  8
0
  6
CONTINUOUS
 10
3.614160
 20
1.844480
  0
VERTEX
  8
0
  6
CONTINUOUS
 10
3.631760
 20
1.874400
  0
VERTEX
  8
0
  6
CONTINUOUS
 10
3.652880
 20
1.898600
  0
VERTEX
  8
0
  6
CONTINUOUS
 10
3.676640
 20
1.917520
  0
VERTEX
  8
0
  6
CONTINUOUS
 10
3.703040
 20
1.931160
  0
VERTEX
  8
0
  6
CONTINUOUS
 10
3.730760
 20
1.939520
  0
VERTEX
  8
0
  6
CONTINUOUS
 10
3.759360
 20
1.943040
  0
VERTEX
  8
0
  6
CONTINUOUS
 10
3.787960
 20
1.941280
  0
VERTEX
  8
0
  6
CONTINUOUS
 10
3.816120
 20
1.934680
  0
VERTEX
  8
0
  6
CONTINUOUS
 10
3.842520
 20
1.923680
  0
VERTEX
  8
0
  6
CONTINUOUS
 10
3.867160
 20
1.908280
  0
VERTEX
  8
0
  6
CONTINUOUS
 10
3.888720
 20
1.888040
  0
VERTEX
  8
0
  6
CONTINUOUS
 10
3.906760
 20
1.863400
  0
VERTEX
  8
0
  6
CONTINUOUS
 10
3.920400
 20
1.834800
  0
VERTEX
  8
0
  6
CONTINUOUS
 10
3.929200
 20
1.802240
  0
VERTEX
  8
0
  6
CONTINUOUS
 10
3.932720
 20
1.765280
  0
VERTEX
  8
0
  6
CONTINUOUS
 10
5.767960
 20
1.765280
  0
VERTEX
  8
0
  6
CONTINUOUS
 10
5.770160
 20
1.763520
  0
VERTEX
  8
0
  6
CONTINUOUS
 10
5.789520
 20
1.764400
  0
VERTEX
  8
0
  6
CONTINUOUS
 10
5.808440
 20
1.761320
  0
VERTEX
  8
0
  6
CONTINUOUS
 10
5.826040
 20
1.754280
  0
VERTEX
  8
0
  6
CONTINUOUS
 10
5.841440
 20
1.744160
  0
VERTEX
  8
0
  6
CONTINUOUS
 10
5.854640
 20
1.730520
  0
VERTEX
  8
0
  6
CONTINUOUS
 10
5.864320
 20
1.713360
  0
VERTEX
  8
0
  6
CONTINUOUS
 10
5.870480
 20
1.694000
  0
VERTEX
  8
0
  6
CONTINUOUS
 10
5.872240
 20
1.671560
  0
VERTEX
  8
0
  6
CONTINUOUS
 10
5.884560
 20
1.671560
  0
VERTEX
  8
0
  6
CONTINUOUS
 10
5.908320
 20
1.689600
  0
VERTEX
  8
0
  6
CONTINUOUS
 10
5.930320
 20
1.703680
  0
VERTEX
  8
0
  6
CONTINUOUS
 10
5.968600
 20
1.722600
  0
VERTEX
  8
0
  6
CONTINUOUS
 10
6.001160
 20
1.729640
  0
VERTEX
  8
0
  6
CONTINUOUS
 10
6.028000
 20
1.727440
  0
VERTEX
  8
0
  6
CONTINUOUS
 10
6.050440
 20
1.719080
  0
VERTEX
  8
0
  6
CONTINUOUS
 10
6.068480
 20
1.705880
  0
VERTEX
  8
0
  6
CONTINUOUS
 10
6.095320
 20
1.675960
  0
VERTEX
  8
0
  6
CONTINUOUS
 10
6.115560
 20
1.652200
  0
VERTEX
  8
0
  6
CONTINUOUS
 10
6.137560
 20
1.634160
  0
VERTEX
  8
0
  6
CONTINUOUS
 10
6.163960
 20
1.622280
  0
VERTEX
  8
0
  6
CONTINUOUS
 10
6.196960
 20
1.617440
  0
VERTEX
  8
0
  6
CONTINUOUS
 10
6.276160
 20
1.617440
  0
SEQEND
  8
0
  0
TEXT
  8
0
 10
4.697000
 20
1.013320
 40
0.138286
  1
BA  683
 41
1.000000
  7
SN0
 71
     0
 72
     5
 11
5.287960
 21
1.013320
  0
TEXT
  8
0
 10
4.448840
 20
0.821920
 40
0.138286
  1
7/8" x 4-15/16"
 41
1.000000
  7
SN0
 71
     0
 72
     5
 11
5.535668
 21
0.821920
  0
POLYLINE
  8
0
  6
CONTINUOUS
 66
     1
 40
0.014080
 41
0.014080
  0
VERTEX
  8
0
  6
CONTINUOUS
 10
6.334680
 20
3.712720
  0
VERTEX
  8
0
  6
CONTINUOUS
 10
6.254600
 20
3.713160
  0
VERTEX
  8
0
  6
CONTINUOUS
 10
6.230400
 20
3.717560
  0
VERTEX
  8
0
  6
CONTINUOUS
 10
6.216760
 20
3.722400
  0
VERTEX
  8
0
  6
CONTINUOUS
 10
6.204440
 20
3.729000
  0
VERTEX
  8
0
  6
CONTINUOUS
 10
6.182000
 20
3.747040
  0
VERTEX
  8
0
  6
CONTINUOUS
 10
6.142840
 20
3.793240
  0
VERTEX
  8
0
  6
CONTINUOUS
 10
6.126560
 20
3.807760
  0
VERTEX
  8
0
  6
CONTINUOUS
 10
6.106320
 20
3.818760
  0
VERTEX
  8
0
  6
CONTINUOUS
 10
6.094880
 20
3.822720
  0
VERTEX
  8
0
  6
CONTINUOUS
 10
6.075080
 20
3.824920
  0
VERTEX
  8
0
  6
CONTINUOUS
 10
6.052640
 20
3.822280
  0
VERTEX
  8
0
  6
CONTINUOUS
 10
6.026680
 20
3.813920
  0
VERTEX
  8
0
  6
CONTINUOUS
 10
5.996760
 20
3.798960
  0
VERTEX
  8
0
  6
CONTINUOUS
 10
5.963320
 20
3.776080
  0
VERTEX
  8
0
  6
CONTINUOUS
 10
5.951440
 20
3.766840
  0
VERTEX
  8
0
  6
CONTINUOUS
 10
5.938680
 20
3.766840
  0
VERTEX
  8
0
  6
CONTINUOUS
 10
5.938680
 20
3.778280
  0
VERTEX
  8
0
  6
CONTINUOUS
 10
5.934720
 20
3.799400
  0
VERTEX
  8
0
  6
CONTINUOUS
 10
5.926360
 20
3.817440
  0
VERTEX
  8
0
  6
CONTINUOUS
 10
5.914920
 20
3.832840
  0
VERTEX
  8
0
  6
CONTINUOUS
 10
5.900840
 20
3.844720
  0
VERTEX
  8
0
  6
CONTINUOUS
 10
5.884120
 20
3.853520
  0
VERTEX
  8
0
  6
CONTINUOUS
 10
5.866080
 20
3.858360
  0
VERTEX
  8
0
  6
CONTINUOUS
 10
5.846720
 20
3.859240
  0
VERTEX
  8
0
  6
CONTINUOUS
 10
5.837040
 20
3.858360
  0
VERTEX
  8
0
  6
CONTINUOUS
 10
5.834840
 20
3.860560
  0
VERTEX
  8
0
  6
CONTINUOUS
 10
3.999160
 20
3.860560
  0
VERTEX
  8
0
  6
CONTINUOUS
 10
3.996080
 20
3.897080
  0
VERTEX
  8
0
  6
CONTINUOUS
 10
3.987280
 20
3.930080
  0
VERTEX
  8
0
  6
CONTINUOUS
 10
3.981120
 20
3.944600
  0
VERTEX
  8
0
  6
CONTINUOUS
 10
3.964840
 20
3.971440
  0
VERTEX
  8
0
  6
CONTINUOUS
 10
3.945040
 20
3.993440
  0
VERTEX
  8
0
  6
CONTINUOUS
 10
3.921720
 20
4.011480
  0
VERTEX
  8
0
  6
CONTINUOUS
 10
3.896200
 20
4.024680
  0
VERTEX
  8
0
  6
CONTINUOUS
 10
3.868920
 20
4.033480
  0
VERTEX
  8
0
  6
CONTINUOUS
 10
3.840320
 20
4.037440
  0
VERTEX
  8
0
  6
CONTINUOUS
 10
3.826240
 20
4.037880
  0
VERTEX
  8
0
  6
CONTINUOUS
 10
3.797640
 20
4.034360
  0
VERTEX
  8
0
  6
CONTINUOUS
 10
3.769920
 20
4.026000
  0
VERTEX
  8
0
  6
CONTINUOUS
 10
3.743520
 20
4.012360
  0
VERTEX
  8
0
  6
CONTINUOUS
 10
3.719760
 20
3.993440
  0
VERTEX
  8
0
  6
CONTINUOUS
 10
3.698640
 20
3.969240
  0
VERTEX
  8
0
  6
CONTINUOUS
 10
3.681040
 20
3.939320
  0
VERTEX
  8
0
  6
CONTINUOUS
 10
3.674000
 20
3.922600
  0
VERTEX
  8
0
  6
CONTINUOUS
 10
3.668280
 20
3.904120
  0
VERTEX
  8
0
  6
CONTINUOUS
 10
3.551240
 20
3.904120
  0
VERTEX
  8
0
  6
CONTINUOUS
 10
3.550800
 20
3.923040
  0
VERTEX
  8
0
  6
CONTINUOUS
 10
3.548160
 20
3.937560
  0
VERTEX
  8
0
  6
CONTINUOUS
 10
3.543320
 20
3.952960
  0
VERTEX
  8
0
  6
CONTINUOUS
 10
3.527480
 20
3.983760
  0
VERTEX
  8
0
  6
CONTINUOUS
 10
3.504160
 20
4.015000
  0
VERTEX
  8
0
  6
CONTINUOUS
 10
3.473800
 20
4.045800
  0
VERTEX
  8
0
  6
CONTINUOUS
 10
3.438160
 20
4.074840
  0
VERTEX
  8
0
  6
CONTINUOUS
 10
3.397240
 20
4.102120
  0
VERTEX
  8
0
  6
CONTINUOUS
 10
3.351920
 20
4.126320
  0
VERTEX
  8
0
  6
CONTINUOUS
 10
3.303520
 20
4.147000
  0
VERTEX
  8
0
  6
CONTINUOUS
 10
3.252480
 20
4.163280
  0
VERTEX
  8
0
  6
CONTINUOUS
 10
3.199680
 20
4.173840
  0
VERTEX
  8
0
  6
CONTINUOUS
 10
3.172840
 20
4.176920
  0
VERTEX
  8
0
  6
CONTINUOUS
 10
3.119160
 20
4.178240
  0
VERTEX
  8
0
  6
CONTINUOUS
 10
3.092320
 20
4.176040
  0
VERTEX
  8
0
  6
CONTINUOUS
 10
3.065920
 20
4.172080
  0
VERTEX
  8
0
  6
CONTINUOUS
 10
3.039520
 20
4.165920
  0
VERTEX
  8
0
  6
CONTINUOUS
 10
3.013560
 20
4.158000
  0
VERTEX
  8
0
  6
CONTINUOUS
 10
2.975720
 20
4.141720
  0
VERTEX
  8
0
  6
CONTINUOUS
 10
2.939200
 20
4.119720
  0
VERTEX
  8
0
  6
CONTINUOUS
 10
2.913680
 20
4.099920
  0
VERTEX
  8
0
  6
CONTINUOUS
 10
2.903560
 20
4.231480
  0
VERTEX
  8
0
  6
CONTINUOUS
 10
2.605680
 20
4.231480
  0
VERTEX
  8
0
  6
CONTINUOUS
 10
2.605680
 20
3.358520
  0
VERTEX
  8
0
  6
CONTINUOUS
 10
7.509920
 20
3.358520
  0
VERTEX
  8
0
  6
CONTINUOUS
 10
7.509920
 20
3.652000
  0
VERTEX
  8
0
  6
CONTINUOUS
 10
6.478560
 20
3.652000
  0
VERTEX
  8
0
  6
CONTINUOUS
 10
6.476800
 20
3.664320
  0
VERTEX
  8
0
  6
CONTINUOUS
 10
6.471520
 20
3.674880
  0
VERTEX
  8
0
  6
CONTINUOUS
 10
6.458320
 20
3.687640
  0
VERTEX
  8
0
  6
CONTINUOUS
 10
6.440720
 20
3.697320
  0
VERTEX
  8
0
  6
CONTINUOUS
 10
6.413440
 20
3.706120
  0
VERTEX
  8
0
  6
CONTINUOUS
 10
6.372080
 20
3.712280
  0
VERTEX
  8
0
  6
CONTINUOUS
 10
6.339080
 20
3.712720
  0
VERTEX
  8
0
  6
CONTINUOUS
 10
6.343040
 20
3.712720
  0
VERTEX
  8
0
  6
CONTINUOUS
 10
6.334680
 20
3.712720
  0
SEQEND
  8
0
  0
TEXT
  8
0
 10
4.750240
 20
3.654200
 40
0.138286
  1
683
 41
1.000000
  7
SN0
 71
     0
 72
     5
 11
5.027548
 21
3.654200
  0
TEXT
  8
0
 10
4.345440
 20
3.462800
 40
0.138286
  1
7/8" x 4-15/16"
 41
1.000000
  7
SN0
 71
     0
 72
     5
 11
5.432268
 21
3.462800
  0
ENDSEC
  0
EOF
