  0
SECTION
  2
HEADER
  9
$ACADVER
  1
AC1006
  9
$EXTMIN
 10
1.507880
 20
0.874720
  9
$EXTMAX
 10
7.109520
 20
3.063280
  9
$LTSCALE
 40
0.044000
  9
$PDMODE
 70
    35
  9
$PDSIZE
 40
0.035200
  0
ENDSEC
  0
SECTION
  2
TABLES
  0
TABLE
  2
LTYPE
 70
     9
  0
LTYPE
  2
CONTINUOUS
 70
    64
  3
Solid line
 72
    65
 73
     0
 40
0.000000
  0
LTYPE
  2
DASHED
 70
    64
  3
__ __ __ __ __ __ __ __ __ __ __ __ __ __ __
 72
    65
 73
     2
 40
0.000330
 49
0.000220
 49
-0.000110
  0
LTYPE
  2
HIDDEN
 70
    64
  3
 _ _ _ _ _ _ _ _ _ _ _ _ _ _ _ _ _ _ _ _ _ _
 72
    65
 73
     2
 40
0.000165
 49
0.000110
 49
-0.000055
  0
LTYPE
  2
CENTER
 70
    64
  3
____ _ ____ _ ____ _ ____ _ ____ _ ____ _ ____
 72
    65
 73
     4
 40
0.000880
 49
0.000550
 49
-0.000110
 49
0.000110
 49
-0.000110
  0
LTYPE
  2
PHANTOM
 70
    64
  3
_____ _ _ _____ _ _ _____ _ _ _____ _ _ ____
 72
    65
 73
     6
 40
0.001100
 49
0.000550
 49
-0.000110
 49
0.000110
 49
-0.000110
 49
0.000110
 49
-0.000110
  0
LTYPE
  2
DOT
 70
    64
  3
...............................................
 72
    65
 73
     2
 40
0.000110
 49
0.000000
 49
-0.000110
  0
LTYPE
  2
DASHDOT
 70
    64
  3
__ . __ . __ . __ . __ . __ . __ . __ . __ . __
 72
    65
 73
     4
 40
0.000440
 49
0.000220
 49
-0.000110
 49
0.000000
 49
-0.000110
  0
LTYPE
  2
BORDER
 70
    64
  3
__ __ . __ __ . __ __ . __ __ . __ __ . __ __
 72
    65
 73
     6
 40
0.000770
 49
0.000220
 49
-0.000110
 49
0.000220
 49
-0.000110
 49
0.000000
 49
-0.000110
  0
LTYPE
  2
DIVIDE
 70
    64
  3
__ . . __ . . __ . . __ . . __ . . __ . . __
 72
    65
 73
     6
 40
0.000550
 49
0.000220
 49
-0.000110
 49
0.000000
 49
-0.000110
 49
0.000000
 49
-0.000110
  0
LTYPE
  2
DOTDOT
 70
    64
  3
 . .  . .  . .  . .  . .  . . 
 72
    65
 73
     5
 40
0.000242
 49
-0.000110
 49
0.000000
 49
-0.000110
 49
0.000000
 49
-0.000110
  0
ENDTAB
  0
TABLE
  2
STYLE
 70
     2
  0
STYLE
 70
     0
  2
SN0
 40
0.000000
 41
0.000440
 50
0.000000
 71
     0
 42
0.000000
  3
ROMAND
  0
STYLE
 70
    68
  2
SV0
 40
0.000000
 41
0.000440
 50
0.000000
 71
     0
 42
0.000000
  3
ROMAND
  0
ENDTAB
  0
TABLE
  2
LAYER
 70
     3
  0
LAYER
  2
FOREGROUND
 70
    64
 62
     7
  6
CONTINUOUS
  0
LAYER
  2
BACKGROUND
 70
    65
 62
    -7
  6
CONTINUOUS
  0
LAYER
  2
0
 70
    64
 62
     7
  6
CONTINUOUS
  0
ENDTAB
  0
ENDSEC
  0
SECTION
  2
ENTITIES
  0
POLYLINE
  8
FOREGROUND
  6
CONTINUOUS
 66
     1
 40
0.000000
 41
0.000000
  0
VERTEX
  8
FOREGROUND
  6
CONTINUOUS
 10
0.000000
 20
3.938000
  0
VERTEX
  8
FOREGROUND
  6
CONTINUOUS
 10
8.499920
 20
3.938000
  0
VERTEX
  8
FOREGROUND
  6
CONTINUOUS
 10
8.499920
 20
-7.062000
  0
VERTEX
  8
FOREGROUND
  6
CONTINUOUS
 10
0.000000
 20
-7.062000
  0
VERTEX
  8
FOREGROUND
  6
CONTINUOUS
 10
0.000000
 20
3.938000
  0
SEQEND
  8
0
  0
POLYLINE
  8
FOREGROUND
  6
CONTINUOUS
 66
     1
 40
0.000000
 41
0.000000
  0
VERTEX
  8
FOREGROUND
  6
CONTINUOUS
 10
0.000000
 20
3.938000
  0
VERTEX
  8
FOREGROUND
  6
CONTINUOUS
 10
8.499920
 20
3.938000
  0
VERTEX
  8
FOREGROUND
  6
CONTINUOUS
 10
8.499920
 20
-7.062000
  0
VERTEX
  8
FOREGROUND
  6
CONTINUOUS
 10
0.000000
 20
-7.062000
  0
VERTEX
  8
FOREGROUND
  6
CONTINUOUS
 10
0.000000
 20
3.938000
  0
SEQEND
  8
0
  0
POLYLINE
  8
0
  6
CONTINUOUS
 66
     1
 40
0.014080
 41
0.014080
  0
VERTEX
  8
0
  6
CONTINUOUS
 10
4.860680
 20
3.038200
  0
VERTEX
  8
0
  6
CONTINUOUS
 10
4.860680
 20
1.265000
  0
VERTEX
  8
0
  6
CONTINUOUS
 10
5.835720
 20
1.265000
  0
VERTEX
  8
0
  6
CONTINUOUS
 10
5.835720
 20
1.734040
  0
VERTEX
  8
0
  6
CONTINUOUS
 10
5.991920
 20
1.734040
  0
VERTEX
  8
0
  6
CONTINUOUS
 10
5.991920
 20
1.869120
  0
VERTEX
  8
0
  6
CONTINUOUS
 10
6.148560
 20
1.869120
  0
VERTEX
  8
0
  6
CONTINUOUS
 10
6.148120
 20
2.077680
  0
VERTEX
  8
0
  6
CONTINUOUS
 10
6.013040
 20
2.077680
  0
VERTEX
  8
0
  6
CONTINUOUS
 10
6.013040
 20
2.131800
  0
VERTEX
  8
0
  6
CONTINUOUS
 10
6.189920
 20
2.131800
  0
VERTEX
  8
0
  6
CONTINUOUS
 10
6.189920
 20
2.129600
  0
VERTEX
  8
0
  6
CONTINUOUS
 10
6.190800
 20
2.162160
  0
VERTEX
  8
0
  6
CONTINUOUS
 10
6.193880
 20
2.194280
  0
VERTEX
  8
0
  6
CONTINUOUS
 10
6.205760
 20
2.256320
  0
VERTEX
  8
0
  6
CONTINUOUS
 10
6.214560
 20
2.286680
  0
VERTEX
  8
0
  6
CONTINUOUS
 10
6.237000
 20
2.344760
  0
VERTEX
  8
0
  6
CONTINUOUS
 10
6.250640
 20
2.372920
  0
VERTEX
  8
0
  6
CONTINUOUS
 10
6.282760
 20
2.426600
  0
VERTEX
  8
0
  6
CONTINUOUS
 10
6.320600
 20
2.477200
  0
VERTEX
  8
0
  6
CONTINUOUS
 10
6.363280
 20
2.523840
  0
VERTEX
  8
0
  6
CONTINUOUS
 10
6.410800
 20
2.566520
  0
VERTEX
  8
0
  6
CONTINUOUS
 10
6.435880
 20
2.586320
  0
VERTEX
  8
0
  6
CONTINUOUS
 10
6.489560
 20
2.622840
  0
VERTEX
  8
0
  6
CONTINUOUS
 10
6.546320
 20
2.654520
  0
VERTEX
  8
0
  6
CONTINUOUS
 10
6.605720
 20
2.681360
  0
VERTEX
  8
0
  6
CONTINUOUS
 10
6.667320
 20
2.703360
  0
VERTEX
  8
0
  6
CONTINUOUS
 10
6.731120
 20
2.719640
  0
VERTEX
  8
0
  6
CONTINUOUS
 10
6.795800
 20
2.730640
  0
VERTEX
  8
0
  6
CONTINUOUS
 10
6.828360
 20
2.734160
  0
VERTEX
  8
0
  6
CONTINUOUS
 10
6.860920
 20
2.735920
  0
VERTEX
  8
0
  6
CONTINUOUS
 10
6.898320
 20
2.735920
  0
VERTEX
  8
0
  6
CONTINUOUS
 10
6.898320
 20
2.808960
  0
VERTEX
  8
0
  6
CONTINUOUS
 10
7.102480
 20
2.808960
  0
VERTEX
  8
0
  6
CONTINUOUS
 10
7.102480
 20
3.044360
  0
VERTEX
  8
0
  6
CONTINUOUS
 10
4.860680
 20
3.044360
  0
VERTEX
  8
0
  6
CONTINUOUS
 10
4.860680
 20
3.038200
  0
SEQEND
  8
0
  0
SOLID
  8
0
 62
    15
 10
2.898280
 20
2.391400
 11
3.547720
 21
2.015200
 12
2.853400
 22
2.274800
 13
3.502840
 23
1.898600
  0
POLYLINE
  8
0
  6
CONTINUOUS
 66
     1
 40
0.000000
 41
0.000000
  0
VERTEX
  8
0
  6
CONTINUOUS
 10
2.898280
 20
2.391400
  0
VERTEX
  8
0
  6
CONTINUOUS
 10
3.547720
 20
2.015200
  0
VERTEX
  8
0
  6
CONTINUOUS
 10
3.502840
 20
1.898600
  0
VERTEX
  8
0
  6
CONTINUOUS
 10
2.853400
 20
2.274800
  0
VERTEX
  8
0
  6
CONTINUOUS
 10
2.898280
 20
2.391400
  0
SEQEND
  8
0
  0
SOLID
  8
0
 62
    15
 10
3.750120
 20
2.827440
 11
4.399120
 21
2.451240
 12
3.545960
 22
2.827440
 13
4.194960
 23
2.451240
  0
POLYLINE
  8
0
  6
CONTINUOUS
 66
     1
 40
0.000000
 41
0.000000
  0
VERTEX
  8
0
  6
CONTINUOUS
 10
3.750120
 20
2.827440
  0
VERTEX
  8
0
  6
CONTINUOUS
 10
4.399120
 20
2.451240
  0
VERTEX
  8
0
  6
CONTINUOUS
 10
4.194960
 20
2.451240
  0
VERTEX
  8
0
  6
CONTINUOUS
 10
3.545960
 20
2.827440
  0
VERTEX
  8
0
  6
CONTINUOUS
 10
3.750120
 20
2.827440
  0
SEQEND
  8
0
  0
SOLID
  8
0
 62
    15
 10
3.545960
 20
2.827440
 11
4.194960
 21
2.451240
 12
3.545960
 22
2.754400
 13
4.194960
 23
2.378200
  0
POLYLINE
  8
0
  6
CONTINUOUS
 66
     1
 40
0.000000
 41
0.000000
  0
VERTEX
  8
0
  6
CONTINUOUS
 10
3.545960
 20
2.827440
  0
VERTEX
  8
0
  6
CONTINUOUS
 10
4.194960
 20
2.451240
  0
VERTEX
  8
0
  6
CONTINUOUS
 10
4.194960
 20
2.378200
  0
VERTEX
  8
0
  6
CONTINUOUS
 10
3.545960
 20
2.754400
  0
VERTEX
  8
0
  6
CONTINUOUS
 10
3.545960
 20
2.827440
  0
SEQEND
  8
0
  0
SOLID
  8
0
 62
    15
 10
3.545960
 20
2.754400
 11
4.194960
 21
2.378200
 12
3.541560
 22
2.754400
 13
4.191000
 23
2.378200
  0
POLYLINE
  8
0
  6
CONTINUOUS
 66
     1
 40
0.000000
 41
0.000000
  0
VERTEX
  8
0
  6
CONTINUOUS
 10
3.545960
 20
2.754400
  0
VERTEX
  8
0
  6
CONTINUOUS
 10
4.194960
 20
2.378200
  0
VERTEX
  8
0
  6
CONTINUOUS
 10
4.191000
 20
2.378200
  0
VERTEX
  8
0
  6
CONTINUOUS
 10
3.541560
 20
2.754400
  0
VERTEX
  8
0
  6
CONTINUOUS
 10
3.545960
 20
2.754400
  0
SEQEND
  8
0
  0
SOLID
  8
0
 62
    15
 10
3.541560
 20
2.754400
 11
4.191000
 21
2.378200
 12
3.410880
 22
2.744280
 13
4.060320
 23
2.368520
  0
POLYLINE
  8
0
  6
CONTINUOUS
 66
     1
 40
0.000000
 41
0.000000
  0
VERTEX
  8
0
  6
CONTINUOUS
 10
3.541560
 20
2.754400
  0
VERTEX
  8
0
  6
CONTINUOUS
 10
4.191000
 20
2.378200
  0
VERTEX
  8
0
  6
CONTINUOUS
 10
4.060320
 20
2.368520
  0
VERTEX
  8
0
  6
CONTINUOUS
 10
3.410880
 20
2.744280
  0
VERTEX
  8
0
  6
CONTINUOUS
 10
3.541560
 20
2.754400
  0
SEQEND
  8
0
  0
SOLID
  8
0
 62
    15
 10
3.410880
 20
2.744280
 11
4.060320
 21
2.368520
 12
3.284160
 22
2.711720
 13
3.933160
 23
2.335520
  0
POLYLINE
  8
0
  6
CONTINUOUS
 66
     1
 40
0.000000
 41
0.000000
  0
VERTEX
  8
0
  6
CONTINUOUS
 10
3.410880
 20
2.744280
  0
VERTEX
  8
0
  6
CONTINUOUS
 10
4.060320
 20
2.368520
  0
VERTEX
  8
0
  6
CONTINUOUS
 10
3.933160
 20
2.335520
  0
VERTEX
  8
0
  6
CONTINUOUS
 10
3.284160
 20
2.711720
  0
VERTEX
  8
0
  6
CONTINUOUS
 10
3.410880
 20
2.744280
  0
SEQEND
  8
0
  0
SOLID
  8
0
 62
    15
 10
3.284160
 20
2.711720
 11
3.933160
 21
2.335520
 12
3.164920
 22
2.657600
 13
3.814360
 23
2.281400
  0
POLYLINE
  8
0
  6
CONTINUOUS
 66
     1
 40
0.000000
 41
0.000000
  0
VERTEX
  8
0
  6
CONTINUOUS
 10
3.284160
 20
2.711720
  0
VERTEX
  8
0
  6
CONTINUOUS
 10
3.933160
 20
2.335520
  0
VERTEX
  8
0
  6
CONTINUOUS
 10
3.814360
 20
2.281400
  0
VERTEX
  8
0
  6
CONTINUOUS
 10
3.164920
 20
2.657600
  0
VERTEX
  8
0
  6
CONTINUOUS
 10
3.284160
 20
2.711720
  0
SEQEND
  8
0
  0
SOLID
  8
0
 62
    15
 10
3.164920
 20
2.657600
 11
3.814360
 21
2.281400
 12
3.058440
 22
2.585000
 13
3.707440
 23
2.208800
  0
POLYLINE
  8
0
  6
CONTINUOUS
 66
     1
 40
0.000000
 41
0.000000
  0
VERTEX
  8
0
  6
CONTINUOUS
 10
3.164920
 20
2.657600
  0
VERTEX
  8
0
  6
CONTINUOUS
 10
3.814360
 20
2.281400
  0
VERTEX
  8
0
  6
CONTINUOUS
 10
3.707440
 20
2.208800
  0
VERTEX
  8
0
  6
CONTINUOUS
 10
3.058440
 20
2.585000
  0
VERTEX
  8
0
  6
CONTINUOUS
 10
3.164920
 20
2.657600
  0
SEQEND
  8
0
  0
SOLID
  8
0
 62
    15
 10
3.058440
 20
2.585000
 11
3.707440
 21
2.208800
 12
2.968240
 22
2.495240
 13
3.617240
 23
2.119040
  0
POLYLINE
  8
0
  6
CONTINUOUS
 66
     1
 40
0.000000
 41
0.000000
  0
VERTEX
  8
0
  6
CONTINUOUS
 10
3.058440
 20
2.585000
  0
VERTEX
  8
0
  6
CONTINUOUS
 10
3.707440
 20
2.208800
  0
VERTEX
  8
0
  6
CONTINUOUS
 10
3.617240
 20
2.119040
  0
VERTEX
  8
0
  6
CONTINUOUS
 10
2.968240
 20
2.495240
  0
VERTEX
  8
0
  6
CONTINUOUS
 10
3.058440
 20
2.585000
  0
SEQEND
  8
0
  0
SOLID
  8
0
 62
    15
 10
2.968240
 20
2.495240
 11
3.617240
 21
2.119040
 12
2.898280
 22
2.391400
 13
3.547720
 23
2.015200
  0
POLYLINE
  8
0
  6
CONTINUOUS
 66
     1
 40
0.000000
 41
0.000000
  0
VERTEX
  8
0
  6
CONTINUOUS
 10
2.968240
 20
2.495240
  0
VERTEX
  8
0
  6
CONTINUOUS
 10
3.617240
 20
2.119040
  0
VERTEX
  8
0
  6
CONTINUOUS
 10
3.547720
 20
2.015200
  0
VERTEX
  8
0
  6
CONTINUOUS
 10
2.898280
 20
2.391400
  0
VERTEX
  8
0
  6
CONTINUOUS
 10
2.968240
 20
2.495240
  0
SEQEND
  8
0
  0
SOLID
  8
0
 62
    15
 10
3.750120
 20
3.062840
 11
4.399120
 21
2.686640
 12
3.750120
 22
2.827440
 13
4.399120
 23
2.451240
  0
POLYLINE
  8
0
  6
CONTINUOUS
 66
     1
 40
0.000000
 41
0.000000
  0
VERTEX
  8
0
  6
CONTINUOUS
 10
3.750120
 20
3.062840
  0
VERTEX
  8
0
  6
CONTINUOUS
 10
4.399120
 20
2.686640
  0
VERTEX
  8
0
  6
CONTINUOUS
 10
4.399120
 20
2.451240
  0
VERTEX
  8
0
  6
CONTINUOUS
 10
3.750120
 20
2.827440
  0
VERTEX
  8
0
  6
CONTINUOUS
 10
3.750120
 20
3.062840
  0
SEQEND
  8
0
  0
SOLID
  8
0
 62
    15
 10
2.837560
 20
2.150280
 11
3.486560
 21
1.774080
 12
2.660680
 22
2.150280
 13
3.309680
 23
1.774080
  0
POLYLINE
  8
0
  6
CONTINUOUS
 66
     1
 40
0.000000
 41
0.000000
  0
VERTEX
  8
0
  6
CONTINUOUS
 10
2.837560
 20
2.150280
  0
VERTEX
  8
0
  6
CONTINUOUS
 10
3.486560
 20
1.774080
  0
VERTEX
  8
0
  6
CONTINUOUS
 10
3.309680
 20
1.774080
  0
VERTEX
  8
0
  6
CONTINUOUS
 10
2.660680
 20
2.150280
  0
VERTEX
  8
0
  6
CONTINUOUS
 10
2.837560
 20
2.150280
  0
SEQEND
  8
0
  0
SOLID
  8
0
 62
    15
 10
2.853400
 20
2.274800
 11
3.502840
 21
1.898600
 12
2.837560
 22
2.148080
 13
3.486560
 23
1.771880
  0
POLYLINE
  8
0
  6
CONTINUOUS
 66
     1
 40
0.000000
 41
0.000000
  0
VERTEX
  8
0
  6
CONTINUOUS
 10
2.853400
 20
2.274800
  0
VERTEX
  8
0
  6
CONTINUOUS
 10
3.502840
 20
1.898600
  0
VERTEX
  8
0
  6
CONTINUOUS
 10
3.486560
 20
1.771880
  0
VERTEX
  8
0
  6
CONTINUOUS
 10
2.837560
 20
2.148080
  0
VERTEX
  8
0
  6
CONTINUOUS
 10
2.853400
 20
2.274800
  0
SEQEND
  8
0
  0
SOLID
  8
0
 62
    15
 10
2.660680
 20
2.150280
 11
3.309680
 21
1.774080
 12
2.660680
 22
2.096160
 13
3.309680
 23
1.719960
  0
POLYLINE
  8
0
  6
CONTINUOUS
 66
     1
 40
0.000000
 41
0.000000
  0
VERTEX
  8
0
  6
CONTINUOUS
 10
2.660680
 20
2.150280
  0
VERTEX
  8
0
  6
CONTINUOUS
 10
3.309680
 20
1.774080
  0
VERTEX
  8
0
  6
CONTINUOUS
 10
3.309680
 20
1.719960
  0
VERTEX
  8
0
  6
CONTINUOUS
 10
2.660680
 20
2.096160
  0
VERTEX
  8
0
  6
CONTINUOUS
 10
2.660680
 20
2.150280
  0
SEQEND
  8
0
  0
SOLID
  8
0
 62
    15
 10
2.795760
 20
2.096160
 11
3.445200
 21
1.719960
 12
2.795760
 22
1.887600
 13
3.445200
 23
1.511400
  0
POLYLINE
  8
0
  6
CONTINUOUS
 66
     1
 40
0.000000
 41
0.000000
  0
VERTEX
  8
0
  6
CONTINUOUS
 10
2.795760
 20
2.096160
  0
VERTEX
  8
0
  6
CONTINUOUS
 10
3.445200
 20
1.719960
  0
VERTEX
  8
0
  6
CONTINUOUS
 10
3.445200
 20
1.511400
  0
VERTEX
  8
0
  6
CONTINUOUS
 10
2.795760
 20
1.887600
  0
VERTEX
  8
0
  6
CONTINUOUS
 10
2.795760
 20
2.096160
  0
SEQEND
  8
0
  0
SOLID
  8
0
 62
    15
 10
2.795760
 20
1.887600
 11
3.445200
 21
1.511400
 12
2.639560
 22
1.887600
 13
3.289000
 23
1.511400
  0
POLYLINE
  8
0
  6
CONTINUOUS
 66
     1
 40
0.000000
 41
0.000000
  0
VERTEX
  8
0
  6
CONTINUOUS
 10
2.795760
 20
1.887600
  0
VERTEX
  8
0
  6
CONTINUOUS
 10
3.445200
 20
1.511400
  0
VERTEX
  8
0
  6
CONTINUOUS
 10
3.289000
 20
1.511400
  0
VERTEX
  8
0
  6
CONTINUOUS
 10
2.639560
 20
1.887600
  0
VERTEX
  8
0
  6
CONTINUOUS
 10
2.795760
 20
1.887600
  0
SEQEND
  8
0
  0
SOLID
  8
0
 62
    15
 10
2.639560
 20
1.887600
 11
3.289000
 21
1.511400
 12
2.639560
 22
1.752520
 13
3.289000
 23
1.376320
  0
POLYLINE
  8
0
  6
CONTINUOUS
 66
     1
 40
0.000000
 41
0.000000
  0
VERTEX
  8
0
  6
CONTINUOUS
 10
2.639560
 20
1.887600
  0
VERTEX
  8
0
  6
CONTINUOUS
 10
3.289000
 20
1.511400
  0
VERTEX
  8
0
  6
CONTINUOUS
 10
3.289000
 20
1.376320
  0
VERTEX
  8
0
  6
CONTINUOUS
 10
2.639560
 20
1.752520
  0
VERTEX
  8
0
  6
CONTINUOUS
 10
2.639560
 20
1.887600
  0
SEQEND
  8
0
  0
SOLID
  8
0
 62
    15
 10
2.639560
 20
1.752520
 11
3.289000
 21
1.376320
 12
2.483360
 22
1.752520
 13
3.132360
 23
1.376320
  0
POLYLINE
  8
0
  6
CONTINUOUS
 66
     1
 40
0.000000
 41
0.000000
  0
VERTEX
  8
0
  6
CONTINUOUS
 10
2.639560
 20
1.752520
  0
VERTEX
  8
0
  6
CONTINUOUS
 10
3.289000
 20
1.376320
  0
VERTEX
  8
0
  6
CONTINUOUS
 10
3.132360
 20
1.376320
  0
VERTEX
  8
0
  6
CONTINUOUS
 10
2.483360
 20
1.752520
  0
VERTEX
  8
0
  6
CONTINUOUS
 10
2.639560
 20
1.752520
  0
SEQEND
  8
0
  0
SOLID
  8
0
 62
    15
 10
2.483360
 20
1.752520
 11
3.132360
 21
1.376320
 12
2.483360
 22
1.283480
 13
3.132360
 23
0.907280
  0
POLYLINE
  8
0
  6
CONTINUOUS
 66
     1
 40
0.000000
 41
0.000000
  0
VERTEX
  8
0
  6
CONTINUOUS
 10
2.483360
 20
1.752520
  0
VERTEX
  8
0
  6
CONTINUOUS
 10
3.132360
 20
1.376320
  0
VERTEX
  8
0
  6
CONTINUOUS
 10
3.132360
 20
0.907280
  0
VERTEX
  8
0
  6
CONTINUOUS
 10
2.483360
 20
1.283480
  0
VERTEX
  8
0
  6
CONTINUOUS
 10
2.483360
 20
1.752520
  0
SEQEND
  8
0
  0
SOLID
  8
0
 62
    15
 10
2.483360
 20
1.283480
 11
3.132360
 21
0.907280
 12
1.508320
 22
1.283480
 13
2.157760
 23
0.907280
  0
POLYLINE
  8
0
  6
CONTINUOUS
 66
     1
 40
0.000000
 41
0.000000
  0
VERTEX
  8
0
  6
CONTINUOUS
 10
2.483360
 20
1.283480
  0
VERTEX
  8
0
  6
CONTINUOUS
 10
3.132360
 20
0.907280
  0
VERTEX
  8
0
  6
CONTINUOUS
 10
2.157760
 20
0.907280
  0
VERTEX
  8
0
  6
CONTINUOUS
 10
1.508320
 20
1.283480
  0
VERTEX
  8
0
  6
CONTINUOUS
 10
2.483360
 20
1.283480
  0
SEQEND
  8
0
  0
POLYLINE
  8
0
  6
CONTINUOUS
 66
     1
 40
0.000000
 41
0.000000
  0
VERTEX
  8
0
  6
CONTINUOUS
 10
1.508320
 20
3.062840
  0
VERTEX
  8
0
  6
CONTINUOUS
 10
3.750120
 20
3.062840
  0
VERTEX
  8
0
  6
CONTINUOUS
 10
3.750120
 20
2.827440
  0
VERTEX
  8
0
  6
CONTINUOUS
 10
3.545960
 20
2.827440
  0
VERTEX
  8
0
  6
CONTINUOUS
 10
3.545960
 20
2.754400
  0
VERTEX
  8
0
  6
CONTINUOUS
 10
3.541560
 20
2.754400
  0
VERTEX
  8
0
  6
CONTINUOUS
 10
3.410880
 20
2.744280
  0
VERTEX
  8
0
  6
CONTINUOUS
 10
3.284160
 20
2.711720
  0
VERTEX
  8
0
  6
CONTINUOUS
 10
3.164920
 20
2.657600
  0
VERTEX
  8
0
  6
CONTINUOUS
 10
3.058440
 20
2.585000
  0
VERTEX
  8
0
  6
CONTINUOUS
 10
2.968240
 20
2.495240
  0
VERTEX
  8
0
  6
CONTINUOUS
 10
2.898280
 20
2.391400
  0
VERTEX
  8
0
  6
CONTINUOUS
 10
2.853400
 20
2.274800
  0
VERTEX
  8
0
  6
CONTINUOUS
 10
2.837560
 20
2.148080
  0
VERTEX
  8
0
  6
CONTINUOUS
 10
2.837560
 20
2.150280
  0
VERTEX
  8
0
  6
CONTINUOUS
 10
2.660680
 20
2.150280
  0
VERTEX
  8
0
  6
CONTINUOUS
 10
2.660680
 20
2.096160
  0
VERTEX
  8
0
  6
CONTINUOUS
 10
2.795760
 20
2.096160
  0
VERTEX
  8
0
  6
CONTINUOUS
 10
2.795760
 20
1.887600
  0
VERTEX
  8
0
  6
CONTINUOUS
 10
2.639560
 20
1.887600
  0
VERTEX
  8
0
  6
CONTINUOUS
 10
2.639560
 20
1.752520
  0
VERTEX
  8
0
  6
CONTINUOUS
 10
2.483360
 20
1.752520
  0
VERTEX
  8
0
  6
CONTINUOUS
 10
2.483360
 20
1.283480
  0
VERTEX
  8
0
  6
CONTINUOUS
 10
1.508320
 20
1.283480
  0
VERTEX
  8
0
  6
CONTINUOUS
 10
1.508320
 20
3.056680
  0
VERTEX
  8
0
  6
CONTINUOUS
 10
1.508320
 20
3.062840
  0
SEQEND
  8
0
  0
TEXT
  8
0
 10
3.676200
 20
1.110560
 40
0.138132
  1
BA  682
 41
1.000000
  7
SN0
 71
     0
 72
     5
 11
4.266053
 21
1.110560
  0
TEXT
  8
0
 10
3.354560
 20
0.919160
 40
0.138132
  1
1-13/16" x 2-1/4"
 41
1.000000
  7
SN0
 71
     0
 72
     5
 11
4.586641
 21
0.919160
  0
ENDSEC
  0
EOF
