  0
SECTION
  2
HEADER
  9
$ACADVER
  1
AC1006
  9
$EXTMIN
 10
5.327080
 20
0.636240
  9
$EXTMAX
 10
7.109520
 20
2.329360
  9
$LTSCALE
 40
0.044000
  9
$PDMODE
 70
    35
  9
$PDSIZE
 40
0.035200
  0
ENDSEC
  0
SECTION
  2
TABLES
  0
TABLE
  2
LTYPE
 70
     9
  0
LTYPE
  2
CONTINUOUS
 70
    64
  3
Solid line
 72
    65
 73
     0
 40
0.000000
  0
LTYPE
  2
DASHED
 70
    64
  3
__ __ __ __ __ __ __ __ __ __ __ __ __ __ __
 72
    65
 73
     2
 40
0.000330
 49
0.000220
 49
-0.000110
  0
LTYPE
  2
HIDDEN
 70
    64
  3
 _ _ _ _ _ _ _ _ _ _ _ _ _ _ _ _ _ _ _ _ _ _
 72
    65
 73
     2
 40
0.000165
 49
0.000110
 49
-0.000055
  0
LTYPE
  2
CENTER
 70
    64
  3
____ _ ____ _ ____ _ ____ _ ____ _ ____ _ ____
 72
    65
 73
     4
 40
0.000880
 49
0.000550
 49
-0.000110
 49
0.000110
 49
-0.000110
  0
LTYPE
  2
PHANTOM
 70
    64
  3
_____ _ _ _____ _ _ _____ _ _ _____ _ _ ____
 72
    65
 73
     6
 40
0.001100
 49
0.000550
 49
-0.000110
 49
0.000110
 49
-0.000110
 49
0.000110
 49
-0.000110
  0
LTYPE
  2
DOT
 70
    64
  3
...............................................
 72
    65
 73
     2
 40
0.000110
 49
0.000000
 49
-0.000110
  0
LTYPE
  2
DASHDOT
 70
    64
  3
__ . __ . __ . __ . __ . __ . __ . __ . __ . __
 72
    65
 73
     4
 40
0.000440
 49
0.000220
 49
-0.000110
 49
0.000000
 49
-0.000110
  0
LTYPE
  2
BORDER
 70
    64
  3
__ __ . __ __ . __ __ . __ __ . __ __ . __ __
 72
    65
 73
     6
 40
0.000770
 49
0.000220
 49
-0.000110
 49
0.000220
 49
-0.000110
 49
0.000000
 49
-0.000110
  0
LTYPE
  2
DIVIDE
 70
    64
  3
__ . . __ . . __ . . __ . . __ . . __ . . __
 72
    65
 73
     6
 40
0.000550
 49
0.000220
 49
-0.000110
 49
0.000000
 49
-0.000110
 49
0.000000
 49
-0.000110
  0
LTYPE
  2
DOTDOT
 70
    64
  3
 . .  . .  . .  . .  . .  . . 
 72
    65
 73
     5
 40
0.000242
 49
-0.000110
 49
0.000000
 49
-0.000110
 49
0.000000
 49
-0.000110
  0
ENDTAB
  0
TABLE
  2
STYLE
 70
     2
  0
STYLE
 70
     0
  2
SN0
 40
0.000000
 41
0.000440
 50
0.000000
 71
     0
 42
0.000000
  3
ROMAND
  0
STYLE
 70
    68
  2
SV0
 40
0.000000
 41
0.000440
 50
0.000000
 71
     0
 42
0.000000
  3
ROMAND
  0
ENDTAB
  0
TABLE
  2
LAYER
 70
     3
  0
LAYER
  2
FOREGROUND
 70
    64
 62
     7
  6
CONTINUOUS
  0
LAYER
  2
BACKGROUND
 70
    65
 62
    -7
  6
CONTINUOUS
  0
LAYER
  2
0
 70
    64
 62
     7
  6
CONTINUOUS
  0
ENDTAB
  0
ENDSEC
  0
SECTION
  2
ENTITIES
  0
POLYLINE
  8
FOREGROUND
  6
CONTINUOUS
 66
     1
 40
0.000000
 41
0.000000
  0
VERTEX
  8
FOREGROUND
  6
CONTINUOUS
 10
0.000000
 20
2.965600
  0
VERTEX
  8
FOREGROUND
  6
CONTINUOUS
 10
8.499920
 20
2.965600
  0
VERTEX
  8
FOREGROUND
  6
CONTINUOUS
 10
8.499920
 20
-8.034400
  0
VERTEX
  8
FOREGROUND
  6
CONTINUOUS
 10
0.000000
 20
-8.034400
  0
VERTEX
  8
FOREGROUND
  6
CONTINUOUS
 10
0.000000
 20
2.965600
  0
SEQEND
  8
0
  0
POLYLINE
  8
FOREGROUND
  6
CONTINUOUS
 66
     1
 40
0.000000
 41
0.000000
  0
VERTEX
  8
FOREGROUND
  6
CONTINUOUS
 10
0.000000
 20
2.965600
  0
VERTEX
  8
FOREGROUND
  6
CONTINUOUS
 10
8.499920
 20
2.965600
  0
VERTEX
  8
FOREGROUND
  6
CONTINUOUS
 10
8.499920
 20
-8.034400
  0
VERTEX
  8
FOREGROUND
  6
CONTINUOUS
 10
0.000000
 20
-8.034400
  0
VERTEX
  8
FOREGROUND
  6
CONTINUOUS
 10
0.000000
 20
2.965600
  0
SEQEND
  8
0
  0
POLYLINE
  8
0
  6
CONTINUOUS
 66
     1
 40
0.014080
 41
0.014080
  0
VERTEX
  8
0
  6
CONTINUOUS
 10
6.994680
 20
1.321320
  0
VERTEX
  8
0
  6
CONTINUOUS
 10
7.021080
 20
1.338480
  0
VERTEX
  8
0
  6
CONTINUOUS
 10
7.053640
 20
1.367080
  0
VERTEX
  8
0
  6
CONTINUOUS
 10
7.077840
 20
1.398320
  0
VERTEX
  8
0
  6
CONTINUOUS
 10
7.089280
 20
1.420760
  0
VERTEX
  8
0
  6
CONTINUOUS
 10
7.097200
 20
1.443640
  0
VERTEX
  8
0
  6
CONTINUOUS
 10
7.101600
 20
1.467400
  0
VERTEX
  8
0
  6
CONTINUOUS
 10
7.102480
 20
1.491160
  0
VERTEX
  8
0
  6
CONTINUOUS
 10
7.099400
 20
1.515360
  0
VERTEX
  8
0
  6
CONTINUOUS
 10
7.088400
 20
1.551440
  0
VERTEX
  8
0
  6
CONTINUOUS
 10
7.076520
 20
1.575200
  0
VERTEX
  8
0
  6
CONTINUOUS
 10
7.051880
 20
1.609960
  0
VERTEX
  8
0
  6
CONTINUOUS
 10
7.031200
 20
1.632400
  0
VERTEX
  8
0
  6
CONTINUOUS
 10
6.993360
 20
1.663640
  0
VERTEX
  8
0
  6
CONTINUOUS
 10
6.937040
 20
1.703240
  0
VERTEX
  8
0
  6
CONTINUOUS
 10
6.900080
 20
1.735360
  0
VERTEX
  8
0
  6
CONTINUOUS
 10
6.878520
 20
1.757800
  0
VERTEX
  8
0
  6
CONTINUOUS
 10
6.858720
 20
1.781560
  0
VERTEX
  8
0
  6
CONTINUOUS
 10
6.841120
 20
1.806640
  0
VERTEX
  8
0
  6
CONTINUOUS
 10
6.825720
 20
1.832600
  0
VERTEX
  8
0
  6
CONTINUOUS
 10
6.812080
 20
1.859880
  0
VERTEX
  8
0
  6
CONTINUOUS
 10
6.800200
 20
1.888920
  0
VERTEX
  8
0
  6
CONTINUOUS
 10
6.790080
 20
1.918840
  0
VERTEX
  8
0
  6
CONTINUOUS
 10
6.781720
 20
1.950520
  0
VERTEX
  8
0
  6
CONTINUOUS
 10
6.775120
 20
1.983520
  0
VERTEX
  8
0
  6
CONTINUOUS
 10
6.769840
 20
2.018280
  0
VERTEX
  8
0
  6
CONTINUOUS
 10
6.766320
 20
2.054800
  0
VERTEX
  8
0
  6
CONTINUOUS
 10
6.763680
 20
2.132680
  0
VERTEX
  8
0
  6
CONTINUOUS
 10
6.631240
 20
2.132680
  0
VERTEX
  8
0
  6
CONTINUOUS
 10
6.631240
 20
1.262800
  0
VERTEX
  8
0
  6
CONTINUOUS
 10
6.992920
 20
1.262800
  0
VERTEX
  8
0
  6
CONTINUOUS
 10
6.992920
 20
1.321320
  0
SEQEND
  8
0
  0
SOLID
  8
0
 62
    15
 10
5.646520
 20
1.522400
 11
6.288920
 21
1.888920
 12
5.675120
 22
1.502600
 13
6.317520
 23
1.869120
  0
POLYLINE
  8
0
  6
CONTINUOUS
 66
     1
 40
0.000000
 41
0.000000
  0
VERTEX
  8
0
  6
CONTINUOUS
 10
5.646520
 20
1.522400
  0
VERTEX
  8
0
  6
CONTINUOUS
 10
6.288920
 20
1.888920
  0
VERTEX
  8
0
  6
CONTINUOUS
 10
6.317520
 20
1.869120
  0
VERTEX
  8
0
  6
CONTINUOUS
 10
5.675120
 20
1.502600
  0
VERTEX
  8
0
  6
CONTINUOUS
 10
5.646520
 20
1.522400
  0
SEQEND
  8
0
  0
SOLID
  8
0
 62
    15
 10
5.327520
 20
1.961960
 11
5.969920
 21
2.328480
 12
5.460400
 22
1.961960
 13
6.102800
 23
2.328480
  0
POLYLINE
  8
0
  6
CONTINUOUS
 66
     1
 40
0.000000
 41
0.000000
  0
VERTEX
  8
0
  6
CONTINUOUS
 10
5.327520
 20
1.961960
  0
VERTEX
  8
0
  6
CONTINUOUS
 10
5.969920
 20
2.328480
  0
VERTEX
  8
0
  6
CONTINUOUS
 10
6.102800
 20
2.328480
  0
VERTEX
  8
0
  6
CONTINUOUS
 10
5.460400
 20
1.961960
  0
VERTEX
  8
0
  6
CONTINUOUS
 10
5.327520
 20
1.961960
  0
SEQEND
  8
0
  0
SOLID
  8
0
 62
    15
 10
5.460400
 20
1.961960
 11
6.102800
 21
2.328480
 12
5.460840
 22
1.922360
 13
6.103240
 23
2.288880
  0
POLYLINE
  8
0
  6
CONTINUOUS
 66
     1
 40
0.000000
 41
0.000000
  0
VERTEX
  8
0
  6
CONTINUOUS
 10
5.460400
 20
1.961960
  0
VERTEX
  8
0
  6
CONTINUOUS
 10
6.102800
 20
2.328480
  0
VERTEX
  8
0
  6
CONTINUOUS
 10
6.103240
 20
2.288880
  0
VERTEX
  8
0
  6
CONTINUOUS
 10
5.460840
 20
1.922360
  0
VERTEX
  8
0
  6
CONTINUOUS
 10
5.460400
 20
1.961960
  0
SEQEND
  8
0
  0
SOLID
  8
0
 62
    15
 10
5.460840
 20
1.922360
 11
6.103240
 21
2.288880
 12
5.463040
 22
1.884080
 13
6.105440
 23
2.250600
  0
POLYLINE
  8
0
  6
CONTINUOUS
 66
     1
 40
0.000000
 41
0.000000
  0
VERTEX
  8
0
  6
CONTINUOUS
 10
5.460840
 20
1.922360
  0
VERTEX
  8
0
  6
CONTINUOUS
 10
6.103240
 20
2.288880
  0
VERTEX
  8
0
  6
CONTINUOUS
 10
6.105440
 20
2.250600
  0
VERTEX
  8
0
  6
CONTINUOUS
 10
5.463040
 20
1.884080
  0
VERTEX
  8
0
  6
CONTINUOUS
 10
5.460840
 20
1.922360
  0
SEQEND
  8
0
  0
SOLID
  8
0
 62
    15
 10
5.463040
 20
1.884080
 11
6.105440
 21
2.250600
 12
5.466560
 22
1.847560
 13
6.108960
 23
2.214080
  0
POLYLINE
  8
0
  6
CONTINUOUS
 66
     1
 40
0.000000
 41
0.000000
  0
VERTEX
  8
0
  6
CONTINUOUS
 10
5.463040
 20
1.884080
  0
VERTEX
  8
0
  6
CONTINUOUS
 10
6.105440
 20
2.250600
  0
VERTEX
  8
0
  6
CONTINUOUS
 10
6.108960
 20
2.214080
  0
VERTEX
  8
0
  6
CONTINUOUS
 10
5.466560
 20
1.847560
  0
VERTEX
  8
0
  6
CONTINUOUS
 10
5.463040
 20
1.884080
  0
SEQEND
  8
0
  0
SOLID
  8
0
 62
    15
 10
5.466560
 20
1.847560
 11
6.108960
 21
2.214080
 12
5.471400
 22
1.812800
 13
6.113800
 23
2.179320
  0
POLYLINE
  8
0
  6
CONTINUOUS
 66
     1
 40
0.000000
 41
0.000000
  0
VERTEX
  8
0
  6
CONTINUOUS
 10
5.466560
 20
1.847560
  0
VERTEX
  8
0
  6
CONTINUOUS
 10
6.108960
 20
2.214080
  0
VERTEX
  8
0
  6
CONTINUOUS
 10
6.113800
 20
2.179320
  0
VERTEX
  8
0
  6
CONTINUOUS
 10
5.471400
 20
1.812800
  0
VERTEX
  8
0
  6
CONTINUOUS
 10
5.466560
 20
1.847560
  0
SEQEND
  8
0
  0
SOLID
  8
0
 62
    15
 10
5.471400
 20
1.812800
 11
6.113800
 21
2.179320
 12
5.478000
 22
1.779800
 13
6.120400
 23
2.146320
  0
POLYLINE
  8
0
  6
CONTINUOUS
 66
     1
 40
0.000000
 41
0.000000
  0
VERTEX
  8
0
  6
CONTINUOUS
 10
5.471400
 20
1.812800
  0
VERTEX
  8
0
  6
CONTINUOUS
 10
6.113800
 20
2.179320
  0
VERTEX
  8
0
  6
CONTINUOUS
 10
6.120400
 20
2.146320
  0
VERTEX
  8
0
  6
CONTINUOUS
 10
5.478000
 20
1.779800
  0
VERTEX
  8
0
  6
CONTINUOUS
 10
5.471400
 20
1.812800
  0
SEQEND
  8
0
  0
SOLID
  8
0
 62
    15
 10
5.478000
 20
1.779800
 11
6.120400
 21
2.146320
 12
5.486360
 22
1.748120
 13
6.128760
 23
2.114640
  0
POLYLINE
  8
0
  6
CONTINUOUS
 66
     1
 40
0.000000
 41
0.000000
  0
VERTEX
  8
0
  6
CONTINUOUS
 10
5.478000
 20
1.779800
  0
VERTEX
  8
0
  6
CONTINUOUS
 10
6.120400
 20
2.146320
  0
VERTEX
  8
0
  6
CONTINUOUS
 10
6.128760
 20
2.114640
  0
VERTEX
  8
0
  6
CONTINUOUS
 10
5.486360
 20
1.748120
  0
VERTEX
  8
0
  6
CONTINUOUS
 10
5.478000
 20
1.779800
  0
SEQEND
  8
0
  0
SOLID
  8
0
 62
    15
 10
5.486360
 20
1.748120
 11
6.128760
 21
2.114640
 12
5.496480
 22
1.718200
 13
6.138880
 23
2.084720
  0
POLYLINE
  8
0
  6
CONTINUOUS
 66
     1
 40
0.000000
 41
0.000000
  0
VERTEX
  8
0
  6
CONTINUOUS
 10
5.486360
 20
1.748120
  0
VERTEX
  8
0
  6
CONTINUOUS
 10
6.128760
 20
2.114640
  0
VERTEX
  8
0
  6
CONTINUOUS
 10
6.138880
 20
2.084720
  0
VERTEX
  8
0
  6
CONTINUOUS
 10
5.496480
 20
1.718200
  0
VERTEX
  8
0
  6
CONTINUOUS
 10
5.486360
 20
1.748120
  0
SEQEND
  8
0
  0
SOLID
  8
0
 62
    15
 10
5.496480
 20
1.718200
 11
6.138880
 21
2.084720
 12
5.508360
 22
1.689160
 13
6.150760
 23
2.056120
  0
POLYLINE
  8
0
  6
CONTINUOUS
 66
     1
 40
0.000000
 41
0.000000
  0
VERTEX
  8
0
  6
CONTINUOUS
 10
5.496480
 20
1.718200
  0
VERTEX
  8
0
  6
CONTINUOUS
 10
6.138880
 20
2.084720
  0
VERTEX
  8
0
  6
CONTINUOUS
 10
6.150760
 20
2.056120
  0
VERTEX
  8
0
  6
CONTINUOUS
 10
5.508360
 20
1.689160
  0
VERTEX
  8
0
  6
CONTINUOUS
 10
5.496480
 20
1.718200
  0
SEQEND
  8
0
  0
SOLID
  8
0
 62
    15
 10
5.508360
 20
1.689160
 11
6.150760
 21
2.056120
 12
5.522000
 22
1.661880
 13
6.164400
 23
2.028400
  0
POLYLINE
  8
0
  6
CONTINUOUS
 66
     1
 40
0.000000
 41
0.000000
  0
VERTEX
  8
0
  6
CONTINUOUS
 10
5.508360
 20
1.689160
  0
VERTEX
  8
0
  6
CONTINUOUS
 10
6.150760
 20
2.056120
  0
VERTEX
  8
0
  6
CONTINUOUS
 10
6.164400
 20
2.028400
  0
VERTEX
  8
0
  6
CONTINUOUS
 10
5.522000
 20
1.661880
  0
VERTEX
  8
0
  6
CONTINUOUS
 10
5.508360
 20
1.689160
  0
SEQEND
  8
0
  0
SOLID
  8
0
 62
    15
 10
5.522000
 20
1.661880
 11
6.164400
 21
2.028400
 12
5.537840
 22
1.635920
 13
6.180240
 23
2.002440
  0
POLYLINE
  8
0
  6
CONTINUOUS
 66
     1
 40
0.000000
 41
0.000000
  0
VERTEX
  8
0
  6
CONTINUOUS
 10
5.522000
 20
1.661880
  0
VERTEX
  8
0
  6
CONTINUOUS
 10
6.164400
 20
2.028400
  0
VERTEX
  8
0
  6
CONTINUOUS
 10
6.180240
 20
2.002440
  0
VERTEX
  8
0
  6
CONTINUOUS
 10
5.537840
 20
1.635920
  0
VERTEX
  8
0
  6
CONTINUOUS
 10
5.522000
 20
1.661880
  0
SEQEND
  8
0
  0
SOLID
  8
0
 62
    15
 10
5.537840
 20
1.635920
 11
6.180240
 21
2.002440
 12
5.555000
 22
1.610840
 13
6.197400
 23
1.977360
  0
POLYLINE
  8
0
  6
CONTINUOUS
 66
     1
 40
0.000000
 41
0.000000
  0
VERTEX
  8
0
  6
CONTINUOUS
 10
5.537840
 20
1.635920
  0
VERTEX
  8
0
  6
CONTINUOUS
 10
6.180240
 20
2.002440
  0
VERTEX
  8
0
  6
CONTINUOUS
 10
6.197400
 20
1.977360
  0
VERTEX
  8
0
  6
CONTINUOUS
 10
5.555000
 20
1.610840
  0
VERTEX
  8
0
  6
CONTINUOUS
 10
5.537840
 20
1.635920
  0
SEQEND
  8
0
  0
SOLID
  8
0
 62
    15
 10
5.555000
 20
1.610840
 11
6.197400
 21
1.977360
 12
5.574800
 22
1.587080
 13
6.217200
 23
1.954040
  0
POLYLINE
  8
0
  6
CONTINUOUS
 66
     1
 40
0.000000
 41
0.000000
  0
VERTEX
  8
0
  6
CONTINUOUS
 10
5.555000
 20
1.610840
  0
VERTEX
  8
0
  6
CONTINUOUS
 10
6.197400
 20
1.977360
  0
VERTEX
  8
0
  6
CONTINUOUS
 10
6.217200
 20
1.954040
  0
VERTEX
  8
0
  6
CONTINUOUS
 10
5.574800
 20
1.587080
  0
VERTEX
  8
0
  6
CONTINUOUS
 10
5.555000
 20
1.610840
  0
SEQEND
  8
0
  0
SOLID
  8
0
 62
    15
 10
5.574800
 20
1.587080
 11
6.217200
 21
1.954040
 12
5.596360
 22
1.564640
 13
6.238760
 23
1.931160
  0
POLYLINE
  8
0
  6
CONTINUOUS
 66
     1
 40
0.000000
 41
0.000000
  0
VERTEX
  8
0
  6
CONTINUOUS
 10
5.574800
 20
1.587080
  0
VERTEX
  8
0
  6
CONTINUOUS
 10
6.217200
 20
1.954040
  0
VERTEX
  8
0
  6
CONTINUOUS
 10
6.238760
 20
1.931160
  0
VERTEX
  8
0
  6
CONTINUOUS
 10
5.596360
 20
1.564640
  0
VERTEX
  8
0
  6
CONTINUOUS
 10
5.574800
 20
1.587080
  0
SEQEND
  8
0
  0
SOLID
  8
0
 62
    15
 10
5.596360
 20
1.564640
 11
6.238760
 21
1.931160
 12
5.620560
 22
1.543080
 13
6.262960
 23
1.909600
  0
POLYLINE
  8
0
  6
CONTINUOUS
 66
     1
 40
0.000000
 41
0.000000
  0
VERTEX
  8
0
  6
CONTINUOUS
 10
5.596360
 20
1.564640
  0
VERTEX
  8
0
  6
CONTINUOUS
 10
6.238760
 20
1.931160
  0
VERTEX
  8
0
  6
CONTINUOUS
 10
6.262960
 20
1.909600
  0
VERTEX
  8
0
  6
CONTINUOUS
 10
5.620560
 20
1.543080
  0
VERTEX
  8
0
  6
CONTINUOUS
 10
5.596360
 20
1.564640
  0
SEQEND
  8
0
  0
SOLID
  8
0
 62
    15
 10
5.620560
 20
1.543080
 11
6.262960
 21
1.909600
 12
5.646520
 22
1.522400
 13
6.288920
 23
1.888920
  0
POLYLINE
  8
0
  6
CONTINUOUS
 66
     1
 40
0.000000
 41
0.000000
  0
VERTEX
  8
0
  6
CONTINUOUS
 10
5.620560
 20
1.543080
  0
VERTEX
  8
0
  6
CONTINUOUS
 10
6.262960
 20
1.909600
  0
VERTEX
  8
0
  6
CONTINUOUS
 10
6.288920
 20
1.888920
  0
VERTEX
  8
0
  6
CONTINUOUS
 10
5.646520
 20
1.522400
  0
VERTEX
  8
0
  6
CONTINUOUS
 10
5.620560
 20
1.543080
  0
SEQEND
  8
0
  0
SOLID
  8
0
 62
    15
 10
5.689640
 20
1.150600
 11
6.332040
 21
1.517120
 12
5.689640
 22
1.092080
 13
6.332040
 23
1.458600
  0
POLYLINE
  8
0
  6
CONTINUOUS
 66
     1
 40
0.000000
 41
0.000000
  0
VERTEX
  8
0
  6
CONTINUOUS
 10
5.689640
 20
1.150600
  0
VERTEX
  8
0
  6
CONTINUOUS
 10
6.332040
 20
1.517120
  0
VERTEX
  8
0
  6
CONTINUOUS
 10
6.332040
 20
1.458600
  0
VERTEX
  8
0
  6
CONTINUOUS
 10
5.689640
 20
1.092080
  0
VERTEX
  8
0
  6
CONTINUOUS
 10
5.689640
 20
1.150600
  0
SEQEND
  8
0
  0
SOLID
  8
0
 62
    15
 10
5.675120
 20
1.502600
 11
6.317520
 21
1.869120
 12
5.703280
 22
1.482800
 13
6.345680
 23
1.849320
  0
POLYLINE
  8
0
  6
CONTINUOUS
 66
     1
 40
0.000000
 41
0.000000
  0
VERTEX
  8
0
  6
CONTINUOUS
 10
5.675120
 20
1.502600
  0
VERTEX
  8
0
  6
CONTINUOUS
 10
6.317520
 20
1.869120
  0
VERTEX
  8
0
  6
CONTINUOUS
 10
6.345680
 20
1.849320
  0
VERTEX
  8
0
  6
CONTINUOUS
 10
5.703280
 20
1.482800
  0
VERTEX
  8
0
  6
CONTINUOUS
 10
5.675120
 20
1.502600
  0
SEQEND
  8
0
  0
SOLID
  8
0
 62
    15
 10
5.703280
 20
1.482800
 11
6.345680
 21
1.849320
 12
5.727480
 22
1.461680
 13
6.369880
 23
1.828200
  0
POLYLINE
  8
0
  6
CONTINUOUS
 66
     1
 40
0.000000
 41
0.000000
  0
VERTEX
  8
0
  6
CONTINUOUS
 10
5.703280
 20
1.482800
  0
VERTEX
  8
0
  6
CONTINUOUS
 10
6.345680
 20
1.849320
  0
VERTEX
  8
0
  6
CONTINUOUS
 10
6.369880
 20
1.828200
  0
VERTEX
  8
0
  6
CONTINUOUS
 10
5.727480
 20
1.461680
  0
VERTEX
  8
0
  6
CONTINUOUS
 10
5.703280
 20
1.482800
  0
SEQEND
  8
0
  0
SOLID
  8
0
 62
    15
 10
5.727480
 20
1.461680
 11
6.369880
 21
1.828200
 12
5.748160
 22
1.439240
 13
6.390560
 23
1.805760
  0
POLYLINE
  8
0
  6
CONTINUOUS
 66
     1
 40
0.000000
 41
0.000000
  0
VERTEX
  8
0
  6
CONTINUOUS
 10
5.727480
 20
1.461680
  0
VERTEX
  8
0
  6
CONTINUOUS
 10
6.369880
 20
1.828200
  0
VERTEX
  8
0
  6
CONTINUOUS
 10
6.390560
 20
1.805760
  0
VERTEX
  8
0
  6
CONTINUOUS
 10
5.748160
 20
1.439240
  0
VERTEX
  8
0
  6
CONTINUOUS
 10
5.727480
 20
1.461680
  0
SEQEND
  8
0
  0
SOLID
  8
0
 62
    15
 10
5.748160
 20
1.439240
 11
6.390560
 21
1.805760
 12
5.765760
 22
1.416360
 13
6.408160
 23
1.782880
  0
POLYLINE
  8
0
  6
CONTINUOUS
 66
     1
 40
0.000000
 41
0.000000
  0
VERTEX
  8
0
  6
CONTINUOUS
 10
5.748160
 20
1.439240
  0
VERTEX
  8
0
  6
CONTINUOUS
 10
6.390560
 20
1.805760
  0
VERTEX
  8
0
  6
CONTINUOUS
 10
6.408160
 20
1.782880
  0
VERTEX
  8
0
  6
CONTINUOUS
 10
5.765760
 20
1.416360
  0
VERTEX
  8
0
  6
CONTINUOUS
 10
5.748160
 20
1.439240
  0
SEQEND
  8
0
  0
SOLID
  8
0
 62
    15
 10
5.765760
 20
1.416360
 11
6.408160
 21
1.782880
 12
5.779400
 22
1.393040
 13
6.421800
 23
1.759560
  0
POLYLINE
  8
0
  6
CONTINUOUS
 66
     1
 40
0.000000
 41
0.000000
  0
VERTEX
  8
0
  6
CONTINUOUS
 10
5.765760
 20
1.416360
  0
VERTEX
  8
0
  6
CONTINUOUS
 10
6.408160
 20
1.782880
  0
VERTEX
  8
0
  6
CONTINUOUS
 10
6.421800
 20
1.759560
  0
VERTEX
  8
0
  6
CONTINUOUS
 10
5.779400
 20
1.393040
  0
VERTEX
  8
0
  6
CONTINUOUS
 10
5.765760
 20
1.416360
  0
SEQEND
  8
0
  0
SOLID
  8
0
 62
    15
 10
5.779400
 20
1.393040
 11
6.421800
 21
1.759560
 12
5.789520
 22
1.368840
 13
6.431920
 23
1.735360
  0
POLYLINE
  8
0
  6
CONTINUOUS
 66
     1
 40
0.000000
 41
0.000000
  0
VERTEX
  8
0
  6
CONTINUOUS
 10
5.779400
 20
1.393040
  0
VERTEX
  8
0
  6
CONTINUOUS
 10
6.421800
 20
1.759560
  0
VERTEX
  8
0
  6
CONTINUOUS
 10
6.431920
 20
1.735360
  0
VERTEX
  8
0
  6
CONTINUOUS
 10
5.789520
 20
1.368840
  0
VERTEX
  8
0
  6
CONTINUOUS
 10
5.779400
 20
1.393040
  0
SEQEND
  8
0
  0
SOLID
  8
0
 62
    15
 10
5.789520
 20
1.368840
 11
6.431920
 21
1.735360
 12
5.796120
 22
1.344640
 13
6.438520
 23
1.711160
  0
POLYLINE
  8
0
  6
CONTINUOUS
 66
     1
 40
0.000000
 41
0.000000
  0
VERTEX
  8
0
  6
CONTINUOUS
 10
5.789520
 20
1.368840
  0
VERTEX
  8
0
  6
CONTINUOUS
 10
6.431920
 20
1.735360
  0
VERTEX
  8
0
  6
CONTINUOUS
 10
6.438520
 20
1.711160
  0
VERTEX
  8
0
  6
CONTINUOUS
 10
5.796120
 20
1.344640
  0
VERTEX
  8
0
  6
CONTINUOUS
 10
5.789520
 20
1.368840
  0
SEQEND
  8
0
  0
SOLID
  8
0
 62
    15
 10
5.796120
 20
1.344640
 11
6.438520
 21
1.711160
 12
5.798760
 22
1.320440
 13
6.441160
 23
1.686960
  0
POLYLINE
  8
0
  6
CONTINUOUS
 66
     1
 40
0.000000
 41
0.000000
  0
VERTEX
  8
0
  6
CONTINUOUS
 10
5.796120
 20
1.344640
  0
VERTEX
  8
0
  6
CONTINUOUS
 10
6.438520
 20
1.711160
  0
VERTEX
  8
0
  6
CONTINUOUS
 10
6.441160
 20
1.686960
  0
VERTEX
  8
0
  6
CONTINUOUS
 10
5.798760
 20
1.320440
  0
VERTEX
  8
0
  6
CONTINUOUS
 10
5.796120
 20
1.344640
  0
SEQEND
  8
0
  0
SOLID
  8
0
 62
    15
 10
5.798760
 20
1.320440
 11
6.441160
 21
1.686960
 12
5.798320
 22
1.296680
 13
6.440720
 23
1.663200
  0
POLYLINE
  8
0
  6
CONTINUOUS
 66
     1
 40
0.000000
 41
0.000000
  0
VERTEX
  8
0
  6
CONTINUOUS
 10
5.798760
 20
1.320440
  0
VERTEX
  8
0
  6
CONTINUOUS
 10
6.441160
 20
1.686960
  0
VERTEX
  8
0
  6
CONTINUOUS
 10
6.440720
 20
1.663200
  0
VERTEX
  8
0
  6
CONTINUOUS
 10
5.798320
 20
1.296680
  0
VERTEX
  8
0
  6
CONTINUOUS
 10
5.798760
 20
1.320440
  0
SEQEND
  8
0
  0
SOLID
  8
0
 62
    15
 10
5.798320
 20
1.296680
 11
6.440720
 21
1.663200
 12
5.793920
 22
1.272920
 13
6.436320
 23
1.639440
  0
POLYLINE
  8
0
  6
CONTINUOUS
 66
     1
 40
0.000000
 41
0.000000
  0
VERTEX
  8
0
  6
CONTINUOUS
 10
5.798320
 20
1.296680
  0
VERTEX
  8
0
  6
CONTINUOUS
 10
6.440720
 20
1.663200
  0
VERTEX
  8
0
  6
CONTINUOUS
 10
6.436320
 20
1.639440
  0
VERTEX
  8
0
  6
CONTINUOUS
 10
5.793920
 20
1.272920
  0
VERTEX
  8
0
  6
CONTINUOUS
 10
5.798320
 20
1.296680
  0
SEQEND
  8
0
  0
SOLID
  8
0
 62
    15
 10
5.793920
 20
1.272920
 11
6.436320
 21
1.639440
 12
5.786000
 22
1.250040
 13
6.428400
 23
1.616560
  0
POLYLINE
  8
0
  6
CONTINUOUS
 66
     1
 40
0.000000
 41
0.000000
  0
VERTEX
  8
0
  6
CONTINUOUS
 10
5.793920
 20
1.272920
  0
VERTEX
  8
0
  6
CONTINUOUS
 10
6.436320
 20
1.639440
  0
VERTEX
  8
0
  6
CONTINUOUS
 10
6.428400
 20
1.616560
  0
VERTEX
  8
0
  6
CONTINUOUS
 10
5.786000
 20
1.250040
  0
VERTEX
  8
0
  6
CONTINUOUS
 10
5.793920
 20
1.272920
  0
SEQEND
  8
0
  0
SOLID
  8
0
 62
    15
 10
5.786000
 20
1.250040
 11
6.428400
 21
1.616560
 12
5.774120
 22
1.227600
 13
6.416520
 23
1.594120
  0
POLYLINE
  8
0
  6
CONTINUOUS
 66
     1
 40
0.000000
 41
0.000000
  0
VERTEX
  8
0
  6
CONTINUOUS
 10
5.786000
 20
1.250040
  0
VERTEX
  8
0
  6
CONTINUOUS
 10
6.428400
 20
1.616560
  0
VERTEX
  8
0
  6
CONTINUOUS
 10
6.416520
 20
1.594120
  0
VERTEX
  8
0
  6
CONTINUOUS
 10
5.774120
 20
1.227600
  0
VERTEX
  8
0
  6
CONTINUOUS
 10
5.786000
 20
1.250040
  0
SEQEND
  8
0
  0
SOLID
  8
0
 62
    15
 10
5.774120
 20
1.227600
 11
6.416520
 21
1.594120
 12
5.759160
 22
1.206480
 13
6.401560
 23
1.573000
  0
POLYLINE
  8
0
  6
CONTINUOUS
 66
     1
 40
0.000000
 41
0.000000
  0
VERTEX
  8
0
  6
CONTINUOUS
 10
5.774120
 20
1.227600
  0
VERTEX
  8
0
  6
CONTINUOUS
 10
6.416520
 20
1.594120
  0
VERTEX
  8
0
  6
CONTINUOUS
 10
6.401560
 20
1.573000
  0
VERTEX
  8
0
  6
CONTINUOUS
 10
5.759160
 20
1.206480
  0
VERTEX
  8
0
  6
CONTINUOUS
 10
5.774120
 20
1.227600
  0
SEQEND
  8
0
  0
SOLID
  8
0
 62
    15
 10
5.759160
 20
1.206480
 11
6.401560
 21
1.573000
 12
5.739800
 22
1.186240
 13
6.382200
 23
1.552760
  0
POLYLINE
  8
0
  6
CONTINUOUS
 66
     1
 40
0.000000
 41
0.000000
  0
VERTEX
  8
0
  6
CONTINUOUS
 10
5.759160
 20
1.206480
  0
VERTEX
  8
0
  6
CONTINUOUS
 10
6.401560
 20
1.573000
  0
VERTEX
  8
0
  6
CONTINUOUS
 10
6.382200
 20
1.552760
  0
VERTEX
  8
0
  6
CONTINUOUS
 10
5.739800
 20
1.186240
  0
VERTEX
  8
0
  6
CONTINUOUS
 10
5.759160
 20
1.206480
  0
SEQEND
  8
0
  0
SOLID
  8
0
 62
    15
 10
5.739800
 20
1.186240
 11
6.382200
 21
1.552760
 12
5.717360
 22
1.167760
 13
6.359760
 23
1.534280
  0
POLYLINE
  8
0
  6
CONTINUOUS
 66
     1
 40
0.000000
 41
0.000000
  0
VERTEX
  8
0
  6
CONTINUOUS
 10
5.739800
 20
1.186240
  0
VERTEX
  8
0
  6
CONTINUOUS
 10
6.382200
 20
1.552760
  0
VERTEX
  8
0
  6
CONTINUOUS
 10
6.359760
 20
1.534280
  0
VERTEX
  8
0
  6
CONTINUOUS
 10
5.717360
 20
1.167760
  0
VERTEX
  8
0
  6
CONTINUOUS
 10
5.739800
 20
1.186240
  0
SEQEND
  8
0
  0
SOLID
  8
0
 62
    15
 10
5.717360
 20
1.167760
 11
6.359760
 21
1.534280
 12
5.690960
 22
1.150600
 13
6.333360
 23
1.517120
  0
POLYLINE
  8
0
  6
CONTINUOUS
 66
     1
 40
0.000000
 41
0.000000
  0
VERTEX
  8
0
  6
CONTINUOUS
 10
5.717360
 20
1.167760
  0
VERTEX
  8
0
  6
CONTINUOUS
 10
6.359760
 20
1.534280
  0
VERTEX
  8
0
  6
CONTINUOUS
 10
6.333360
 20
1.517120
  0
VERTEX
  8
0
  6
CONTINUOUS
 10
5.690960
 20
1.150600
  0
VERTEX
  8
0
  6
CONTINUOUS
 10
5.717360
 20
1.167760
  0
SEQEND
  8
0
  0
POLYLINE
  8
0
  6
CONTINUOUS
 66
     1
 40
0.000000
 41
0.000000
  0
VERTEX
  8
0
  6
CONTINUOUS
 10
5.689640
 20
1.150600
  0
VERTEX
  8
0
  6
CONTINUOUS
 10
5.689640
 20
1.092080
  0
VERTEX
  8
0
  6
CONTINUOUS
 10
5.327520
 20
1.092080
  0
VERTEX
  8
0
  6
CONTINUOUS
 10
5.327520
 20
1.961960
  0
VERTEX
  8
0
  6
CONTINUOUS
 10
5.460400
 20
1.961960
  0
VERTEX
  8
0
  6
CONTINUOUS
 10
5.460840
 20
1.922360
  0
VERTEX
  8
0
  6
CONTINUOUS
 10
5.463040
 20
1.884080
  0
VERTEX
  8
0
  6
CONTINUOUS
 10
5.466560
 20
1.847560
  0
VERTEX
  8
0
  6
CONTINUOUS
 10
5.471400
 20
1.812800
  0
VERTEX
  8
0
  6
CONTINUOUS
 10
5.478000
 20
1.779800
  0
VERTEX
  8
0
  6
CONTINUOUS
 10
5.486360
 20
1.748120
  0
VERTEX
  8
0
  6
CONTINUOUS
 10
5.496480
 20
1.718200
  0
VERTEX
  8
0
  6
CONTINUOUS
 10
5.508360
 20
1.689160
  0
VERTEX
  8
0
  6
CONTINUOUS
 10
5.522000
 20
1.661880
  0
VERTEX
  8
0
  6
CONTINUOUS
 10
5.537840
 20
1.635920
  0
VERTEX
  8
0
  6
CONTINUOUS
 10
5.555000
 20
1.610840
  0
VERTEX
  8
0
  6
CONTINUOUS
 10
5.574800
 20
1.587080
  0
VERTEX
  8
0
  6
CONTINUOUS
 10
5.596360
 20
1.564640
  0
VERTEX
  8
0
  6
CONTINUOUS
 10
5.620560
 20
1.543080
  0
VERTEX
  8
0
  6
CONTINUOUS
 10
5.646520
 20
1.522400
  0
VERTEX
  8
0
  6
CONTINUOUS
 10
5.675120
 20
1.502600
  0
VERTEX
  8
0
  6
CONTINUOUS
 10
5.703280
 20
1.482800
  0
VERTEX
  8
0
  6
CONTINUOUS
 10
5.727480
 20
1.461680
  0
VERTEX
  8
0
  6
CONTINUOUS
 10
5.748160
 20
1.439240
  0
VERTEX
  8
0
  6
CONTINUOUS
 10
5.765760
 20
1.416360
  0
VERTEX
  8
0
  6
CONTINUOUS
 10
5.779400
 20
1.393040
  0
VERTEX
  8
0
  6
CONTINUOUS
 10
5.789520
 20
1.368840
  0
VERTEX
  8
0
  6
CONTINUOUS
 10
5.796120
 20
1.344640
  0
VERTEX
  8
0
  6
CONTINUOUS
 10
5.798760
 20
1.320440
  0
VERTEX
  8
0
  6
CONTINUOUS
 10
5.798320
 20
1.296680
  0
VERTEX
  8
0
  6
CONTINUOUS
 10
5.793920
 20
1.272920
  0
VERTEX
  8
0
  6
CONTINUOUS
 10
5.786000
 20
1.250040
  0
VERTEX
  8
0
  6
CONTINUOUS
 10
5.774120
 20
1.227600
  0
VERTEX
  8
0
  6
CONTINUOUS
 10
5.759160
 20
1.206480
  0
VERTEX
  8
0
  6
CONTINUOUS
 10
5.739800
 20
1.186240
  0
VERTEX
  8
0
  6
CONTINUOUS
 10
5.717360
 20
1.167760
  0
VERTEX
  8
0
  6
CONTINUOUS
 10
5.690960
 20
1.150600
  0
VERTEX
  8
0
  6
CONTINUOUS
 10
5.689640
 20
1.150600
  0
SEQEND
  8
0
  0
TEXT
  8
0
 10
5.588880
 20
0.871200
 40
0.138152
  1
BA  681
 41
1.000000
  7
SN0
 71
     0
 72
     5
 11
6.179135
 21
0.871200
  0
TEXT
  8
0
 10
5.460840
 20
0.679360
 40
0.138152
  1
7/16" x 7/8"
 41
1.000000
  7
SN0
 71
     0
 72
     5
 11
6.306340
 21
0.679360
  0
ENDSEC
  0
EOF
