  0
SECTION
  2
HEADER
  9
$ACADVER
  1
AC1006
  9
$EXTMIN
 10
3.067240
 20
0.407440
  9
$EXTMAX
 10
7.974560
 20
4.325640
  9
$LTSCALE
 40
0.044000
  9
$PDMODE
 70
    35
  9
$PDSIZE
 40
0.035200
  0
ENDSEC
  0
SECTION
  2
TABLES
  0
TABLE
  2
LTYPE
 70
     9
  0
LTYPE
  2
CONTINUOUS
 70
    64
  3
Solid line
 72
    65
 73
     0
 40
0.000000
  0
LTYPE
  2
DASHED
 70
    64
  3
__ __ __ __ __ __ __ __ __ __ __ __ __ __ __
 72
    65
 73
     2
 40
0.000330
 49
0.000220
 49
-0.000110
  0
LTYPE
  2
HIDDEN
 70
    64
  3
 _ _ _ _ _ _ _ _ _ _ _ _ _ _ _ _ _ _ _ _ _ _
 72
    65
 73
     2
 40
0.000165
 49
0.000110
 49
-0.000055
  0
LTYPE
  2
CENTER
 70
    64
  3
____ _ ____ _ ____ _ ____ _ ____ _ ____ _ ____
 72
    65
 73
     4
 40
0.000880
 49
0.000550
 49
-0.000110
 49
0.000110
 49
-0.000110
  0
LTYPE
  2
PHANTOM
 70
    64
  3
_____ _ _ _____ _ _ _____ _ _ _____ _ _ ____
 72
    65
 73
     6
 40
0.001100
 49
0.000550
 49
-0.000110
 49
0.000110
 49
-0.000110
 49
0.000110
 49
-0.000110
  0
LTYPE
  2
DOT
 70
    64
  3
...............................................
 72
    65
 73
     2
 40
0.000110
 49
0.000000
 49
-0.000110
  0
LTYPE
  2
DASHDOT
 70
    64
  3
__ . __ . __ . __ . __ . __ . __ . __ . __ . __
 72
    65
 73
     4
 40
0.000440
 49
0.000220
 49
-0.000110
 49
0.000000
 49
-0.000110
  0
LTYPE
  2
BORDER
 70
    64
  3
__ __ . __ __ . __ __ . __ __ . __ __ . __ __
 72
    65
 73
     6
 40
0.000770
 49
0.000220
 49
-0.000110
 49
0.000220
 49
-0.000110
 49
0.000000
 49
-0.000110
  0
LTYPE
  2
DIVIDE
 70
    64
  3
__ . . __ . . __ . . __ . . __ . . __ . . __
 72
    65
 73
     6
 40
0.000550
 49
0.000220
 49
-0.000110
 49
0.000000
 49
-0.000110
 49
0.000000
 49
-0.000110
  0
LTYPE
  2
DOTDOT
 70
    64
  3
 . .  . .  . .  . .  . .  . . 
 72
    65
 73
     5
 40
0.000242
 49
-0.000110
 49
0.000000
 49
-0.000110
 49
0.000000
 49
-0.000110
  0
ENDTAB
  0
TABLE
  2
STYLE
 70
     2
  0
STYLE
 70
     0
  2
SN0
 40
0.000000
 41
0.000440
 50
0.000000
 71
     0
 42
0.000000
  3
ROMAND
  0
STYLE
 70
    68
  2
SV0
 40
0.000000
 41
0.000440
 50
0.000000
 71
     0
 42
0.000000
  3
ROMAND
  0
ENDTAB
  0
TABLE
  2
LAYER
 70
     3
  0
LAYER
  2
FOREGROUND
 70
    64
 62
     7
  6
CONTINUOUS
  0
LAYER
  2
BACKGROUND
 70
    65
 62
    -7
  6
CONTINUOUS
  0
LAYER
  2
0
 70
    64
 62
     7
  6
CONTINUOUS
  0
ENDTAB
  0
ENDSEC
  0
SECTION
  2
ENTITIES
  0
POLYLINE
  8
FOREGROUND
  6
CONTINUOUS
 66
     1
 40
0.000000
 41
0.000000
  0
VERTEX
  8
FOREGROUND
  6
CONTINUOUS
 10
0.000000
 20
4.733080
  0
VERTEX
  8
FOREGROUND
  6
CONTINUOUS
 10
8.499920
 20
4.733080
  0
VERTEX
  8
FOREGROUND
  6
CONTINUOUS
 10
8.499920
 20
-6.266920
  0
VERTEX
  8
FOREGROUND
  6
CONTINUOUS
 10
0.000000
 20
-6.266920
  0
VERTEX
  8
FOREGROUND
  6
CONTINUOUS
 10
0.000000
 20
4.733080
  0
SEQEND
  8
0
  0
POLYLINE
  8
FOREGROUND
  6
CONTINUOUS
 66
     1
 40
0.000000
 41
0.000000
  0
VERTEX
  8
FOREGROUND
  6
CONTINUOUS
 10
0.000000
 20
4.733080
  0
VERTEX
  8
FOREGROUND
  6
CONTINUOUS
 10
8.499920
 20
4.733080
  0
VERTEX
  8
FOREGROUND
  6
CONTINUOUS
 10
8.499920
 20
-6.266920
  0
VERTEX
  8
FOREGROUND
  6
CONTINUOUS
 10
0.000000
 20
-6.266920
  0
VERTEX
  8
FOREGROUND
  6
CONTINUOUS
 10
0.000000
 20
4.733080
  0
SEQEND
  8
0
  0
POLYLINE
  8
0
  6
CONTINUOUS
 66
     1
 40
0.014080
 41
0.014080
  0
VERTEX
  8
0
  6
CONTINUOUS
 10
4.398240
 20
3.298240
  0
VERTEX
  8
0
  6
CONTINUOUS
 10
3.254240
 20
3.298240
  0
VERTEX
  8
0
  6
CONTINUOUS
 10
3.254240
 20
4.318160
  0
VERTEX
  8
0
  6
CONTINUOUS
 10
3.741320
 20
4.318160
  0
VERTEX
  8
0
  6
CONTINUOUS
 10
3.765080
 20
4.161080
  0
VERTEX
  8
0
  6
CONTINUOUS
 10
3.832400
 20
4.161080
  0
VERTEX
  8
0
  6
CONTINUOUS
 10
3.835040
 20
4.179560
  0
VERTEX
  8
0
  6
CONTINUOUS
 10
3.842960
 20
4.202440
  0
VERTEX
  8
0
  6
CONTINUOUS
 10
3.851320
 20
4.219600
  0
VERTEX
  8
0
  6
CONTINUOUS
 10
3.868040
 20
4.244680
  0
VERTEX
  8
0
  6
CONTINUOUS
 10
3.890040
 20
4.268000
  0
VERTEX
  8
0
  6
CONTINUOUS
 10
3.917320
 20
4.286480
  0
VERTEX
  8
0
  6
CONTINUOUS
 10
3.938000
 20
4.294840
  0
VERTEX
  8
0
  6
CONTINUOUS
 10
3.960880
 20
4.298800
  0
VERTEX
  8
0
  6
CONTINUOUS
 10
3.973200
 20
4.299240
  0
VERTEX
  8
0
  6
CONTINUOUS
 10
3.999600
 20
4.296160
  0
VERTEX
  8
0
  6
CONTINUOUS
 10
4.027760
 20
4.286480
  0
VERTEX
  8
0
  6
CONTINUOUS
 10
4.058120
 20
4.270640
  0
VERTEX
  8
0
  6
CONTINUOUS
 10
4.090680
 20
4.246880
  0
VERTEX
  8
0
  6
CONTINUOUS
 10
4.125440
 20
4.214760
  0
VERTEX
  8
0
  6
CONTINUOUS
 10
4.221800
 20
4.120600
  0
VERTEX
  8
0
  6
CONTINUOUS
 10
4.277680
 20
4.072640
  0
VERTEX
  8
0
  6
CONTINUOUS
 10
4.304080
 20
4.052400
  0
VERTEX
  8
0
  6
CONTINUOUS
 10
4.330040
 20
4.034800
  0
VERTEX
  8
0
  6
CONTINUOUS
 10
4.381960
 20
4.005760
  0
VERTEX
  8
0
  6
CONTINUOUS
 10
4.408800
 20
3.993880
  0
VERTEX
  8
0
  6
CONTINUOUS
 10
4.436520
 20
3.983760
  0
VERTEX
  8
0
  6
CONTINUOUS
 10
4.496800
 20
3.967480
  0
VERTEX
  8
0
  6
CONTINUOUS
 10
4.565880
 20
3.955600
  0
VERTEX
  8
0
  6
CONTINUOUS
 10
4.604600
 20
3.950760
  0
VERTEX
  8
0
  6
CONTINUOUS
 10
4.604600
 20
3.730320
  0
VERTEX
  8
0
  6
CONTINUOUS
 10
4.439600
 20
3.730320
  0
VERTEX
  8
0
  6
CONTINUOUS
 10
4.439600
 20
3.300440
  0
VERTEX
  8
0
  6
CONTINUOUS
 10
4.398240
 20
3.300440
  0
SEQEND
  8
0
  0
POLYLINE
  8
0
  6
CONTINUOUS
 66
     1
 40
0.014080
 41
0.014080
  0
VERTEX
  8
0
  6
CONTINUOUS
 10
4.599760
 20
3.735600
  0
VERTEX
  8
0
  6
CONTINUOUS
 10
4.599760
 20
3.831080
  0
VERTEX
  8
0
  6
CONTINUOUS
 10
4.681600
 20
3.831080
  0
VERTEX
  8
0
  6
CONTINUOUS
 10
4.683360
 20
3.843400
  0
VERTEX
  8
0
  6
CONTINUOUS
 10
4.686440
 20
3.855280
  0
VERTEX
  8
0
  6
CONTINUOUS
 10
4.689960
 20
3.865840
  0
VERTEX
  8
0
  6
CONTINUOUS
 10
4.694800
 20
3.875960
  0
VERTEX
  8
0
  6
CONTINUOUS
 10
4.700080
 20
3.885200
  0
VERTEX
  8
0
  6
CONTINUOUS
 10
4.706240
 20
3.894000
  0
VERTEX
  8
0
  6
CONTINUOUS
 10
4.713280
 20
3.901480
  0
VERTEX
  8
0
  6
CONTINUOUS
 10
4.720760
 20
3.908520
  0
VERTEX
  8
0
  6
CONTINUOUS
 10
4.729120
 20
3.914680
  0
VERTEX
  8
0
  6
CONTINUOUS
 10
4.737480
 20
3.920400
  0
VERTEX
  8
0
  6
CONTINUOUS
 10
4.746720
 20
3.924800
  0
VERTEX
  8
0
  6
CONTINUOUS
 10
4.755960
 20
3.928760
  0
VERTEX
  8
0
  6
CONTINUOUS
 10
4.765640
 20
3.931840
  0
VERTEX
  8
0
  6
CONTINUOUS
 10
4.775760
 20
3.934040
  0
VERTEX
  8
0
  6
CONTINUOUS
 10
4.785880
 20
3.935800
  0
VERTEX
  8
0
  6
CONTINUOUS
 10
4.796000
 20
3.936240
  0
VERTEX
  8
0
  6
CONTINUOUS
 10
4.806120
 20
3.936240
  0
VERTEX
  8
0
  6
CONTINUOUS
 10
4.816680
 20
3.935360
  0
VERTEX
  8
0
  6
CONTINUOUS
 10
4.826360
 20
3.933600
  0
VERTEX
  8
0
  6
CONTINUOUS
 10
4.836480
 20
3.931400
  0
VERTEX
  8
0
  6
CONTINUOUS
 10
4.846160
 20
3.927880
  0
VERTEX
  8
0
  6
CONTINUOUS
 10
4.855400
 20
3.923920
  0
VERTEX
  8
0
  6
CONTINUOUS
 10
4.864640
 20
3.919080
  0
VERTEX
  8
0
  6
CONTINUOUS
 10
4.873440
 20
3.913360
  0
VERTEX
  8
0
  6
CONTINUOUS
 10
4.881360
 20
3.907200
  0
VERTEX
  8
0
  6
CONTINUOUS
 10
4.888840
 20
3.899720
  0
VERTEX
  8
0
  6
CONTINUOUS
 10
4.895880
 20
3.891800
  0
VERTEX
  8
0
  6
CONTINUOUS
 10
4.902040
 20
3.883000
  0
VERTEX
  8
0
  6
CONTINUOUS
 10
4.907320
 20
3.873320
  0
VERTEX
  8
0
  6
CONTINUOUS
 10
4.912160
 20
3.862760
  0
VERTEX
  8
0
  6
CONTINUOUS
 10
4.916120
 20
3.851320
  0
VERTEX
  8
0
  6
CONTINUOUS
 10
4.918760
 20
3.839440
  0
VERTEX
  8
0
  6
CONTINUOUS
 10
6.210600
 20
3.839440
  0
VERTEX
  8
0
  6
CONTINUOUS
 10
6.210600
 20
3.748800
  0
VERTEX
  8
0
  6
CONTINUOUS
 10
7.267040
 20
3.748800
  0
VERTEX
  8
0
  6
CONTINUOUS
 10
7.267040
 20
3.649800
  0
VERTEX
  8
0
  6
CONTINUOUS
 10
7.967520
 20
3.649800
  0
VERTEX
  8
0
  6
CONTINUOUS
 10
7.967520
 20
3.299560
  0
VERTEX
  8
0
  6
CONTINUOUS
 10
4.753760
 20
3.299560
  0
VERTEX
  8
0
  6
CONTINUOUS
 10
4.437840
 20
3.299560
  0
VERTEX
  8
0
  6
CONTINUOUS
 10
4.437840
 20
3.732960
  0
VERTEX
  8
0
  6
CONTINUOUS
 10
4.599760
 20
3.732960
  0
VERTEX
  8
0
  6
CONTINUOUS
 10
4.599760
 20
3.735600
  0
SEQEND
  8
0
  0
TEXT
  8
0
 10
4.689080
 20
0.642400
 40
0.138105
  1
BA  676 5/8" x 3-1/2"
 41
1.000000
  7
SN0
 71
     0
 72
     5
 11
6.225807
 21
0.642400
  0
TEXT
  8
0
 10
4.689080
 20
0.451000
 40
0.138105
  1
BA  680 1" x 1-3/8"
 41
1.000000
  7
SN0
 71
     0
 72
     5
 11
6.087666
 21
0.451000
  0
SOLID
  8
0
 62
    15
 10
4.666200
 20
1.529000
 11
4.667080
 21
2.274360
 12
4.683800
 22
1.518440
 13
4.684680
 23
2.263800
  0
POLYLINE
  8
0
  6
CONTINUOUS
 66
     1
 40
0.000000
 41
0.000000
  0
VERTEX
  8
0
  6
CONTINUOUS
 10
4.666200
 20
1.529000
  0
VERTEX
  8
0
  6
CONTINUOUS
 10
4.667080
 20
2.274360
  0
VERTEX
  8
0
  6
CONTINUOUS
 10
4.684680
 20
2.263800
  0
VERTEX
  8
0
  6
CONTINUOUS
 10
4.683800
 20
1.518440
  0
VERTEX
  8
0
  6
CONTINUOUS
 10
4.666200
 20
1.529000
  0
SEQEND
  8
0
  0
SOLID
  8
0
 62
    15
 10
4.248640
 20
1.338040
 11
4.249520
 21
2.082960
 12
4.410560
 22
1.338040
 13
4.411440
 23
2.082960
  0
POLYLINE
  8
0
  6
CONTINUOUS
 66
     1
 40
0.000000
 41
0.000000
  0
VERTEX
  8
0
  6
CONTINUOUS
 10
4.248640
 20
1.338040
  0
VERTEX
  8
0
  6
CONTINUOUS
 10
4.249520
 20
2.082960
  0
VERTEX
  8
0
  6
CONTINUOUS
 10
4.411440
 20
2.082960
  0
VERTEX
  8
0
  6
CONTINUOUS
 10
4.410560
 20
1.338040
  0
VERTEX
  8
0
  6
CONTINUOUS
 10
4.248640
 20
1.338040
  0
SEQEND
  8
0
  0
SOLID
  8
0
 62
    15
 10
4.410560
 20
1.436160
 11
4.411440
 21
2.181520
 12
4.492400
 22
1.436160
 13
4.493280
 23
2.181520
  0
POLYLINE
  8
0
  6
CONTINUOUS
 66
     1
 40
0.000000
 41
0.000000
  0
VERTEX
  8
0
  6
CONTINUOUS
 10
4.410560
 20
1.436160
  0
VERTEX
  8
0
  6
CONTINUOUS
 10
4.411440
 20
2.181520
  0
VERTEX
  8
0
  6
CONTINUOUS
 10
4.493280
 20
2.181520
  0
VERTEX
  8
0
  6
CONTINUOUS
 10
4.492400
 20
1.436160
  0
VERTEX
  8
0
  6
CONTINUOUS
 10
4.410560
 20
1.436160
  0
SEQEND
  8
0
  0
SOLID
  8
0
 62
    15
 10
4.505160
 20
1.481040
 11
4.506040
 21
2.226400
 12
4.517040
 22
1.499080
 13
4.517920
 23
2.244000
  0
POLYLINE
  8
0
  6
CONTINUOUS
 66
     1
 40
0.000000
 41
0.000000
  0
VERTEX
  8
0
  6
CONTINUOUS
 10
4.505160
 20
1.481040
  0
VERTEX
  8
0
  6
CONTINUOUS
 10
4.506040
 20
2.226400
  0
VERTEX
  8
0
  6
CONTINUOUS
 10
4.517920
 20
2.244000
  0
VERTEX
  8
0
  6
CONTINUOUS
 10
4.517040
 20
1.499080
  0
VERTEX
  8
0
  6
CONTINUOUS
 10
4.505160
 20
1.481040
  0
SEQEND
  8
0
  0
SOLID
  8
0
 62
    15
 10
4.517040
 20
1.499080
 11
4.517920
 21
2.244000
 12
4.531560
 22
1.513600
 13
4.532440
 23
2.258960
  0
POLYLINE
  8
0
  6
CONTINUOUS
 66
     1
 40
0.000000
 41
0.000000
  0
VERTEX
  8
0
  6
CONTINUOUS
 10
4.517040
 20
1.499080
  0
VERTEX
  8
0
  6
CONTINUOUS
 10
4.517920
 20
2.244000
  0
VERTEX
  8
0
  6
CONTINUOUS
 10
4.532440
 20
2.258960
  0
VERTEX
  8
0
  6
CONTINUOUS
 10
4.531560
 20
1.513600
  0
VERTEX
  8
0
  6
CONTINUOUS
 10
4.517040
 20
1.499080
  0
SEQEND
  8
0
  0
SOLID
  8
0
 62
    15
 10
4.531560
 20
1.513600
 11
4.532440
 21
2.258960
 12
4.548280
 22
1.525480
 13
4.549160
 23
2.270400
  0
POLYLINE
  8
0
  6
CONTINUOUS
 66
     1
 40
0.000000
 41
0.000000
  0
VERTEX
  8
0
  6
CONTINUOUS
 10
4.531560
 20
1.513600
  0
VERTEX
  8
0
  6
CONTINUOUS
 10
4.532440
 20
2.258960
  0
VERTEX
  8
0
  6
CONTINUOUS
 10
4.549160
 20
2.270400
  0
VERTEX
  8
0
  6
CONTINUOUS
 10
4.548280
 20
1.525480
  0
VERTEX
  8
0
  6
CONTINUOUS
 10
4.531560
 20
1.513600
  0
SEQEND
  8
0
  0
SOLID
  8
0
 62
    15
 10
4.548280
 20
1.525480
 11
4.549160
 21
2.270400
 12
4.566760
 22
1.533840
 13
4.567640
 23
2.279200
  0
POLYLINE
  8
0
  6
CONTINUOUS
 66
     1
 40
0.000000
 41
0.000000
  0
VERTEX
  8
0
  6
CONTINUOUS
 10
4.548280
 20
1.525480
  0
VERTEX
  8
0
  6
CONTINUOUS
 10
4.549160
 20
2.270400
  0
VERTEX
  8
0
  6
CONTINUOUS
 10
4.567640
 20
2.279200
  0
VERTEX
  8
0
  6
CONTINUOUS
 10
4.566760
 20
1.533840
  0
VERTEX
  8
0
  6
CONTINUOUS
 10
4.548280
 20
1.525480
  0
SEQEND
  8
0
  0
SOLID
  8
0
 62
    15
 10
4.566760
 20
1.533840
 11
4.567640
 21
2.279200
 12
4.586120
 22
1.539120
 13
4.587440
 23
2.284480
  0
POLYLINE
  8
0
  6
CONTINUOUS
 66
     1
 40
0.000000
 41
0.000000
  0
VERTEX
  8
0
  6
CONTINUOUS
 10
4.566760
 20
1.533840
  0
VERTEX
  8
0
  6
CONTINUOUS
 10
4.567640
 20
2.279200
  0
VERTEX
  8
0
  6
CONTINUOUS
 10
4.587440
 20
2.284480
  0
VERTEX
  8
0
  6
CONTINUOUS
 10
4.586120
 20
1.539120
  0
VERTEX
  8
0
  6
CONTINUOUS
 10
4.566760
 20
1.533840
  0
SEQEND
  8
0
  0
SOLID
  8
0
 62
    15
 10
4.586120
 20
1.539120
 11
4.587440
 21
2.284480
 12
4.606800
 22
1.541320
 13
4.607680
 23
2.286680
  0
POLYLINE
  8
0
  6
CONTINUOUS
 66
     1
 40
0.000000
 41
0.000000
  0
VERTEX
  8
0
  6
CONTINUOUS
 10
4.586120
 20
1.539120
  0
VERTEX
  8
0
  6
CONTINUOUS
 10
4.587440
 20
2.284480
  0
VERTEX
  8
0
  6
CONTINUOUS
 10
4.607680
 20
2.286680
  0
VERTEX
  8
0
  6
CONTINUOUS
 10
4.606800
 20
1.541320
  0
VERTEX
  8
0
  6
CONTINUOUS
 10
4.586120
 20
1.539120
  0
SEQEND
  8
0
  0
SOLID
  8
0
 62
    15
 10
4.606800
 20
1.541320
 11
4.607680
 21
2.286680
 12
4.627040
 22
1.540440
 13
4.627920
 23
2.285800
  0
POLYLINE
  8
0
  6
CONTINUOUS
 66
     1
 40
0.000000
 41
0.000000
  0
VERTEX
  8
0
  6
CONTINUOUS
 10
4.606800
 20
1.541320
  0
VERTEX
  8
0
  6
CONTINUOUS
 10
4.607680
 20
2.286680
  0
VERTEX
  8
0
  6
CONTINUOUS
 10
4.627920
 20
2.285800
  0
VERTEX
  8
0
  6
CONTINUOUS
 10
4.627040
 20
1.540440
  0
VERTEX
  8
0
  6
CONTINUOUS
 10
4.606800
 20
1.541320
  0
SEQEND
  8
0
  0
SOLID
  8
0
 62
    15
 10
4.627040
 20
1.540440
 11
4.627920
 21
2.285800
 12
4.646840
 22
1.536480
 13
4.648160
 23
2.281400
  0
POLYLINE
  8
0
  6
CONTINUOUS
 66
     1
 40
0.000000
 41
0.000000
  0
VERTEX
  8
0
  6
CONTINUOUS
 10
4.627040
 20
1.540440
  0
VERTEX
  8
0
  6
CONTINUOUS
 10
4.627920
 20
2.285800
  0
VERTEX
  8
0
  6
CONTINUOUS
 10
4.648160
 20
2.281400
  0
VERTEX
  8
0
  6
CONTINUOUS
 10
4.646840
 20
1.536480
  0
VERTEX
  8
0
  6
CONTINUOUS
 10
4.627040
 20
1.540440
  0
SEQEND
  8
0
  0
SOLID
  8
0
 62
    15
 10
4.646840
 20
1.536480
 11
4.648160
 21
2.281400
 12
4.666200
 22
1.529000
 13
4.667080
 23
2.274360
  0
POLYLINE
  8
0
  6
CONTINUOUS
 66
     1
 40
0.000000
 41
0.000000
  0
VERTEX
  8
0
  6
CONTINUOUS
 10
4.646840
 20
1.536480
  0
VERTEX
  8
0
  6
CONTINUOUS
 10
4.648160
 20
2.281400
  0
VERTEX
  8
0
  6
CONTINUOUS
 10
4.667080
 20
2.274360
  0
VERTEX
  8
0
  6
CONTINUOUS
 10
4.666200
 20
1.529000
  0
VERTEX
  8
0
  6
CONTINUOUS
 10
4.646840
 20
1.536480
  0
SEQEND
  8
0
  0
SOLID
  8
0
 62
    15
 10
4.492400
 20
1.436160
 11
4.493280
 21
2.181520
 12
4.496800
 22
1.460360
 13
4.497680
 23
2.205280
  0
POLYLINE
  8
0
  6
CONTINUOUS
 66
     1
 40
0.000000
 41
0.000000
  0
VERTEX
  8
0
  6
CONTINUOUS
 10
4.492400
 20
1.436160
  0
VERTEX
  8
0
  6
CONTINUOUS
 10
4.493280
 20
2.181520
  0
VERTEX
  8
0
  6
CONTINUOUS
 10
4.497680
 20
2.205280
  0
VERTEX
  8
0
  6
CONTINUOUS
 10
4.496800
 20
1.460360
  0
VERTEX
  8
0
  6
CONTINUOUS
 10
4.492400
 20
1.436160
  0
SEQEND
  8
0
  0
SOLID
  8
0
 62
    15
 10
4.683800
 20
1.518440
 11
4.684680
 21
2.263800
 12
4.699200
 22
1.504800
 13
4.700520
 23
2.250160
  0
POLYLINE
  8
0
  6
CONTINUOUS
 66
     1
 40
0.000000
 41
0.000000
  0
VERTEX
  8
0
  6
CONTINUOUS
 10
4.683800
 20
1.518440
  0
VERTEX
  8
0
  6
CONTINUOUS
 10
4.684680
 20
2.263800
  0
VERTEX
  8
0
  6
CONTINUOUS
 10
4.700520
 20
2.250160
  0
VERTEX
  8
0
  6
CONTINUOUS
 10
4.699200
 20
1.504800
  0
VERTEX
  8
0
  6
CONTINUOUS
 10
4.683800
 20
1.518440
  0
SEQEND
  8
0
  0
SOLID
  8
0
 62
    15
 10
4.699200
 20
1.504800
 11
4.700520
 21
2.250160
 12
4.712400
 22
1.488080
 13
4.713280
 23
2.233000
  0
POLYLINE
  8
0
  6
CONTINUOUS
 66
     1
 40
0.000000
 41
0.000000
  0
VERTEX
  8
0
  6
CONTINUOUS
 10
4.699200
 20
1.504800
  0
VERTEX
  8
0
  6
CONTINUOUS
 10
4.700520
 20
2.250160
  0
VERTEX
  8
0
  6
CONTINUOUS
 10
4.713280
 20
2.233000
  0
VERTEX
  8
0
  6
CONTINUOUS
 10
4.712400
 20
1.488080
  0
VERTEX
  8
0
  6
CONTINUOUS
 10
4.699200
 20
1.504800
  0
SEQEND
  8
0
  0
SOLID
  8
0
 62
    15
 10
4.712400
 20
1.488080
 11
4.713280
 21
2.233000
 12
4.722520
 22
1.467840
 13
4.723400
 23
2.212760
  0
POLYLINE
  8
0
  6
CONTINUOUS
 66
     1
 40
0.000000
 41
0.000000
  0
VERTEX
  8
0
  6
CONTINUOUS
 10
4.712400
 20
1.488080
  0
VERTEX
  8
0
  6
CONTINUOUS
 10
4.713280
 20
2.233000
  0
VERTEX
  8
0
  6
CONTINUOUS
 10
4.723400
 20
2.212760
  0
VERTEX
  8
0
  6
CONTINUOUS
 10
4.722520
 20
1.467840
  0
VERTEX
  8
0
  6
CONTINUOUS
 10
4.712400
 20
1.488080
  0
SEQEND
  8
0
  0
SOLID
  8
0
 62
    15
 10
4.722520
 20
1.467840
 11
4.723400
 21
2.212760
 12
4.729120
 22
1.444520
 13
4.730000
 23
2.189440
  0
POLYLINE
  8
0
  6
CONTINUOUS
 66
     1
 40
0.000000
 41
0.000000
  0
VERTEX
  8
0
  6
CONTINUOUS
 10
4.722520
 20
1.467840
  0
VERTEX
  8
0
  6
CONTINUOUS
 10
4.723400
 20
2.212760
  0
VERTEX
  8
0
  6
CONTINUOUS
 10
4.730000
 20
2.189440
  0
VERTEX
  8
0
  6
CONTINUOUS
 10
4.729120
 20
1.444520
  0
VERTEX
  8
0
  6
CONTINUOUS
 10
4.722520
 20
1.467840
  0
SEQEND
  8
0
  0
SOLID
  8
0
 62
    15
 10
7.777880
 20
1.254880
 11
7.778760
 21
1.999800
 12
7.777880
 22
0.904640
 13
7.778760
 23
1.649560
  0
POLYLINE
  8
0
  6
CONTINUOUS
 66
     1
 40
0.000000
 41
0.000000
  0
VERTEX
  8
0
  6
CONTINUOUS
 10
7.777880
 20
1.254880
  0
VERTEX
  8
0
  6
CONTINUOUS
 10
7.778760
 20
1.999800
  0
VERTEX
  8
0
  6
CONTINUOUS
 10
7.778760
 20
1.649560
  0
VERTEX
  8
0
  6
CONTINUOUS
 10
7.777880
 20
0.904640
  0
VERTEX
  8
0
  6
CONTINUOUS
 10
7.777880
 20
1.254880
  0
SEQEND
  8
0
  0
SOLID
  8
0
 62
    15
 10
7.077840
 20
1.254880
 11
7.078720
 21
1.999800
 12
7.777880
 22
1.254880
 13
7.778760
 23
1.999800
  0
POLYLINE
  8
0
  6
CONTINUOUS
 66
     1
 40
0.000000
 41
0.000000
  0
VERTEX
  8
0
  6
CONTINUOUS
 10
7.077840
 20
1.254880
  0
VERTEX
  8
0
  6
CONTINUOUS
 10
7.078720
 20
1.999800
  0
VERTEX
  8
0
  6
CONTINUOUS
 10
7.778760
 20
1.999800
  0
VERTEX
  8
0
  6
CONTINUOUS
 10
7.777880
 20
1.254880
  0
VERTEX
  8
0
  6
CONTINUOUS
 10
7.077840
 20
1.254880
  0
SEQEND
  8
0
  0
SOLID
  8
0
 62
    15
 10
7.077840
 20
1.353880
 11
7.078720
 21
2.099240
 12
7.077840
 22
1.254880
 13
7.078720
 23
1.999800
  0
POLYLINE
  8
0
  6
CONTINUOUS
 66
     1
 40
0.000000
 41
0.000000
  0
VERTEX
  8
0
  6
CONTINUOUS
 10
7.077840
 20
1.353880
  0
VERTEX
  8
0
  6
CONTINUOUS
 10
7.078720
 20
2.099240
  0
VERTEX
  8
0
  6
CONTINUOUS
 10
7.078720
 20
1.999800
  0
VERTEX
  8
0
  6
CONTINUOUS
 10
7.077840
 20
1.254880
  0
VERTEX
  8
0
  6
CONTINUOUS
 10
7.077840
 20
1.353880
  0
SEQEND
  8
0
  0
SOLID
  8
0
 62
    15
 10
6.021400
 20
1.353880
 11
6.022280
 21
2.099240
 12
7.077840
 22
1.353880
 13
7.078720
 23
2.099240
  0
POLYLINE
  8
0
  6
CONTINUOUS
 66
     1
 40
0.000000
 41
0.000000
  0
VERTEX
  8
0
  6
CONTINUOUS
 10
6.021400
 20
1.353880
  0
VERTEX
  8
0
  6
CONTINUOUS
 10
6.022280
 20
2.099240
  0
VERTEX
  8
0
  6
CONTINUOUS
 10
7.078720
 20
2.099240
  0
VERTEX
  8
0
  6
CONTINUOUS
 10
7.077840
 20
1.353880
  0
VERTEX
  8
0
  6
CONTINUOUS
 10
6.021400
 20
1.353880
  0
SEQEND
  8
0
  0
SOLID
  8
0
 62
    15
 10
6.021400
 20
1.444520
 11
6.022280
 21
2.189440
 12
6.021400
 22
1.353880
 13
6.022280
 23
2.099240
  0
POLYLINE
  8
0
  6
CONTINUOUS
 66
     1
 40
0.000000
 41
0.000000
  0
VERTEX
  8
0
  6
CONTINUOUS
 10
6.021400
 20
1.444520
  0
VERTEX
  8
0
  6
CONTINUOUS
 10
6.022280
 20
2.189440
  0
VERTEX
  8
0
  6
CONTINUOUS
 10
6.022280
 20
2.099240
  0
VERTEX
  8
0
  6
CONTINUOUS
 10
6.021400
 20
1.353880
  0
VERTEX
  8
0
  6
CONTINUOUS
 10
6.021400
 20
1.444520
  0
SEQEND
  8
0
  0
SOLID
  8
0
 62
    15
 10
4.729120
 20
1.444520
 11
4.730000
 21
2.189440
 12
6.021400
 22
1.444520
 13
6.022280
 23
2.189440
  0
POLYLINE
  8
0
  6
CONTINUOUS
 66
     1
 40
0.000000
 41
0.000000
  0
VERTEX
  8
0
  6
CONTINUOUS
 10
4.729120
 20
1.444520
  0
VERTEX
  8
0
  6
CONTINUOUS
 10
4.730000
 20
2.189440
  0
VERTEX
  8
0
  6
CONTINUOUS
 10
6.022280
 20
2.189440
  0
VERTEX
  8
0
  6
CONTINUOUS
 10
6.021400
 20
1.444520
  0
VERTEX
  8
0
  6
CONTINUOUS
 10
4.729120
 20
1.444520
  0
SEQEND
  8
0
  0
SOLID
  8
0
 62
    15
 10
4.496800
 20
1.460360
 11
4.497680
 21
2.205280
 12
4.505160
 22
1.481040
 13
4.506040
 23
2.226400
  0
POLYLINE
  8
0
  6
CONTINUOUS
 66
     1
 40
0.000000
 41
0.000000
  0
VERTEX
  8
0
  6
CONTINUOUS
 10
4.496800
 20
1.460360
  0
VERTEX
  8
0
  6
CONTINUOUS
 10
4.497680
 20
2.205280
  0
VERTEX
  8
0
  6
CONTINUOUS
 10
4.506040
 20
2.226400
  0
VERTEX
  8
0
  6
CONTINUOUS
 10
4.505160
 20
1.481040
  0
VERTEX
  8
0
  6
CONTINUOUS
 10
4.496800
 20
1.460360
  0
SEQEND
  8
0
  0
POLYLINE
  8
0
  6
CONTINUOUS
 66
     1
 40
0.000000
 41
0.000000
  0
VERTEX
  8
0
  6
CONTINUOUS
 10
4.410560
 20
1.340680
  0
VERTEX
  8
0
  6
CONTINUOUS
 10
4.410560
 20
1.436160
  0
VERTEX
  8
0
  6
CONTINUOUS
 10
4.492400
 20
1.436160
  0
VERTEX
  8
0
  6
CONTINUOUS
 10
4.496800
 20
1.460360
  0
VERTEX
  8
0
  6
CONTINUOUS
 10
4.505160
 20
1.481040
  0
VERTEX
  8
0
  6
CONTINUOUS
 10
4.517040
 20
1.499080
  0
VERTEX
  8
0
  6
CONTINUOUS
 10
4.531560
 20
1.513600
  0
VERTEX
  8
0
  6
CONTINUOUS
 10
4.548280
 20
1.525480
  0
VERTEX
  8
0
  6
CONTINUOUS
 10
4.566760
 20
1.533840
  0
VERTEX
  8
0
  6
CONTINUOUS
 10
4.586120
 20
1.539120
  0
VERTEX
  8
0
  6
CONTINUOUS
 10
4.606800
 20
1.541320
  0
VERTEX
  8
0
  6
CONTINUOUS
 10
4.627040
 20
1.540440
  0
VERTEX
  8
0
  6
CONTINUOUS
 10
4.646840
 20
1.536480
  0
VERTEX
  8
0
  6
CONTINUOUS
 10
4.666200
 20
1.529000
  0
VERTEX
  8
0
  6
CONTINUOUS
 10
4.683800
 20
1.518440
  0
VERTEX
  8
0
  6
CONTINUOUS
 10
4.699200
 20
1.504800
  0
VERTEX
  8
0
  6
CONTINUOUS
 10
4.712400
 20
1.488080
  0
VERTEX
  8
0
  6
CONTINUOUS
 10
4.722520
 20
1.467840
  0
VERTEX
  8
0
  6
CONTINUOUS
 10
4.729120
 20
1.444520
  0
VERTEX
  8
0
  6
CONTINUOUS
 10
6.021400
 20
1.444520
  0
VERTEX
  8
0
  6
CONTINUOUS
 10
6.021400
 20
1.353880
  0
VERTEX
  8
0
  6
CONTINUOUS
 10
7.077840
 20
1.353880
  0
VERTEX
  8
0
  6
CONTINUOUS
 10
7.077840
 20
1.254880
  0
VERTEX
  8
0
  6
CONTINUOUS
 10
7.777880
 20
1.254880
  0
VERTEX
  8
0
  6
CONTINUOUS
 10
7.777880
 20
0.904640
  0
VERTEX
  8
0
  6
CONTINUOUS
 10
4.248640
 20
0.904640
  0
VERTEX
  8
0
  6
CONTINUOUS
 10
4.248640
 20
1.338040
  0
VERTEX
  8
0
  6
CONTINUOUS
 10
4.410560
 20
1.338040
  0
VERTEX
  8
0
  6
CONTINUOUS
 10
4.410560
 20
1.340680
  0
SEQEND
  8
0
  0
SOLID
  8
0
 62
    15
 10
3.872000
 20
1.878800
 11
3.873760
 21
2.618880
 12
3.904560
 22
1.855040
 13
3.906320
 23
2.595560
  0
POLYLINE
  8
0
  6
CONTINUOUS
 66
     1
 40
0.000000
 41
0.000000
  0
VERTEX
  8
0
  6
CONTINUOUS
 10
3.872000
 20
1.878800
  0
VERTEX
  8
0
  6
CONTINUOUS
 10
3.873760
 20
2.618880
  0
VERTEX
  8
0
  6
CONTINUOUS
 10
3.906320
 20
2.595560
  0
VERTEX
  8
0
  6
CONTINUOUS
 10
3.904560
 20
1.855040
  0
VERTEX
  8
0
  6
CONTINUOUS
 10
3.872000
 20
1.878800
  0
SEQEND
  8
0
  0
SOLID
  8
0
 62
    15
 10
3.555200
 20
1.926320
 11
3.556960
 21
2.666840
 12
3.571480
 22
1.818960
 13
3.573240
 23
2.559480
  0
POLYLINE
  8
0
  6
CONTINUOUS
 66
     1
 40
0.000000
 41
0.000000
  0
VERTEX
  8
0
  6
CONTINUOUS
 10
3.555200
 20
1.926320
  0
VERTEX
  8
0
  6
CONTINUOUS
 10
3.556960
 20
2.666840
  0
VERTEX
  8
0
  6
CONTINUOUS
 10
3.573240
 20
2.559480
  0
VERTEX
  8
0
  6
CONTINUOUS
 10
3.571480
 20
1.818960
  0
VERTEX
  8
0
  6
CONTINUOUS
 10
3.555200
 20
1.926320
  0
SEQEND
  8
0
  0
SOLID
  8
0
 62
    15
 10
3.571480
 20
1.818960
 11
3.573240
 21
2.559480
 12
3.578960
 22
1.769240
 13
3.580720
 23
2.509320
  0
POLYLINE
  8
0
  6
CONTINUOUS
 66
     1
 40
0.000000
 41
0.000000
  0
VERTEX
  8
0
  6
CONTINUOUS
 10
3.571480
 20
1.818960
  0
VERTEX
  8
0
  6
CONTINUOUS
 10
3.573240
 20
2.559480
  0
VERTEX
  8
0
  6
CONTINUOUS
 10
3.580720
 20
2.509320
  0
VERTEX
  8
0
  6
CONTINUOUS
 10
3.578960
 20
1.769240
  0
VERTEX
  8
0
  6
CONTINUOUS
 10
3.571480
 20
1.818960
  0
SEQEND
  8
0
  0
SOLID
  8
0
 62
    15
 10
3.578960
 20
1.769240
 11
3.580720
 21
2.509320
 12
3.645840
 22
1.769680
 13
3.647600
 23
2.509760
  0
POLYLINE
  8
0
  6
CONTINUOUS
 66
     1
 40
0.000000
 41
0.000000
  0
VERTEX
  8
0
  6
CONTINUOUS
 10
3.578960
 20
1.769240
  0
VERTEX
  8
0
  6
CONTINUOUS
 10
3.580720
 20
2.509320
  0
VERTEX
  8
0
  6
CONTINUOUS
 10
3.647600
 20
2.509760
  0
VERTEX
  8
0
  6
CONTINUOUS
 10
3.645840
 20
1.769680
  0
VERTEX
  8
0
  6
CONTINUOUS
 10
3.578960
 20
1.769240
  0
SEQEND
  8
0
  0
SOLID
  8
0
 62
    15
 10
3.645840
 20
1.769680
 11
3.647600
 21
2.509760
 12
3.650680
 22
1.795200
 13
3.652440
 23
2.535280
  0
POLYLINE
  8
0
  6
CONTINUOUS
 66
     1
 40
0.000000
 41
0.000000
  0
VERTEX
  8
0
  6
CONTINUOUS
 10
3.645840
 20
1.769680
  0
VERTEX
  8
0
  6
CONTINUOUS
 10
3.647600
 20
2.509760
  0
VERTEX
  8
0
  6
CONTINUOUS
 10
3.652440
 20
2.535280
  0
VERTEX
  8
0
  6
CONTINUOUS
 10
3.650680
 20
1.795200
  0
VERTEX
  8
0
  6
CONTINUOUS
 10
3.645840
 20
1.769680
  0
SEQEND
  8
0
  0
SOLID
  8
0
 62
    15
 10
3.650680
 20
1.795200
 11
3.652440
 21
2.535280
 12
3.664760
 22
1.827760
 13
3.666960
 23
2.568280
  0
POLYLINE
  8
0
  6
CONTINUOUS
 66
     1
 40
0.000000
 41
0.000000
  0
VERTEX
  8
0
  6
CONTINUOUS
 10
3.650680
 20
1.795200
  0
VERTEX
  8
0
  6
CONTINUOUS
 10
3.652440
 20
2.535280
  0
VERTEX
  8
0
  6
CONTINUOUS
 10
3.666960
 20
2.568280
  0
VERTEX
  8
0
  6
CONTINUOUS
 10
3.664760
 20
1.827760
  0
VERTEX
  8
0
  6
CONTINUOUS
 10
3.650680
 20
1.795200
  0
SEQEND
  8
0
  0
SOLID
  8
0
 62
    15
 10
3.664760
 20
1.827760
 11
3.666960
 21
2.568280
 12
3.688520
 22
1.861200
 13
3.690280
 23
2.601720
  0
POLYLINE
  8
0
  6
CONTINUOUS
 66
     1
 40
0.000000
 41
0.000000
  0
VERTEX
  8
0
  6
CONTINUOUS
 10
3.664760
 20
1.827760
  0
VERTEX
  8
0
  6
CONTINUOUS
 10
3.666960
 20
2.568280
  0
VERTEX
  8
0
  6
CONTINUOUS
 10
3.690280
 20
2.601720
  0
VERTEX
  8
0
  6
CONTINUOUS
 10
3.688520
 20
1.861200
  0
VERTEX
  8
0
  6
CONTINUOUS
 10
3.664760
 20
1.827760
  0
SEQEND
  8
0
  0
SOLID
  8
0
 62
    15
 10
3.688520
 20
1.861200
 11
3.690280
 21
2.601720
 12
3.721080
 22
1.889360
 13
3.722840
 23
2.629440
  0
POLYLINE
  8
0
  6
CONTINUOUS
 66
     1
 40
0.000000
 41
0.000000
  0
VERTEX
  8
0
  6
CONTINUOUS
 10
3.688520
 20
1.861200
  0
VERTEX
  8
0
  6
CONTINUOUS
 10
3.690280
 20
2.601720
  0
VERTEX
  8
0
  6
CONTINUOUS
 10
3.722840
 20
2.629440
  0
VERTEX
  8
0
  6
CONTINUOUS
 10
3.721080
 20
1.889360
  0
VERTEX
  8
0
  6
CONTINUOUS
 10
3.688520
 20
1.861200
  0
SEQEND
  8
0
  0
SOLID
  8
0
 62
    15
 10
3.721080
 20
1.889360
 11
3.722840
 21
2.629440
 12
3.762880
 22
1.905640
 13
3.764640
 23
2.645720
  0
POLYLINE
  8
0
  6
CONTINUOUS
 66
     1
 40
0.000000
 41
0.000000
  0
VERTEX
  8
0
  6
CONTINUOUS
 10
3.721080
 20
1.889360
  0
VERTEX
  8
0
  6
CONTINUOUS
 10
3.722840
 20
2.629440
  0
VERTEX
  8
0
  6
CONTINUOUS
 10
3.764640
 20
2.645720
  0
VERTEX
  8
0
  6
CONTINUOUS
 10
3.762880
 20
1.905640
  0
VERTEX
  8
0
  6
CONTINUOUS
 10
3.721080
 20
1.889360
  0
SEQEND
  8
0
  0
SOLID
  8
0
 62
    15
 10
3.762880
 20
1.905640
 11
3.764640
 21
2.645720
 12
3.787080
 22
1.907400
 13
3.788840
 23
2.647920
  0
POLYLINE
  8
0
  6
CONTINUOUS
 66
     1
 40
0.000000
 41
0.000000
  0
VERTEX
  8
0
  6
CONTINUOUS
 10
3.762880
 20
1.905640
  0
VERTEX
  8
0
  6
CONTINUOUS
 10
3.764640
 20
2.645720
  0
VERTEX
  8
0
  6
CONTINUOUS
 10
3.788840
 20
2.647920
  0
VERTEX
  8
0
  6
CONTINUOUS
 10
3.787080
 20
1.907400
  0
VERTEX
  8
0
  6
CONTINUOUS
 10
3.762880
 20
1.905640
  0
SEQEND
  8
0
  0
SOLID
  8
0
 62
    15
 10
3.787080
 20
1.907400
 11
3.788840
 21
2.647920
 12
3.813040
 22
1.904320
 13
3.814800
 23
2.644400
  0
POLYLINE
  8
0
  6
CONTINUOUS
 66
     1
 40
0.000000
 41
0.000000
  0
VERTEX
  8
0
  6
CONTINUOUS
 10
3.787080
 20
1.907400
  0
VERTEX
  8
0
  6
CONTINUOUS
 10
3.788840
 20
2.647920
  0
VERTEX
  8
0
  6
CONTINUOUS
 10
3.814800
 20
2.644400
  0
VERTEX
  8
0
  6
CONTINUOUS
 10
3.813040
 20
1.904320
  0
VERTEX
  8
0
  6
CONTINUOUS
 10
3.787080
 20
1.907400
  0
SEQEND
  8
0
  0
SOLID
  8
0
 62
    15
 10
3.813040
 20
1.904320
 11
3.814800
 21
2.644400
 12
3.841640
 22
1.895080
 13
3.843400
 23
2.635160
  0
POLYLINE
  8
0
  6
CONTINUOUS
 66
     1
 40
0.000000
 41
0.000000
  0
VERTEX
  8
0
  6
CONTINUOUS
 10
3.813040
 20
1.904320
  0
VERTEX
  8
0
  6
CONTINUOUS
 10
3.814800
 20
2.644400
  0
VERTEX
  8
0
  6
CONTINUOUS
 10
3.843400
 20
2.635160
  0
VERTEX
  8
0
  6
CONTINUOUS
 10
3.841640
 20
1.895080
  0
VERTEX
  8
0
  6
CONTINUOUS
 10
3.813040
 20
1.904320
  0
SEQEND
  8
0
  0
SOLID
  8
0
 62
    15
 10
3.841640
 20
1.895080
 11
3.843400
 21
2.635160
 12
3.872000
 22
1.878800
 13
3.873760
 23
2.618880
  0
POLYLINE
  8
0
  6
CONTINUOUS
 66
     1
 40
0.000000
 41
0.000000
  0
VERTEX
  8
0
  6
CONTINUOUS
 10
3.841640
 20
1.895080
  0
VERTEX
  8
0
  6
CONTINUOUS
 10
3.843400
 20
2.635160
  0
VERTEX
  8
0
  6
CONTINUOUS
 10
3.873760
 20
2.618880
  0
VERTEX
  8
0
  6
CONTINUOUS
 10
3.872000
 20
1.878800
  0
VERTEX
  8
0
  6
CONTINUOUS
 10
3.841640
 20
1.895080
  0
SEQEND
  8
0
  0
SOLID
  8
0
 62
    15
 10
3.067680
 20
1.926320
 11
3.069440
 21
2.666840
 12
3.555200
 22
1.926320
 13
3.556960
 23
2.666840
  0
POLYLINE
  8
0
  6
CONTINUOUS
 66
     1
 40
0.000000
 41
0.000000
  0
VERTEX
  8
0
  6
CONTINUOUS
 10
3.067680
 20
1.926320
  0
VERTEX
  8
0
  6
CONTINUOUS
 10
3.069440
 20
2.666840
  0
VERTEX
  8
0
  6
CONTINUOUS
 10
3.556960
 20
2.666840
  0
VERTEX
  8
0
  6
CONTINUOUS
 10
3.555200
 20
1.926320
  0
VERTEX
  8
0
  6
CONTINUOUS
 10
3.067680
 20
1.926320
  0
SEQEND
  8
0
  0
SOLID
  8
0
 62
    15
 10
3.904560
 20
1.855040
 11
3.906320
 21
2.595560
 12
3.938880
 22
1.823360
 13
3.941080
 23
2.563440
  0
POLYLINE
  8
0
  6
CONTINUOUS
 66
     1
 40
0.000000
 41
0.000000
  0
VERTEX
  8
0
  6
CONTINUOUS
 10
3.904560
 20
1.855040
  0
VERTEX
  8
0
  6
CONTINUOUS
 10
3.906320
 20
2.595560
  0
VERTEX
  8
0
  6
CONTINUOUS
 10
3.941080
 20
2.563440
  0
VERTEX
  8
0
  6
CONTINUOUS
 10
3.938880
 20
1.823360
  0
VERTEX
  8
0
  6
CONTINUOUS
 10
3.904560
 20
1.855040
  0
SEQEND
  8
0
  0
SOLID
  8
0
 62
    15
 10
3.938880
 20
1.823360
 11
3.941080
 21
2.563440
 12
4.005320
 22
1.756920
 13
4.007080
 23
2.497440
  0
POLYLINE
  8
0
  6
CONTINUOUS
 66
     1
 40
0.000000
 41
0.000000
  0
VERTEX
  8
0
  6
CONTINUOUS
 10
3.938880
 20
1.823360
  0
VERTEX
  8
0
  6
CONTINUOUS
 10
3.941080
 20
2.563440
  0
VERTEX
  8
0
  6
CONTINUOUS
 10
4.007080
 20
2.497440
  0
VERTEX
  8
0
  6
CONTINUOUS
 10
4.005320
 20
1.756920
  0
VERTEX
  8
0
  6
CONTINUOUS
 10
3.938880
 20
1.823360
  0
SEQEND
  8
0
  0
SOLID
  8
0
 62
    15
 10
4.005320
 20
1.756920
 11
4.007080
 21
2.497440
 12
4.063840
 22
1.703680
 13
4.065600
 23
2.443760
  0
POLYLINE
  8
0
  6
CONTINUOUS
 66
     1
 40
0.000000
 41
0.000000
  0
VERTEX
  8
0
  6
CONTINUOUS
 10
4.005320
 20
1.756920
  0
VERTEX
  8
0
  6
CONTINUOUS
 10
4.007080
 20
2.497440
  0
VERTEX
  8
0
  6
CONTINUOUS
 10
4.065600
 20
2.443760
  0
VERTEX
  8
0
  6
CONTINUOUS
 10
4.063840
 20
1.703680
  0
VERTEX
  8
0
  6
CONTINUOUS
 10
4.005320
 20
1.756920
  0
SEQEND
  8
0
  0
SOLID
  8
0
 62
    15
 10
4.063840
 20
1.703680
 11
4.065600
 21
2.443760
 12
4.117520
 22
1.661000
 13
4.119280
 23
2.401080
  0
POLYLINE
  8
0
  6
CONTINUOUS
 66
     1
 40
0.000000
 41
0.000000
  0
VERTEX
  8
0
  6
CONTINUOUS
 10
4.063840
 20
1.703680
  0
VERTEX
  8
0
  6
CONTINUOUS
 10
4.065600
 20
2.443760
  0
VERTEX
  8
0
  6
CONTINUOUS
 10
4.119280
 20
2.401080
  0
VERTEX
  8
0
  6
CONTINUOUS
 10
4.117520
 20
1.661000
  0
VERTEX
  8
0
  6
CONTINUOUS
 10
4.063840
 20
1.703680
  0
SEQEND
  8
0
  0
SOLID
  8
0
 62
    15
 10
4.117520
 20
1.661000
 11
4.119280
 21
2.401080
 12
4.169440
 22
1.627560
 13
4.171200
 23
2.367640
  0
POLYLINE
  8
0
  6
CONTINUOUS
 66
     1
 40
0.000000
 41
0.000000
  0
VERTEX
  8
0
  6
CONTINUOUS
 10
4.117520
 20
1.661000
  0
VERTEX
  8
0
  6
CONTINUOUS
 10
4.119280
 20
2.401080
  0
VERTEX
  8
0
  6
CONTINUOUS
 10
4.171200
 20
2.367640
  0
VERTEX
  8
0
  6
CONTINUOUS
 10
4.169440
 20
1.627560
  0
VERTEX
  8
0
  6
CONTINUOUS
 10
4.117520
 20
1.661000
  0
SEQEND
  8
0
  0
SOLID
  8
0
 62
    15
 10
4.211680
 20
0.908600
 11
4.213440
 21
1.649120
 12
4.211680
 22
0.906400
 13
4.213440
 23
1.646920
  0
POLYLINE
  8
0
  6
CONTINUOUS
 66
     1
 40
0.000000
 41
0.000000
  0
VERTEX
  8
0
  6
CONTINUOUS
 10
4.211680
 20
0.908600
  0
VERTEX
  8
0
  6
CONTINUOUS
 10
4.213440
 20
1.649120
  0
VERTEX
  8
0
  6
CONTINUOUS
 10
4.213440
 20
1.646920
  0
VERTEX
  8
0
  6
CONTINUOUS
 10
4.211680
 20
0.906400
  0
VERTEX
  8
0
  6
CONTINUOUS
 10
4.211680
 20
0.908600
  0
SEQEND
  8
0
  0
SOLID
  8
0
 62
    15
 10
4.253040
 20
1.338480
 11
4.255240
 21
2.079000
 12
4.253040
 22
0.908600
 13
4.255240
 23
1.649120
  0
POLYLINE
  8
0
  6
CONTINUOUS
 66
     1
 40
0.000000
 41
0.000000
  0
VERTEX
  8
0
  6
CONTINUOUS
 10
4.253040
 20
1.338480
  0
VERTEX
  8
0
  6
CONTINUOUS
 10
4.255240
 20
2.079000
  0
VERTEX
  8
0
  6
CONTINUOUS
 10
4.255240
 20
1.649120
  0
VERTEX
  8
0
  6
CONTINUOUS
 10
4.253040
 20
0.908600
  0
VERTEX
  8
0
  6
CONTINUOUS
 10
4.253040
 20
1.338480
  0
SEQEND
  8
0
  0
SOLID
  8
0
 62
    15
 10
4.279440
 20
1.583560
 11
4.281200
 21
2.323640
 12
4.343680
 22
1.569480
 13
4.345440
 23
2.309560
  0
POLYLINE
  8
0
  6
CONTINUOUS
 66
     1
 40
0.000000
 41
0.000000
  0
VERTEX
  8
0
  6
CONTINUOUS
 10
4.279440
 20
1.583560
  0
VERTEX
  8
0
  6
CONTINUOUS
 10
4.281200
 20
2.323640
  0
VERTEX
  8
0
  6
CONTINUOUS
 10
4.345440
 20
2.309560
  0
VERTEX
  8
0
  6
CONTINUOUS
 10
4.343680
 20
1.569480
  0
VERTEX
  8
0
  6
CONTINUOUS
 10
4.279440
 20
1.583560
  0
SEQEND
  8
0
  0
SOLID
  8
0
 62
    15
 10
4.418040
 20
1.558920
 11
4.419800
 21
2.299000
 12
4.418040
 22
1.338480
 13
4.419800
 23
2.079000
  0
POLYLINE
  8
0
  6
CONTINUOUS
 66
     1
 40
0.000000
 41
0.000000
  0
VERTEX
  8
0
  6
CONTINUOUS
 10
4.418040
 20
1.558920
  0
VERTEX
  8
0
  6
CONTINUOUS
 10
4.419800
 20
2.299000
  0
VERTEX
  8
0
  6
CONTINUOUS
 10
4.419800
 20
2.079000
  0
VERTEX
  8
0
  6
CONTINUOUS
 10
4.418040
 20
1.338480
  0
VERTEX
  8
0
  6
CONTINUOUS
 10
4.418040
 20
1.558920
  0
SEQEND
  8
0
  0
SOLID
  8
0
 62
    15
 10
4.343680
 20
1.569480
 11
4.345440
 21
2.309560
 12
4.418040
 22
1.558920
 13
4.419800
 23
2.299000
  0
POLYLINE
  8
0
  6
CONTINUOUS
 66
     1
 40
0.000000
 41
0.000000
  0
VERTEX
  8
0
  6
CONTINUOUS
 10
4.343680
 20
1.569480
  0
VERTEX
  8
0
  6
CONTINUOUS
 10
4.345440
 20
2.309560
  0
VERTEX
  8
0
  6
CONTINUOUS
 10
4.419800
 20
2.299000
  0
VERTEX
  8
0
  6
CONTINUOUS
 10
4.418040
 20
1.558920
  0
VERTEX
  8
0
  6
CONTINUOUS
 10
4.343680
 20
1.569480
  0
SEQEND
  8
0
  0
SOLID
  8
0
 62
    15
 10
4.222240
 20
1.602040
 11
4.224000
 21
2.342560
 12
4.279440
 22
1.583560
 13
4.281200
 23
2.323640
  0
POLYLINE
  8
0
  6
CONTINUOUS
 66
     1
 40
0.000000
 41
0.000000
  0
VERTEX
  8
0
  6
CONTINUOUS
 10
4.222240
 20
1.602040
  0
VERTEX
  8
0
  6
CONTINUOUS
 10
4.224000
 20
2.342560
  0
VERTEX
  8
0
  6
CONTINUOUS
 10
4.281200
 20
2.323640
  0
VERTEX
  8
0
  6
CONTINUOUS
 10
4.279440
 20
1.583560
  0
VERTEX
  8
0
  6
CONTINUOUS
 10
4.222240
 20
1.602040
  0
SEQEND
  8
0
  0
SOLID
  8
0
 62
    15
 10
4.169440
 20
1.627560
 11
4.171200
 21
2.367640
 12
4.222240
 22
1.602040
 13
4.224000
 23
2.342560
  0
POLYLINE
  8
0
  6
CONTINUOUS
 66
     1
 40
0.000000
 41
0.000000
  0
VERTEX
  8
0
  6
CONTINUOUS
 10
4.169440
 20
1.627560
  0
VERTEX
  8
0
  6
CONTINUOUS
 10
4.171200
 20
2.367640
  0
VERTEX
  8
0
  6
CONTINUOUS
 10
4.224000
 20
2.342560
  0
VERTEX
  8
0
  6
CONTINUOUS
 10
4.222240
 20
1.602040
  0
VERTEX
  8
0
  6
CONTINUOUS
 10
4.169440
 20
1.627560
  0
SEQEND
  8
0
  0
POLYLINE
  8
0
  6
CONTINUOUS
 66
     1
 40
0.000000
 41
0.000000
  0
VERTEX
  8
0
  6
CONTINUOUS
 10
4.211680
 20
0.906400
  0
VERTEX
  8
0
  6
CONTINUOUS
 10
3.067680
 20
0.906400
  0
VERTEX
  8
0
  6
CONTINUOUS
 10
3.067680
 20
1.926320
  0
VERTEX
  8
0
  6
CONTINUOUS
 10
3.555200
 20
1.926320
  0
VERTEX
  8
0
  6
CONTINUOUS
 10
3.571480
 20
1.818960
  0
VERTEX
  8
0
  6
CONTINUOUS
 10
3.578960
 20
1.769240
  0
VERTEX
  8
0
  6
CONTINUOUS
 10
3.645840
 20
1.769680
  0
VERTEX
  8
0
  6
CONTINUOUS
 10
3.650680
 20
1.795200
  0
VERTEX
  8
0
  6
CONTINUOUS
 10
3.664760
 20
1.827760
  0
VERTEX
  8
0
  6
CONTINUOUS
 10
3.688520
 20
1.861200
  0
VERTEX
  8
0
  6
CONTINUOUS
 10
3.721080
 20
1.889360
  0
VERTEX
  8
0
  6
CONTINUOUS
 10
3.762880
 20
1.905640
  0
VERTEX
  8
0
  6
CONTINUOUS
 10
3.787080
 20
1.907400
  0
VERTEX
  8
0
  6
CONTINUOUS
 10
3.813040
 20
1.904320
  0
VERTEX
  8
0
  6
CONTINUOUS
 10
3.841640
 20
1.895080
  0
VERTEX
  8
0
  6
CONTINUOUS
 10
3.872000
 20
1.878800
  0
VERTEX
  8
0
  6
CONTINUOUS
 10
3.904560
 20
1.855040
  0
VERTEX
  8
0
  6
CONTINUOUS
 10
3.938880
 20
1.823360
  0
VERTEX
  8
0
  6
CONTINUOUS
 10
4.005320
 20
1.756920
  0
VERTEX
  8
0
  6
CONTINUOUS
 10
4.063840
 20
1.703680
  0
VERTEX
  8
0
  6
CONTINUOUS
 10
4.117520
 20
1.661000
  0
VERTEX
  8
0
  6
CONTINUOUS
 10
4.169440
 20
1.627560
  0
VERTEX
  8
0
  6
CONTINUOUS
 10
4.222240
 20
1.602040
  0
VERTEX
  8
0
  6
CONTINUOUS
 10
4.279440
 20
1.583560
  0
VERTEX
  8
0
  6
CONTINUOUS
 10
4.343680
 20
1.569480
  0
VERTEX
  8
0
  6
CONTINUOUS
 10
4.418040
 20
1.558920
  0
VERTEX
  8
0
  6
CONTINUOUS
 10
4.418040
 20
1.338480
  0
VERTEX
  8
0
  6
CONTINUOUS
 10
4.253040
 20
1.338480
  0
VERTEX
  8
0
  6
CONTINUOUS
 10
4.253040
 20
0.908600
  0
VERTEX
  8
0
  6
CONTINUOUS
 10
4.211680
 20
0.908600
  0
VERTEX
  8
0
  6
CONTINUOUS
 10
4.211680
 20
0.906400
  0
SEQEND
  8
0
  0
TEXT
  8
0
 10
3.150840
 20
1.000120
 40
0.138105
  1
680
 41
1.000000
  7
SN0
 71
     0
 72
     5
 11
3.427858
 21
1.000120
  0
TEXT
  8
0
 10
4.330480
 20
1.000120
 40
0.138105
  1
676
 41
1.000000
  7
SN0
 71
     0
 72
     5
 11
4.607498
 21
1.000120
  0
ENDSEC
  0
EOF
