  0
SECTION
  2
HEADER
  9
$ACADVER
  1
AC1006
  9
$EXTMIN
 10
4.304520
 20
0.558360
  9
$EXTMAX
 10
7.270560
 20
2.790920
  9
$LTSCALE
 40
0.044000
  9
$PDMODE
 70
    35
  9
$PDSIZE
 40
0.035200
  0
ENDSEC
  0
SECTION
  2
TABLES
  0
TABLE
  2
LTYPE
 70
     9
  0
LTYPE
  2
CONTINUOUS
 70
    64
  3
Solid line
 72
    65
 73
     0
 40
0.000000
  0
LTYPE
  2
DASHED
 70
    64
  3
__ __ __ __ __ __ __ __ __ __ __ __ __ __ __
 72
    65
 73
     2
 40
0.000330
 49
0.000220
 49
-0.000110
  0
LTYPE
  2
HIDDEN
 70
    64
  3
 _ _ _ _ _ _ _ _ _ _ _ _ _ _ _ _ _ _ _ _ _ _
 72
    65
 73
     2
 40
0.000165
 49
0.000110
 49
-0.000055
  0
LTYPE
  2
CENTER
 70
    64
  3
____ _ ____ _ ____ _ ____ _ ____ _ ____ _ ____
 72
    65
 73
     4
 40
0.000880
 49
0.000550
 49
-0.000110
 49
0.000110
 49
-0.000110
  0
LTYPE
  2
PHANTOM
 70
    64
  3
_____ _ _ _____ _ _ _____ _ _ _____ _ _ ____
 72
    65
 73
     6
 40
0.001100
 49
0.000550
 49
-0.000110
 49
0.000110
 49
-0.000110
 49
0.000110
 49
-0.000110
  0
LTYPE
  2
DOT
 70
    64
  3
...............................................
 72
    65
 73
     2
 40
0.000110
 49
0.000000
 49
-0.000110
  0
LTYPE
  2
DASHDOT
 70
    64
  3
__ . __ . __ . __ . __ . __ . __ . __ . __ . __
 72
    65
 73
     4
 40
0.000440
 49
0.000220
 49
-0.000110
 49
0.000000
 49
-0.000110
  0
LTYPE
  2
BORDER
 70
    64
  3
__ __ . __ __ . __ __ . __ __ . __ __ . __ __
 72
    65
 73
     6
 40
0.000770
 49
0.000220
 49
-0.000110
 49
0.000220
 49
-0.000110
 49
0.000000
 49
-0.000110
  0
LTYPE
  2
DIVIDE
 70
    64
  3
__ . . __ . . __ . . __ . . __ . . __ . . __
 72
    65
 73
     6
 40
0.000550
 49
0.000220
 49
-0.000110
 49
0.000000
 49
-0.000110
 49
0.000000
 49
-0.000110
  0
LTYPE
  2
DOTDOT
 70
    64
  3
 . .  . .  . .  . .  . .  . . 
 72
    65
 73
     5
 40
0.000242
 49
-0.000110
 49
0.000000
 49
-0.000110
 49
0.000000
 49
-0.000110
  0
ENDTAB
  0
TABLE
  2
STYLE
 70
     2
  0
STYLE
 70
     0
  2
SN0
 40
0.000000
 41
0.000440
 50
0.000000
 71
     0
 42
0.000000
  3
ROMAND
  0
STYLE
 70
    68
  2
SV0
 40
0.000000
 41
0.000440
 50
0.000000
 71
     0
 42
0.000000
  3
ROMAND
  0
ENDTAB
  0
TABLE
  2
LAYER
 70
     3
  0
LAYER
  2
FOREGROUND
 70
    64
 62
     7
  6
CONTINUOUS
  0
LAYER
  2
BACKGROUND
 70
    65
 62
    -7
  6
CONTINUOUS
  0
LAYER
  2
0
 70
    64
 62
     7
  6
CONTINUOUS
  0
ENDTAB
  0
ENDSEC
  0
SECTION
  2
ENTITIES
  0
POLYLINE
  8
FOREGROUND
  6
CONTINUOUS
 66
     1
 40
0.000000
 41
0.000000
  0
VERTEX
  8
FOREGROUND
  6
CONTINUOUS
 10
0.000000
 20
3.349280
  0
VERTEX
  8
FOREGROUND
  6
CONTINUOUS
 10
8.499920
 20
3.349280
  0
VERTEX
  8
FOREGROUND
  6
CONTINUOUS
 10
8.499920
 20
-7.650720
  0
VERTEX
  8
FOREGROUND
  6
CONTINUOUS
 10
0.000000
 20
-7.650720
  0
VERTEX
  8
FOREGROUND
  6
CONTINUOUS
 10
0.000000
 20
3.349280
  0
SEQEND
  8
0
  0
POLYLINE
  8
FOREGROUND
  6
CONTINUOUS
 66
     1
 40
0.000000
 41
0.000000
  0
VERTEX
  8
FOREGROUND
  6
CONTINUOUS
 10
0.000000
 20
3.349280
  0
VERTEX
  8
FOREGROUND
  6
CONTINUOUS
 10
8.499920
 20
3.349280
  0
VERTEX
  8
FOREGROUND
  6
CONTINUOUS
 10
8.499920
 20
-7.650720
  0
VERTEX
  8
FOREGROUND
  6
CONTINUOUS
 10
0.000000
 20
-7.650720
  0
VERTEX
  8
FOREGROUND
  6
CONTINUOUS
 10
0.000000
 20
3.349280
  0
SEQEND
  8
0
  0
POLYLINE
  8
0
  6
CONTINUOUS
 66
     1
 40
0.014080
 41
0.014080
  0
VERTEX
  8
0
  6
CONTINUOUS
 10
7.261320
 20
2.511080
  0
VERTEX
  8
0
  6
CONTINUOUS
 10
7.043080
 20
2.511080
  0
VERTEX
  8
0
  6
CONTINUOUS
 10
7.043080
 20
2.480720
  0
VERTEX
  8
0
  6
CONTINUOUS
 10
7.038680
 20
2.423960
  0
VERTEX
  8
0
  6
CONTINUOUS
 10
7.029440
 20
2.371160
  0
VERTEX
  8
0
  6
CONTINUOUS
 10
7.015800
 20
2.323200
  0
VERTEX
  8
0
  6
CONTINUOUS
 10
6.998640
 20
2.279200
  0
VERTEX
  8
0
  6
CONTINUOUS
 10
6.978400
 20
2.239160
  0
VERTEX
  8
0
  6
CONTINUOUS
 10
6.943640
 20
2.185920
  0
VERTEX
  8
0
  6
CONTINUOUS
 10
6.918560
 20
2.154680
  0
VERTEX
  8
0
  6
CONTINUOUS
 10
6.878960
 20
2.114200
  0
VERTEX
  8
0
  6
CONTINUOUS
 10
6.827480
 20
2.070200
  0
VERTEX
  8
0
  6
CONTINUOUS
 10
6.723640
 20
1.994520
  0
VERTEX
  8
0
  6
CONTINUOUS
 10
6.676120
 20
1.951400
  0
VERTEX
  8
0
  6
CONTINUOUS
 10
6.629920
 20
1.901680
  0
VERTEX
  8
0
  6
CONTINUOUS
 10
6.581960
 20
1.837880
  0
VERTEX
  8
0
  6
CONTINUOUS
 10
6.547640
 20
1.781120
  0
VERTEX
  8
0
  6
CONTINUOUS
 10
6.526080
 20
1.738880
  0
VERTEX
  8
0
  6
CONTINUOUS
 10
6.506720
 20
1.692680
  0
VERTEX
  8
0
  6
CONTINUOUS
 10
6.490000
 20
1.642960
  0
VERTEX
  8
0
  6
CONTINUOUS
 10
6.476360
 20
1.589720
  0
VERTEX
  8
0
  6
CONTINUOUS
 10
6.466240
 20
1.532520
  0
VERTEX
  8
0
  6
CONTINUOUS
 10
6.460520
 20
1.471800
  0
VERTEX
  8
0
  6
CONTINUOUS
 10
6.459640
 20
1.407120
  0
VERTEX
  8
0
  6
CONTINUOUS
 10
6.268680
 20
1.407120
  0
VERTEX
  8
0
  6
CONTINUOUS
 10
6.268680
 20
2.783440
  0
VERTEX
  8
0
  6
CONTINUOUS
 10
7.263520
 20
2.783440
  0
VERTEX
  8
0
  6
CONTINUOUS
 10
7.263520
 20
2.511080
  0
VERTEX
  8
0
  6
CONTINUOUS
 10
7.261320
 20
2.511080
  0
SEQEND
  8
0
  0
SOLID
  8
0
 62
    15
 10
4.774440
 20
1.627120
 11
5.407600
 21
1.998480
 12
4.742760
 22
1.600720
 13
5.375920
 23
1.972080
  0
POLYLINE
  8
0
  6
CONTINUOUS
 66
     1
 40
0.000000
 41
0.000000
  0
VERTEX
  8
0
  6
CONTINUOUS
 10
4.774440
 20
1.627120
  0
VERTEX
  8
0
  6
CONTINUOUS
 10
5.407600
 20
1.998480
  0
VERTEX
  8
0
  6
CONTINUOUS
 10
5.375920
 20
1.972080
  0
VERTEX
  8
0
  6
CONTINUOUS
 10
4.742760
 20
1.600720
  0
VERTEX
  8
0
  6
CONTINUOUS
 10
4.774440
 20
1.627120
  0
SEQEND
  8
0
  0
SOLID
  8
0
 62
    15
 10
5.077600
 20
2.073280
 11
5.710320
 21
2.444200
 12
5.070560
 22
2.018280
 13
5.703720
 23
2.389640
  0
POLYLINE
  8
0
  6
CONTINUOUS
 66
     1
 40
0.000000
 41
0.000000
  0
VERTEX
  8
0
  6
CONTINUOUS
 10
5.077600
 20
2.073280
  0
VERTEX
  8
0
  6
CONTINUOUS
 10
5.710320
 20
2.444200
  0
VERTEX
  8
0
  6
CONTINUOUS
 10
5.703720
 20
2.389640
  0
VERTEX
  8
0
  6
CONTINUOUS
 10
5.070560
 20
2.018280
  0
VERTEX
  8
0
  6
CONTINUOUS
 10
5.077600
 20
2.073280
  0
SEQEND
  8
0
  0
SOLID
  8
0
 62
    15
 10
5.070560
 20
2.018280
 11
5.703720
 21
2.389640
 12
5.059120
 22
1.968120
 13
5.692280
 23
2.339480
  0
POLYLINE
  8
0
  6
CONTINUOUS
 66
     1
 40
0.000000
 41
0.000000
  0
VERTEX
  8
0
  6
CONTINUOUS
 10
5.070560
 20
2.018280
  0
VERTEX
  8
0
  6
CONTINUOUS
 10
5.703720
 20
2.389640
  0
VERTEX
  8
0
  6
CONTINUOUS
 10
5.692280
 20
2.339480
  0
VERTEX
  8
0
  6
CONTINUOUS
 10
5.059120
 20
1.968120
  0
VERTEX
  8
0
  6
CONTINUOUS
 10
5.070560
 20
2.018280
  0
SEQEND
  8
0
  0
SOLID
  8
0
 62
    15
 10
5.059120
 20
1.968120
 11
5.692280
 21
2.339480
 12
5.043720
 22
1.921920
 13
5.676880
 23
2.293280
  0
POLYLINE
  8
0
  6
CONTINUOUS
 66
     1
 40
0.000000
 41
0.000000
  0
VERTEX
  8
0
  6
CONTINUOUS
 10
5.059120
 20
1.968120
  0
VERTEX
  8
0
  6
CONTINUOUS
 10
5.692280
 20
2.339480
  0
VERTEX
  8
0
  6
CONTINUOUS
 10
5.676880
 20
2.293280
  0
VERTEX
  8
0
  6
CONTINUOUS
 10
5.043720
 20
1.921920
  0
VERTEX
  8
0
  6
CONTINUOUS
 10
5.059120
 20
1.968120
  0
SEQEND
  8
0
  0
SOLID
  8
0
 62
    15
 10
5.043720
 20
1.921920
 11
5.676880
 21
2.293280
 12
5.024800
 22
1.880120
 13
5.657960
 23
2.251040
  0
POLYLINE
  8
0
  6
CONTINUOUS
 66
     1
 40
0.000000
 41
0.000000
  0
VERTEX
  8
0
  6
CONTINUOUS
 10
5.043720
 20
1.921920
  0
VERTEX
  8
0
  6
CONTINUOUS
 10
5.676880
 20
2.293280
  0
VERTEX
  8
0
  6
CONTINUOUS
 10
5.657960
 20
2.251040
  0
VERTEX
  8
0
  6
CONTINUOUS
 10
5.024800
 20
1.880120
  0
VERTEX
  8
0
  6
CONTINUOUS
 10
5.043720
 20
1.921920
  0
SEQEND
  8
0
  0
SOLID
  8
0
 62
    15
 10
5.024800
 20
1.880120
 11
5.657960
 21
2.251040
 12
5.003240
 22
1.841840
 13
5.636400
 23
2.213200
  0
POLYLINE
  8
0
  6
CONTINUOUS
 66
     1
 40
0.000000
 41
0.000000
  0
VERTEX
  8
0
  6
CONTINUOUS
 10
5.024800
 20
1.880120
  0
VERTEX
  8
0
  6
CONTINUOUS
 10
5.657960
 20
2.251040
  0
VERTEX
  8
0
  6
CONTINUOUS
 10
5.636400
 20
2.213200
  0
VERTEX
  8
0
  6
CONTINUOUS
 10
5.003240
 20
1.841840
  0
VERTEX
  8
0
  6
CONTINUOUS
 10
5.024800
 20
1.880120
  0
SEQEND
  8
0
  0
SOLID
  8
0
 62
    15
 10
5.003240
 20
1.841840
 11
5.636400
 21
2.213200
 12
4.954400
 22
1.776280
 13
5.587560
 23
2.147200
  0
POLYLINE
  8
0
  6
CONTINUOUS
 66
     1
 40
0.000000
 41
0.000000
  0
VERTEX
  8
0
  6
CONTINUOUS
 10
5.003240
 20
1.841840
  0
VERTEX
  8
0
  6
CONTINUOUS
 10
5.636400
 20
2.213200
  0
VERTEX
  8
0
  6
CONTINUOUS
 10
5.587560
 20
2.147200
  0
VERTEX
  8
0
  6
CONTINUOUS
 10
4.954400
 20
1.776280
  0
VERTEX
  8
0
  6
CONTINUOUS
 10
5.003240
 20
1.841840
  0
SEQEND
  8
0
  0
SOLID
  8
0
 62
    15
 10
4.954400
 20
1.776280
 11
5.587560
 21
2.147200
 12
4.902040
 22
1.723480
 13
5.535200
 23
2.094400
  0
POLYLINE
  8
0
  6
CONTINUOUS
 66
     1
 40
0.000000
 41
0.000000
  0
VERTEX
  8
0
  6
CONTINUOUS
 10
4.954400
 20
1.776280
  0
VERTEX
  8
0
  6
CONTINUOUS
 10
5.587560
 20
2.147200
  0
VERTEX
  8
0
  6
CONTINUOUS
 10
5.535200
 20
2.094400
  0
VERTEX
  8
0
  6
CONTINUOUS
 10
4.902040
 20
1.723480
  0
VERTEX
  8
0
  6
CONTINUOUS
 10
4.954400
 20
1.776280
  0
SEQEND
  8
0
  0
SOLID
  8
0
 62
    15
 10
4.902040
 20
1.723480
 11
5.535200
 21
2.094400
 12
4.851440
 22
1.682120
 13
5.484160
 23
2.053040
  0
POLYLINE
  8
0
  6
CONTINUOUS
 66
     1
 40
0.000000
 41
0.000000
  0
VERTEX
  8
0
  6
CONTINUOUS
 10
4.902040
 20
1.723480
  0
VERTEX
  8
0
  6
CONTINUOUS
 10
5.535200
 20
2.094400
  0
VERTEX
  8
0
  6
CONTINUOUS
 10
5.484160
 20
2.053040
  0
VERTEX
  8
0
  6
CONTINUOUS
 10
4.851440
 20
1.682120
  0
VERTEX
  8
0
  6
CONTINUOUS
 10
4.902040
 20
1.723480
  0
SEQEND
  8
0
  0
SOLID
  8
0
 62
    15
 10
4.851440
 20
1.682120
 11
5.484160
 21
2.053040
 12
4.807440
 22
1.650440
 13
5.440160
 23
2.021800
  0
POLYLINE
  8
0
  6
CONTINUOUS
 66
     1
 40
0.000000
 41
0.000000
  0
VERTEX
  8
0
  6
CONTINUOUS
 10
4.851440
 20
1.682120
  0
VERTEX
  8
0
  6
CONTINUOUS
 10
5.484160
 20
2.053040
  0
VERTEX
  8
0
  6
CONTINUOUS
 10
5.440160
 20
2.021800
  0
VERTEX
  8
0
  6
CONTINUOUS
 10
4.807440
 20
1.650440
  0
VERTEX
  8
0
  6
CONTINUOUS
 10
4.851440
 20
1.682120
  0
SEQEND
  8
0
  0
SOLID
  8
0
 62
    15
 10
4.807440
 20
1.650440
 11
5.440160
 21
2.021800
 12
4.788960
 22
1.637680
 13
5.422120
 23
2.009040
  0
POLYLINE
  8
0
  6
CONTINUOUS
 66
     1
 40
0.000000
 41
0.000000
  0
VERTEX
  8
0
  6
CONTINUOUS
 10
4.807440
 20
1.650440
  0
VERTEX
  8
0
  6
CONTINUOUS
 10
5.440160
 20
2.021800
  0
VERTEX
  8
0
  6
CONTINUOUS
 10
5.422120
 20
2.009040
  0
VERTEX
  8
0
  6
CONTINUOUS
 10
4.788960
 20
1.637680
  0
VERTEX
  8
0
  6
CONTINUOUS
 10
4.807440
 20
1.650440
  0
SEQEND
  8
0
  0
SOLID
  8
0
 62
    15
 10
4.788960
 20
1.637680
 11
5.422120
 21
2.009040
 12
4.774440
 22
1.627120
 13
5.407600
 23
1.998480
  0
POLYLINE
  8
0
  6
CONTINUOUS
 66
     1
 40
0.000000
 41
0.000000
  0
VERTEX
  8
0
  6
CONTINUOUS
 10
4.788960
 20
1.637680
  0
VERTEX
  8
0
  6
CONTINUOUS
 10
5.422120
 20
2.009040
  0
VERTEX
  8
0
  6
CONTINUOUS
 10
5.407600
 20
1.998480
  0
VERTEX
  8
0
  6
CONTINUOUS
 10
4.774440
 20
1.627120
  0
VERTEX
  8
0
  6
CONTINUOUS
 10
4.788960
 20
1.637680
  0
SEQEND
  8
0
  0
SOLID
  8
0
 62
    15
 10
5.079360
 20
2.132680
 11
5.712080
 21
2.503600
 12
5.077600
 22
2.073280
 13
5.710320
 23
2.444200
  0
POLYLINE
  8
0
  6
CONTINUOUS
 66
     1
 40
0.000000
 41
0.000000
  0
VERTEX
  8
0
  6
CONTINUOUS
 10
5.079360
 20
2.132680
  0
VERTEX
  8
0
  6
CONTINUOUS
 10
5.712080
 20
2.503600
  0
VERTEX
  8
0
  6
CONTINUOUS
 10
5.710320
 20
2.444200
  0
VERTEX
  8
0
  6
CONTINUOUS
 10
5.077600
 20
2.073280
  0
VERTEX
  8
0
  6
CONTINUOUS
 10
5.079360
 20
2.132680
  0
SEQEND
  8
0
  0
SOLID
  8
0
 62
    15
 10
4.742760
 20
1.600720
 11
5.375920
 21
1.972080
 12
4.701400
 22
1.561120
 13
5.334120
 23
1.932480
  0
POLYLINE
  8
0
  6
CONTINUOUS
 66
     1
 40
0.000000
 41
0.000000
  0
VERTEX
  8
0
  6
CONTINUOUS
 10
4.742760
 20
1.600720
  0
VERTEX
  8
0
  6
CONTINUOUS
 10
5.375920
 20
1.972080
  0
VERTEX
  8
0
  6
CONTINUOUS
 10
5.334120
 20
1.932480
  0
VERTEX
  8
0
  6
CONTINUOUS
 10
4.701400
 20
1.561120
  0
VERTEX
  8
0
  6
CONTINUOUS
 10
4.742760
 20
1.600720
  0
SEQEND
  8
0
  0
SOLID
  8
0
 62
    15
 10
4.701400
 20
1.561120
 11
5.334120
 21
1.932480
 12
4.654320
 22
1.507880
 13
5.287040
 23
1.879240
  0
POLYLINE
  8
0
  6
CONTINUOUS
 66
     1
 40
0.000000
 41
0.000000
  0
VERTEX
  8
0
  6
CONTINUOUS
 10
4.701400
 20
1.561120
  0
VERTEX
  8
0
  6
CONTINUOUS
 10
5.334120
 20
1.932480
  0
VERTEX
  8
0
  6
CONTINUOUS
 10
5.287040
 20
1.879240
  0
VERTEX
  8
0
  6
CONTINUOUS
 10
4.654320
 20
1.507880
  0
VERTEX
  8
0
  6
CONTINUOUS
 10
4.701400
 20
1.561120
  0
SEQEND
  8
0
  0
SOLID
  8
0
 62
    15
 10
4.654320
 20
1.507880
 11
5.287040
 21
1.879240
 12
4.606360
 22
1.441000
 13
5.239520
 23
1.812360
  0
POLYLINE
  8
0
  6
CONTINUOUS
 66
     1
 40
0.000000
 41
0.000000
  0
VERTEX
  8
0
  6
CONTINUOUS
 10
4.654320
 20
1.507880
  0
VERTEX
  8
0
  6
CONTINUOUS
 10
5.287040
 20
1.879240
  0
VERTEX
  8
0
  6
CONTINUOUS
 10
5.239520
 20
1.812360
  0
VERTEX
  8
0
  6
CONTINUOUS
 10
4.606360
 20
1.441000
  0
VERTEX
  8
0
  6
CONTINUOUS
 10
4.654320
 20
1.507880
  0
SEQEND
  8
0
  0
SOLID
  8
0
 62
    15
 10
4.606360
 20
1.441000
 11
5.239520
 21
1.812360
 12
4.562360
 22
1.360040
 13
5.195080
 23
1.731400
  0
POLYLINE
  8
0
  6
CONTINUOUS
 66
     1
 40
0.000000
 41
0.000000
  0
VERTEX
  8
0
  6
CONTINUOUS
 10
4.606360
 20
1.441000
  0
VERTEX
  8
0
  6
CONTINUOUS
 10
5.239520
 20
1.812360
  0
VERTEX
  8
0
  6
CONTINUOUS
 10
5.195080
 20
1.731400
  0
VERTEX
  8
0
  6
CONTINUOUS
 10
4.562360
 20
1.360040
  0
VERTEX
  8
0
  6
CONTINUOUS
 10
4.606360
 20
1.441000
  0
SEQEND
  8
0
  0
SOLID
  8
0
 62
    15
 10
4.562360
 20
1.360040
 11
5.195080
 21
1.731400
 12
4.526280
 22
1.264560
 13
5.159000
 23
1.635480
  0
POLYLINE
  8
0
  6
CONTINUOUS
 66
     1
 40
0.000000
 41
0.000000
  0
VERTEX
  8
0
  6
CONTINUOUS
 10
4.562360
 20
1.360040
  0
VERTEX
  8
0
  6
CONTINUOUS
 10
5.195080
 20
1.731400
  0
VERTEX
  8
0
  6
CONTINUOUS
 10
5.159000
 20
1.635480
  0
VERTEX
  8
0
  6
CONTINUOUS
 10
4.526280
 20
1.264560
  0
VERTEX
  8
0
  6
CONTINUOUS
 10
4.562360
 20
1.360040
  0
SEQEND
  8
0
  0
SOLID
  8
0
 62
    15
 10
4.526280
 20
1.264560
 11
5.159000
 21
1.635480
 12
4.512640
 22
1.210880
 13
5.145360
 23
1.582240
  0
POLYLINE
  8
0
  6
CONTINUOUS
 66
     1
 40
0.000000
 41
0.000000
  0
VERTEX
  8
0
  6
CONTINUOUS
 10
4.526280
 20
1.264560
  0
VERTEX
  8
0
  6
CONTINUOUS
 10
5.159000
 20
1.635480
  0
VERTEX
  8
0
  6
CONTINUOUS
 10
5.145360
 20
1.582240
  0
VERTEX
  8
0
  6
CONTINUOUS
 10
4.512640
 20
1.210880
  0
VERTEX
  8
0
  6
CONTINUOUS
 10
4.526280
 20
1.264560
  0
SEQEND
  8
0
  0
SOLID
  8
0
 62
    15
 10
4.512640
 20
1.210880
 11
5.145360
 21
1.582240
 12
4.502520
 22
1.154120
 13
5.135240
 23
1.525040
  0
POLYLINE
  8
0
  6
CONTINUOUS
 66
     1
 40
0.000000
 41
0.000000
  0
VERTEX
  8
0
  6
CONTINUOUS
 10
4.512640
 20
1.210880
  0
VERTEX
  8
0
  6
CONTINUOUS
 10
5.145360
 20
1.582240
  0
VERTEX
  8
0
  6
CONTINUOUS
 10
5.135240
 20
1.525040
  0
VERTEX
  8
0
  6
CONTINUOUS
 10
4.502520
 20
1.154120
  0
VERTEX
  8
0
  6
CONTINUOUS
 10
4.512640
 20
1.210880
  0
SEQEND
  8
0
  0
SOLID
  8
0
 62
    15
 10
4.502520
 20
1.154120
 11
5.135240
 21
1.525040
 12
4.496800
 22
1.093400
 13
5.129520
 23
1.464320
  0
POLYLINE
  8
0
  6
CONTINUOUS
 66
     1
 40
0.000000
 41
0.000000
  0
VERTEX
  8
0
  6
CONTINUOUS
 10
4.502520
 20
1.154120
  0
VERTEX
  8
0
  6
CONTINUOUS
 10
5.135240
 20
1.525040
  0
VERTEX
  8
0
  6
CONTINUOUS
 10
5.129520
 20
1.464320
  0
VERTEX
  8
0
  6
CONTINUOUS
 10
4.496800
 20
1.093400
  0
VERTEX
  8
0
  6
CONTINUOUS
 10
4.502520
 20
1.154120
  0
SEQEND
  8
0
  0
SOLID
  8
0
 62
    15
 10
4.496800
 20
1.093400
 11
5.129520
 21
1.464320
 12
4.495920
 22
1.028720
 13
5.128640
 23
1.399640
  0
POLYLINE
  8
0
  6
CONTINUOUS
 66
     1
 40
0.000000
 41
0.000000
  0
VERTEX
  8
0
  6
CONTINUOUS
 10
4.496800
 20
1.093400
  0
VERTEX
  8
0
  6
CONTINUOUS
 10
5.129520
 20
1.464320
  0
VERTEX
  8
0
  6
CONTINUOUS
 10
5.128640
 20
1.399640
  0
VERTEX
  8
0
  6
CONTINUOUS
 10
4.495920
 20
1.028720
  0
VERTEX
  8
0
  6
CONTINUOUS
 10
4.496800
 20
1.093400
  0
SEQEND
  8
0
  0
SOLID
  8
0
 62
    15
 10
4.304960
 20
2.404600
 11
4.938120
 21
2.775960
 12
5.299800
 22
2.404600
 13
5.932520
 23
2.775960
  0
POLYLINE
  8
0
  6
CONTINUOUS
 66
     1
 40
0.000000
 41
0.000000
  0
VERTEX
  8
0
  6
CONTINUOUS
 10
4.304960
 20
2.404600
  0
VERTEX
  8
0
  6
CONTINUOUS
 10
4.938120
 20
2.775960
  0
VERTEX
  8
0
  6
CONTINUOUS
 10
5.932520
 20
2.775960
  0
VERTEX
  8
0
  6
CONTINUOUS
 10
5.299800
 20
2.404600
  0
VERTEX
  8
0
  6
CONTINUOUS
 10
4.304960
 20
2.404600
  0
SEQEND
  8
0
  0
SOLID
  8
0
 62
    15
 10
5.299800
 20
2.404600
 11
5.932520
 21
2.775960
 12
5.299800
 22
2.132680
 13
5.932520
 23
2.503600
  0
POLYLINE
  8
0
  6
CONTINUOUS
 66
     1
 40
0.000000
 41
0.000000
  0
VERTEX
  8
0
  6
CONTINUOUS
 10
5.299800
 20
2.404600
  0
VERTEX
  8
0
  6
CONTINUOUS
 10
5.932520
 20
2.775960
  0
VERTEX
  8
0
  6
CONTINUOUS
 10
5.932520
 20
2.503600
  0
VERTEX
  8
0
  6
CONTINUOUS
 10
5.299800
 20
2.132680
  0
VERTEX
  8
0
  6
CONTINUOUS
 10
5.299800
 20
2.404600
  0
SEQEND
  8
0
  0
POLYLINE
  8
0
  6
CONTINUOUS
 66
     1
 40
0.000000
 41
0.000000
  0
VERTEX
  8
0
  6
CONTINUOUS
 10
5.297600
 20
2.132680
  0
VERTEX
  8
0
  6
CONTINUOUS
 10
5.079360
 20
2.132680
  0
VERTEX
  8
0
  6
CONTINUOUS
 10
5.077600
 20
2.073280
  0
VERTEX
  8
0
  6
CONTINUOUS
 10
5.070560
 20
2.018280
  0
VERTEX
  8
0
  6
CONTINUOUS
 10
5.059120
 20
1.968120
  0
VERTEX
  8
0
  6
CONTINUOUS
 10
5.043720
 20
1.921920
  0
VERTEX
  8
0
  6
CONTINUOUS
 10
5.024800
 20
1.880120
  0
VERTEX
  8
0
  6
CONTINUOUS
 10
5.003240
 20
1.841840
  0
VERTEX
  8
0
  6
CONTINUOUS
 10
4.954400
 20
1.776280
  0
VERTEX
  8
0
  6
CONTINUOUS
 10
4.902040
 20
1.723480
  0
VERTEX
  8
0
  6
CONTINUOUS
 10
4.851440
 20
1.682120
  0
VERTEX
  8
0
  6
CONTINUOUS
 10
4.807440
 20
1.650440
  0
VERTEX
  8
0
  6
CONTINUOUS
 10
4.788960
 20
1.637680
  0
VERTEX
  8
0
  6
CONTINUOUS
 10
4.774440
 20
1.627120
  0
VERTEX
  8
0
  6
CONTINUOUS
 10
4.742760
 20
1.600720
  0
VERTEX
  8
0
  6
CONTINUOUS
 10
4.701400
 20
1.561120
  0
VERTEX
  8
0
  6
CONTINUOUS
 10
4.654320
 20
1.507880
  0
VERTEX
  8
0
  6
CONTINUOUS
 10
4.606360
 20
1.441000
  0
VERTEX
  8
0
  6
CONTINUOUS
 10
4.562360
 20
1.360040
  0
VERTEX
  8
0
  6
CONTINUOUS
 10
4.526280
 20
1.264560
  0
VERTEX
  8
0
  6
CONTINUOUS
 10
4.512640
 20
1.210880
  0
VERTEX
  8
0
  6
CONTINUOUS
 10
4.502520
 20
1.154120
  0
VERTEX
  8
0
  6
CONTINUOUS
 10
4.496800
 20
1.093400
  0
VERTEX
  8
0
  6
CONTINUOUS
 10
4.495920
 20
1.028720
  0
VERTEX
  8
0
  6
CONTINUOUS
 10
4.304960
 20
1.028720
  0
VERTEX
  8
0
  6
CONTINUOUS
 10
4.304960
 20
2.404600
  0
VERTEX
  8
0
  6
CONTINUOUS
 10
5.299800
 20
2.404600
  0
VERTEX
  8
0
  6
CONTINUOUS
 10
5.299800
 20
2.132680
  0
VERTEX
  8
0
  6
CONTINUOUS
 10
5.297600
 20
2.132680
  0
SEQEND
  8
0
  0
TEXT
  8
0
 10
4.822400
 20
0.794200
 40
0.138124
  1
BA  679
 41
1.000000
  7
SN0
 71
     0
 72
     5
 11
5.412642
 21
0.794200
  0
TEXT
  8
0
 10
4.735720
 20
0.602800
 40
0.138124
  1
1" x 1-3/8"
 41
1.000000
  7
SN0
 71
     0
 72
     5
 11
5.498437
 21
0.602800
  0
ENDSEC
  0
EOF
