  0
SECTION
  2
HEADER
  9
$ACADVER
  1
AC1006
  9
$EXTMIN
 10
4.238080
 20
0.564520
  9
$EXTMAX
 10
7.742680
 20
2.541000
  9
$LTSCALE
 40
0.044000
  9
$PDMODE
 70
    35
  9
$PDSIZE
 40
0.035200
  0
ENDSEC
  0
SECTION
  2
TABLES
  0
TABLE
  2
LTYPE
 70
     9
  0
LTYPE
  2
CONTINUOUS
 70
    64
  3
Solid line
 72
    65
 73
     0
 40
0.000000
  0
LTYPE
  2
DASHED
 70
    64
  3
__ __ __ __ __ __ __ __ __ __ __ __ __ __ __
 72
    65
 73
     2
 40
0.000330
 49
0.000220
 49
-0.000110
  0
LTYPE
  2
HIDDEN
 70
    64
  3
 _ _ _ _ _ _ _ _ _ _ _ _ _ _ _ _ _ _ _ _ _ _
 72
    65
 73
     2
 40
0.000165
 49
0.000110
 49
-0.000055
  0
LTYPE
  2
CENTER
 70
    64
  3
____ _ ____ _ ____ _ ____ _ ____ _ ____ _ ____
 72
    65
 73
     4
 40
0.000880
 49
0.000550
 49
-0.000110
 49
0.000110
 49
-0.000110
  0
LTYPE
  2
PHANTOM
 70
    64
  3
_____ _ _ _____ _ _ _____ _ _ _____ _ _ ____
 72
    65
 73
     6
 40
0.001100
 49
0.000550
 49
-0.000110
 49
0.000110
 49
-0.000110
 49
0.000110
 49
-0.000110
  0
LTYPE
  2
DOT
 70
    64
  3
...............................................
 72
    65
 73
     2
 40
0.000110
 49
0.000000
 49
-0.000110
  0
LTYPE
  2
DASHDOT
 70
    64
  3
__ . __ . __ . __ . __ . __ . __ . __ . __ . __
 72
    65
 73
     4
 40
0.000440
 49
0.000220
 49
-0.000110
 49
0.000000
 49
-0.000110
  0
LTYPE
  2
BORDER
 70
    64
  3
__ __ . __ __ . __ __ . __ __ . __ __ . __ __
 72
    65
 73
     6
 40
0.000770
 49
0.000220
 49
-0.000110
 49
0.000220
 49
-0.000110
 49
0.000000
 49
-0.000110
  0
LTYPE
  2
DIVIDE
 70
    64
  3
__ . . __ . . __ . . __ . . __ . . __ . . __
 72
    65
 73
     6
 40
0.000550
 49
0.000220
 49
-0.000110
 49
0.000000
 49
-0.000110
 49
0.000000
 49
-0.000110
  0
LTYPE
  2
DOTDOT
 70
    64
  3
 . .  . .  . .  . .  . .  . . 
 72
    65
 73
     5
 40
0.000242
 49
-0.000110
 49
0.000000
 49
-0.000110
 49
0.000000
 49
-0.000110
  0
ENDTAB
  0
TABLE
  2
STYLE
 70
     2
  0
STYLE
 70
     0
  2
SN0
 40
0.000000
 41
0.000440
 50
0.000000
 71
     0
 42
0.000000
  3
ROMAND
  0
STYLE
 70
    68
  2
SV0
 40
0.000000
 41
0.000440
 50
0.000000
 71
     0
 42
0.000000
  3
ROMAND
  0
ENDTAB
  0
TABLE
  2
LAYER
 70
     3
  0
LAYER
  2
FOREGROUND
 70
    64
 62
     7
  6
CONTINUOUS
  0
LAYER
  2
BACKGROUND
 70
    65
 62
    -7
  6
CONTINUOUS
  0
LAYER
  2
0
 70
    64
 62
     7
  6
CONTINUOUS
  0
ENDTAB
  0
ENDSEC
  0
SECTION
  2
ENTITIES
  0
POLYLINE
  8
FOREGROUND
  6
CONTINUOUS
 66
     1
 40
0.000000
 41
0.000000
  0
VERTEX
  8
FOREGROUND
  6
CONTINUOUS
 10
0.000000
 20
3.105520
  0
VERTEX
  8
FOREGROUND
  6
CONTINUOUS
 10
8.499920
 20
3.105520
  0
VERTEX
  8
FOREGROUND
  6
CONTINUOUS
 10
8.499920
 20
-7.894480
  0
VERTEX
  8
FOREGROUND
  6
CONTINUOUS
 10
0.000000
 20
-7.894480
  0
VERTEX
  8
FOREGROUND
  6
CONTINUOUS
 10
0.000000
 20
3.105520
  0
SEQEND
  8
0
  0
POLYLINE
  8
FOREGROUND
  6
CONTINUOUS
 66
     1
 40
0.000000
 41
0.000000
  0
VERTEX
  8
FOREGROUND
  6
CONTINUOUS
 10
0.000000
 20
3.105520
  0
VERTEX
  8
FOREGROUND
  6
CONTINUOUS
 10
8.499920
 20
3.105520
  0
VERTEX
  8
FOREGROUND
  6
CONTINUOUS
 10
8.499920
 20
-7.894480
  0
VERTEX
  8
FOREGROUND
  6
CONTINUOUS
 10
0.000000
 20
-7.894480
  0
VERTEX
  8
FOREGROUND
  6
CONTINUOUS
 10
0.000000
 20
3.105520
  0
SEQEND
  8
0
  0
POLYLINE
  8
0
  6
CONTINUOUS
 66
     1
 40
0.014080
 41
0.014080
  0
VERTEX
  8
0
  6
CONTINUOUS
 10
6.244040
 20
2.001560
  0
VERTEX
  8
0
  6
CONTINUOUS
 10
6.246240
 20
2.021360
  0
VERTEX
  8
0
  6
CONTINUOUS
 10
6.250200
 20
2.040720
  0
VERTEX
  8
0
  6
CONTINUOUS
 10
6.262080
 20
2.076360
  0
VERTEX
  8
0
  6
CONTINUOUS
 10
6.279240
 20
2.108480
  0
VERTEX
  8
0
  6
CONTINUOUS
 10
6.300360
 20
2.136200
  0
VERTEX
  8
0
  6
CONTINUOUS
 10
6.325440
 20
2.159960
  0
VERTEX
  8
0
  6
CONTINUOUS
 10
6.352720
 20
2.178440
  0
VERTEX
  8
0
  6
CONTINUOUS
 10
6.382200
 20
2.191200
  0
VERTEX
  8
0
  6
CONTINUOUS
 10
6.397600
 20
2.195600
  0
VERTEX
  8
0
  6
CONTINUOUS
 10
6.428840
 20
2.199560
  0
VERTEX
  8
0
  6
CONTINUOUS
 10
6.460080
 20
2.197360
  0
VERTEX
  8
0
  6
CONTINUOUS
 10
6.475480
 20
2.193400
  0
VERTEX
  8
0
  6
CONTINUOUS
 10
6.490880
 20
2.187680
  0
VERTEX
  8
0
  6
CONTINUOUS
 10
6.505840
 20
2.180200
  0
VERTEX
  8
0
  6
CONTINUOUS
 10
6.534000
 20
2.159520
  0
VERTEX
  8
0
  6
CONTINUOUS
 10
6.559960
 20
2.130480
  0
VERTEX
  8
0
  6
CONTINUOUS
 10
6.571840
 20
2.112880
  0
VERTEX
  8
0
  6
CONTINUOUS
 10
6.592520
 20
2.071080
  0
VERTEX
  8
0
  6
CONTINUOUS
 10
6.604840
 20
2.033680
  0
VERTEX
  8
0
  6
CONTINUOUS
 10
6.614960
 20
1.991000
  0
VERTEX
  8
0
  6
CONTINUOUS
 10
6.715280
 20
1.991000
  0
VERTEX
  8
0
  6
CONTINUOUS
 10
6.728480
 20
1.965480
  0
VERTEX
  8
0
  6
CONTINUOUS
 10
6.758400
 20
1.919280
  0
VERTEX
  8
0
  6
CONTINUOUS
 10
6.791400
 20
1.879240
  0
VERTEX
  8
0
  6
CONTINUOUS
 10
6.827920
 20
1.845360
  0
VERTEX
  8
0
  6
CONTINUOUS
 10
6.846840
 20
1.829960
  0
VERTEX
  8
0
  6
CONTINUOUS
 10
6.886880
 20
1.804000
  0
VERTEX
  8
0
  6
CONTINUOUS
 10
6.929120
 20
1.782000
  0
VERTEX
  8
0
  6
CONTINUOUS
 10
6.972680
 20
1.764840
  0
VERTEX
  8
0
  6
CONTINUOUS
 10
7.017560
 20
1.750760
  0
VERTEX
  8
0
  6
CONTINUOUS
 10
7.086200
 20
1.736240
  0
VERTEX
  8
0
  6
CONTINUOUS
 10
7.155280
 20
1.727440
  0
VERTEX
  8
0
  6
CONTINUOUS
 10
7.200600
 20
1.723920
  0
VERTEX
  8
0
  6
CONTINUOUS
 10
7.288600
 20
1.721280
  0
VERTEX
  8
0
  6
CONTINUOUS
 10
7.369560
 20
1.720400
  0
VERTEX
  8
0
  6
CONTINUOUS
 10
7.372640
 20
1.756920
  0
VERTEX
  8
0
  6
CONTINUOUS
 10
7.376160
 20
1.774080
  0
VERTEX
  8
0
  6
CONTINUOUS
 10
7.386720
 20
1.804880
  0
VERTEX
  8
0
  6
CONTINUOUS
 10
7.392880
 20
1.819400
  0
VERTEX
  8
0
  6
CONTINUOUS
 10
7.408720
 20
1.844040
  0
VERTEX
  8
0
  6
CONTINUOUS
 10
7.427200
 20
1.864720
  0
VERTEX
  8
0
  6
CONTINUOUS
 10
7.447880
 20
1.880560
  0
VERTEX
  8
0
  6
CONTINUOUS
 10
7.469880
 20
1.891120
  0
VERTEX
  8
0
  6
CONTINUOUS
 10
7.481320
 20
1.894640
  0
VERTEX
  8
0
  6
CONTINUOUS
 10
7.504640
 20
1.896840
  0
VERTEX
  8
0
  6
CONTINUOUS
 10
7.516080
 20
1.895960
  0
VERTEX
  8
0
  6
CONTINUOUS
 10
7.527520
 20
1.893320
  0
VERTEX
  8
0
  6
CONTINUOUS
 10
7.549960
 20
1.883200
  0
VERTEX
  8
0
  6
CONTINUOUS
 10
7.560520
 20
1.876160
  0
VERTEX
  8
0
  6
CONTINUOUS
 10
7.580320
 20
1.856360
  0
VERTEX
  8
0
  6
CONTINUOUS
 10
7.597920
 20
1.829080
  0
VERTEX
  8
0
  6
CONTINUOUS
 10
7.612000
 20
1.794760
  0
VERTEX
  8
0
  6
CONTINUOUS
 10
7.622560
 20
1.752960
  0
VERTEX
  8
0
  6
CONTINUOUS
 10
7.628720
 20
1.702800
  0
VERTEX
  8
0
  6
CONTINUOUS
 10
7.735640
 20
1.702800
  0
VERTEX
  8
0
  6
CONTINUOUS
 10
7.735640
 20
1.439240
  0
VERTEX
  8
0
  6
CONTINUOUS
 10
6.081680
 20
1.439240
  0
VERTEX
  8
0
  6
CONTINUOUS
 10
6.081680
 20
1.999360
  0
VERTEX
  8
0
  6
CONTINUOUS
 10
6.244040
 20
1.999360
  0
VERTEX
  8
0
  6
CONTINUOUS
 10
6.244040
 20
2.001560
  0
SEQEND
  8
0
  0
SOLID
  8
0
 62
    15
 10
5.132600
 20
1.357840
 11
5.129960
 21
2.105840
 12
5.177480
 22
1.344200
 13
5.174840
 23
2.092200
  0
POLYLINE
  8
0
  6
CONTINUOUS
 66
     1
 40
0.000000
 41
0.000000
  0
VERTEX
  8
0
  6
CONTINUOUS
 10
5.132600
 20
1.357840
  0
VERTEX
  8
0
  6
CONTINUOUS
 10
5.129960
 20
2.105840
  0
VERTEX
  8
0
  6
CONTINUOUS
 10
5.174840
 20
2.092200
  0
VERTEX
  8
0
  6
CONTINUOUS
 10
5.177480
 20
1.344200
  0
VERTEX
  8
0
  6
CONTINUOUS
 10
5.132600
 20
1.357840
  0
SEQEND
  8
0
  0
SOLID
  8
0
 62
    15
 10
4.410120
 20
1.633720
 11
4.407480
 21
2.381720
 12
4.422000
 22
1.669360
 13
4.419360
 23
2.417360
  0
POLYLINE
  8
0
  6
CONTINUOUS
 66
     1
 40
0.000000
 41
0.000000
  0
VERTEX
  8
0
  6
CONTINUOUS
 10
4.410120
 20
1.633720
  0
VERTEX
  8
0
  6
CONTINUOUS
 10
4.407480
 20
2.381720
  0
VERTEX
  8
0
  6
CONTINUOUS
 10
4.419360
 20
2.417360
  0
VERTEX
  8
0
  6
CONTINUOUS
 10
4.422000
 20
1.669360
  0
VERTEX
  8
0
  6
CONTINUOUS
 10
4.410120
 20
1.633720
  0
SEQEND
  8
0
  0
SOLID
  8
0
 62
    15
 10
4.422000
 20
1.669360
 11
4.419360
 21
2.417360
 12
4.438720
 22
1.701480
 13
4.436080
 23
2.449480
  0
POLYLINE
  8
0
  6
CONTINUOUS
 66
     1
 40
0.000000
 41
0.000000
  0
VERTEX
  8
0
  6
CONTINUOUS
 10
4.422000
 20
1.669360
  0
VERTEX
  8
0
  6
CONTINUOUS
 10
4.419360
 20
2.417360
  0
VERTEX
  8
0
  6
CONTINUOUS
 10
4.436080
 20
2.449480
  0
VERTEX
  8
0
  6
CONTINUOUS
 10
4.438720
 20
1.701480
  0
VERTEX
  8
0
  6
CONTINUOUS
 10
4.422000
 20
1.669360
  0
SEQEND
  8
0
  0
SOLID
  8
0
 62
    15
 10
4.438720
 20
1.701480
 11
4.436080
 21
2.449480
 12
4.460280
 22
1.729200
 13
4.457640
 23
2.477200
  0
POLYLINE
  8
0
  6
CONTINUOUS
 66
     1
 40
0.000000
 41
0.000000
  0
VERTEX
  8
0
  6
CONTINUOUS
 10
4.438720
 20
1.701480
  0
VERTEX
  8
0
  6
CONTINUOUS
 10
4.436080
 20
2.449480
  0
VERTEX
  8
0
  6
CONTINUOUS
 10
4.457640
 20
2.477200
  0
VERTEX
  8
0
  6
CONTINUOUS
 10
4.460280
 20
1.729200
  0
VERTEX
  8
0
  6
CONTINUOUS
 10
4.438720
 20
1.701480
  0
SEQEND
  8
0
  0
SOLID
  8
0
 62
    15
 10
4.460280
 20
1.729200
 11
4.457640
 21
2.477200
 12
4.484920
 22
1.752520
 13
4.482280
 23
2.500960
  0
POLYLINE
  8
0
  6
CONTINUOUS
 66
     1
 40
0.000000
 41
0.000000
  0
VERTEX
  8
0
  6
CONTINUOUS
 10
4.460280
 20
1.729200
  0
VERTEX
  8
0
  6
CONTINUOUS
 10
4.457640
 20
2.477200
  0
VERTEX
  8
0
  6
CONTINUOUS
 10
4.482280
 20
2.500960
  0
VERTEX
  8
0
  6
CONTINUOUS
 10
4.484920
 20
1.752520
  0
VERTEX
  8
0
  6
CONTINUOUS
 10
4.460280
 20
1.729200
  0
SEQEND
  8
0
  0
SOLID
  8
0
 62
    15
 10
4.484920
 20
1.752520
 11
4.482280
 21
2.500960
 12
4.512640
 22
1.771000
 13
4.510000
 23
2.519440
  0
POLYLINE
  8
0
  6
CONTINUOUS
 66
     1
 40
0.000000
 41
0.000000
  0
VERTEX
  8
0
  6
CONTINUOUS
 10
4.484920
 20
1.752520
  0
VERTEX
  8
0
  6
CONTINUOUS
 10
4.482280
 20
2.500960
  0
VERTEX
  8
0
  6
CONTINUOUS
 10
4.510000
 20
2.519440
  0
VERTEX
  8
0
  6
CONTINUOUS
 10
4.512640
 20
1.771000
  0
VERTEX
  8
0
  6
CONTINUOUS
 10
4.484920
 20
1.752520
  0
SEQEND
  8
0
  0
SOLID
  8
0
 62
    15
 10
4.512640
 20
1.771000
 11
4.510000
 21
2.519440
 12
4.542120
 22
1.784200
 13
4.539480
 23
2.532200
  0
POLYLINE
  8
0
  6
CONTINUOUS
 66
     1
 40
0.000000
 41
0.000000
  0
VERTEX
  8
0
  6
CONTINUOUS
 10
4.512640
 20
1.771000
  0
VERTEX
  8
0
  6
CONTINUOUS
 10
4.510000
 20
2.519440
  0
VERTEX
  8
0
  6
CONTINUOUS
 10
4.539480
 20
2.532200
  0
VERTEX
  8
0
  6
CONTINUOUS
 10
4.542120
 20
1.784200
  0
VERTEX
  8
0
  6
CONTINUOUS
 10
4.512640
 20
1.771000
  0
SEQEND
  8
0
  0
SOLID
  8
0
 62
    15
 10
4.542120
 20
1.784200
 11
4.539480
 21
2.532200
 12
4.572920
 22
1.791240
 13
4.570280
 23
2.539240
  0
POLYLINE
  8
0
  6
CONTINUOUS
 66
     1
 40
0.000000
 41
0.000000
  0
VERTEX
  8
0
  6
CONTINUOUS
 10
4.542120
 20
1.784200
  0
VERTEX
  8
0
  6
CONTINUOUS
 10
4.539480
 20
2.532200
  0
VERTEX
  8
0
  6
CONTINUOUS
 10
4.570280
 20
2.539240
  0
VERTEX
  8
0
  6
CONTINUOUS
 10
4.572920
 20
1.791240
  0
VERTEX
  8
0
  6
CONTINUOUS
 10
4.542120
 20
1.784200
  0
SEQEND
  8
0
  0
SOLID
  8
0
 62
    15
 10
4.572920
 20
1.791240
 11
4.570280
 21
2.539240
 12
4.604160
 22
1.792120
 13
4.601520
 23
2.540120
  0
POLYLINE
  8
0
  6
CONTINUOUS
 66
     1
 40
0.000000
 41
0.000000
  0
VERTEX
  8
0
  6
CONTINUOUS
 10
4.572920
 20
1.791240
  0
VERTEX
  8
0
  6
CONTINUOUS
 10
4.570280
 20
2.539240
  0
VERTEX
  8
0
  6
CONTINUOUS
 10
4.601520
 20
2.540120
  0
VERTEX
  8
0
  6
CONTINUOUS
 10
4.604160
 20
1.792120
  0
VERTEX
  8
0
  6
CONTINUOUS
 10
4.572920
 20
1.791240
  0
SEQEND
  8
0
  0
SOLID
  8
0
 62
    15
 10
4.604160
 20
1.792120
 11
4.601520
 21
2.540120
 12
4.635400
 22
1.786400
 13
4.632760
 23
2.534400
  0
POLYLINE
  8
0
  6
CONTINUOUS
 66
     1
 40
0.000000
 41
0.000000
  0
VERTEX
  8
0
  6
CONTINUOUS
 10
4.604160
 20
1.792120
  0
VERTEX
  8
0
  6
CONTINUOUS
 10
4.601520
 20
2.540120
  0
VERTEX
  8
0
  6
CONTINUOUS
 10
4.632760
 20
2.534400
  0
VERTEX
  8
0
  6
CONTINUOUS
 10
4.635400
 20
1.786400
  0
VERTEX
  8
0
  6
CONTINUOUS
 10
4.604160
 20
1.792120
  0
SEQEND
  8
0
  0
SOLID
  8
0
 62
    15
 10
4.635400
 20
1.786400
 11
4.632760
 21
2.534400
 12
4.665320
 22
1.773200
 13
4.662680
 23
2.521200
  0
POLYLINE
  8
0
  6
CONTINUOUS
 66
     1
 40
0.000000
 41
0.000000
  0
VERTEX
  8
0
  6
CONTINUOUS
 10
4.635400
 20
1.786400
  0
VERTEX
  8
0
  6
CONTINUOUS
 10
4.632760
 20
2.534400
  0
VERTEX
  8
0
  6
CONTINUOUS
 10
4.662680
 20
2.521200
  0
VERTEX
  8
0
  6
CONTINUOUS
 10
4.665320
 20
1.773200
  0
VERTEX
  8
0
  6
CONTINUOUS
 10
4.635400
 20
1.786400
  0
SEQEND
  8
0
  0
SOLID
  8
0
 62
    15
 10
4.665320
 20
1.773200
 11
4.662680
 21
2.521200
 12
4.693920
 22
1.752520
 13
4.691280
 23
2.500520
  0
POLYLINE
  8
0
  6
CONTINUOUS
 66
     1
 40
0.000000
 41
0.000000
  0
VERTEX
  8
0
  6
CONTINUOUS
 10
4.665320
 20
1.773200
  0
VERTEX
  8
0
  6
CONTINUOUS
 10
4.662680
 20
2.521200
  0
VERTEX
  8
0
  6
CONTINUOUS
 10
4.691280
 20
2.500520
  0
VERTEX
  8
0
  6
CONTINUOUS
 10
4.693920
 20
1.752520
  0
VERTEX
  8
0
  6
CONTINUOUS
 10
4.665320
 20
1.773200
  0
SEQEND
  8
0
  0
SOLID
  8
0
 62
    15
 10
4.693920
 20
1.752520
 11
4.691280
 21
2.500520
 12
4.719440
 22
1.723480
 13
4.716800
 23
2.471480
  0
POLYLINE
  8
0
  6
CONTINUOUS
 66
     1
 40
0.000000
 41
0.000000
  0
VERTEX
  8
0
  6
CONTINUOUS
 10
4.693920
 20
1.752520
  0
VERTEX
  8
0
  6
CONTINUOUS
 10
4.691280
 20
2.500520
  0
VERTEX
  8
0
  6
CONTINUOUS
 10
4.716800
 20
2.471480
  0
VERTEX
  8
0
  6
CONTINUOUS
 10
4.719440
 20
1.723480
  0
VERTEX
  8
0
  6
CONTINUOUS
 10
4.693920
 20
1.752520
  0
SEQEND
  8
0
  0
SOLID
  8
0
 62
    15
 10
4.719440
 20
1.723480
 11
4.716800
 21
2.471480
 12
4.742320
 22
1.686080
 13
4.739680
 23
2.434520
  0
POLYLINE
  8
0
  6
CONTINUOUS
 66
     1
 40
0.000000
 41
0.000000
  0
VERTEX
  8
0
  6
CONTINUOUS
 10
4.719440
 20
1.723480
  0
VERTEX
  8
0
  6
CONTINUOUS
 10
4.716800
 20
2.471480
  0
VERTEX
  8
0
  6
CONTINUOUS
 10
4.739680
 20
2.434520
  0
VERTEX
  8
0
  6
CONTINUOUS
 10
4.742320
 20
1.686080
  0
VERTEX
  8
0
  6
CONTINUOUS
 10
4.719440
 20
1.723480
  0
SEQEND
  8
0
  0
SOLID
  8
0
 62
    15
 10
4.742320
 20
1.686080
 11
4.739680
 21
2.434520
 12
4.760800
 22
1.639880
 13
4.758160
 23
2.387880
  0
POLYLINE
  8
0
  6
CONTINUOUS
 66
     1
 40
0.000000
 41
0.000000
  0
VERTEX
  8
0
  6
CONTINUOUS
 10
4.742320
 20
1.686080
  0
VERTEX
  8
0
  6
CONTINUOUS
 10
4.739680
 20
2.434520
  0
VERTEX
  8
0
  6
CONTINUOUS
 10
4.758160
 20
2.387880
  0
VERTEX
  8
0
  6
CONTINUOUS
 10
4.760800
 20
1.639880
  0
VERTEX
  8
0
  6
CONTINUOUS
 10
4.742320
 20
1.686080
  0
SEQEND
  8
0
  0
SOLID
  8
0
 62
    15
 10
4.760800
 20
1.639880
 11
4.758160
 21
2.387880
 12
4.774440
 22
1.584440
 13
4.771800
 23
2.332440
  0
POLYLINE
  8
0
  6
CONTINUOUS
 66
     1
 40
0.000000
 41
0.000000
  0
VERTEX
  8
0
  6
CONTINUOUS
 10
4.760800
 20
1.639880
  0
VERTEX
  8
0
  6
CONTINUOUS
 10
4.758160
 20
2.387880
  0
VERTEX
  8
0
  6
CONTINUOUS
 10
4.771800
 20
2.332440
  0
VERTEX
  8
0
  6
CONTINUOUS
 10
4.774440
 20
1.584440
  0
VERTEX
  8
0
  6
CONTINUOUS
 10
4.760800
 20
1.639880
  0
SEQEND
  8
0
  0
SOLID
  8
0
 62
    15
 10
4.774440
 20
1.584440
 11
4.771800
 21
2.332440
 12
4.874760
 22
1.584440
 13
4.872120
 23
2.332440
  0
POLYLINE
  8
0
  6
CONTINUOUS
 66
     1
 40
0.000000
 41
0.000000
  0
VERTEX
  8
0
  6
CONTINUOUS
 10
4.774440
 20
1.584440
  0
VERTEX
  8
0
  6
CONTINUOUS
 10
4.771800
 20
2.332440
  0
VERTEX
  8
0
  6
CONTINUOUS
 10
4.872120
 20
2.332440
  0
VERTEX
  8
0
  6
CONTINUOUS
 10
4.874760
 20
1.584440
  0
VERTEX
  8
0
  6
CONTINUOUS
 10
4.774440
 20
1.584440
  0
SEQEND
  8
0
  0
SOLID
  8
0
 62
    15
 10
4.874760
 20
1.584440
 11
4.872120
 21
2.332440
 12
4.902920
 22
1.534720
 13
4.900280
 23
2.282720
  0
POLYLINE
  8
0
  6
CONTINUOUS
 66
     1
 40
0.000000
 41
0.000000
  0
VERTEX
  8
0
  6
CONTINUOUS
 10
4.874760
 20
1.584440
  0
VERTEX
  8
0
  6
CONTINUOUS
 10
4.872120
 20
2.332440
  0
VERTEX
  8
0
  6
CONTINUOUS
 10
4.900280
 20
2.282720
  0
VERTEX
  8
0
  6
CONTINUOUS
 10
4.902920
 20
1.534720
  0
VERTEX
  8
0
  6
CONTINUOUS
 10
4.874760
 20
1.584440
  0
SEQEND
  8
0
  0
SOLID
  8
0
 62
    15
 10
4.902920
 20
1.534720
 11
4.900280
 21
2.282720
 12
4.934160
 22
1.491600
 13
4.931520
 23
2.239600
  0
POLYLINE
  8
0
  6
CONTINUOUS
 66
     1
 40
0.000000
 41
0.000000
  0
VERTEX
  8
0
  6
CONTINUOUS
 10
4.902920
 20
1.534720
  0
VERTEX
  8
0
  6
CONTINUOUS
 10
4.900280
 20
2.282720
  0
VERTEX
  8
0
  6
CONTINUOUS
 10
4.931520
 20
2.239600
  0
VERTEX
  8
0
  6
CONTINUOUS
 10
4.934160
 20
1.491600
  0
VERTEX
  8
0
  6
CONTINUOUS
 10
4.902920
 20
1.534720
  0
SEQEND
  8
0
  0
SOLID
  8
0
 62
    15
 10
4.934160
 20
1.491600
 11
4.931520
 21
2.239600
 12
4.968920
 22
1.454640
 13
4.966280
 23
2.202640
  0
POLYLINE
  8
0
  6
CONTINUOUS
 66
     1
 40
0.000000
 41
0.000000
  0
VERTEX
  8
0
  6
CONTINUOUS
 10
4.934160
 20
1.491600
  0
VERTEX
  8
0
  6
CONTINUOUS
 10
4.931520
 20
2.239600
  0
VERTEX
  8
0
  6
CONTINUOUS
 10
4.966280
 20
2.202640
  0
VERTEX
  8
0
  6
CONTINUOUS
 10
4.968920
 20
1.454640
  0
VERTEX
  8
0
  6
CONTINUOUS
 10
4.934160
 20
1.491600
  0
SEQEND
  8
0
  0
SOLID
  8
0
 62
    15
 10
4.968920
 20
1.454640
 11
4.966280
 21
2.202640
 12
5.006760
 22
1.423400
 13
5.004120
 23
2.171400
  0
POLYLINE
  8
0
  6
CONTINUOUS
 66
     1
 40
0.000000
 41
0.000000
  0
VERTEX
  8
0
  6
CONTINUOUS
 10
4.968920
 20
1.454640
  0
VERTEX
  8
0
  6
CONTINUOUS
 10
4.966280
 20
2.202640
  0
VERTEX
  8
0
  6
CONTINUOUS
 10
5.004120
 20
2.171400
  0
VERTEX
  8
0
  6
CONTINUOUS
 10
5.006760
 20
1.423400
  0
VERTEX
  8
0
  6
CONTINUOUS
 10
4.968920
 20
1.454640
  0
SEQEND
  8
0
  0
SOLID
  8
0
 62
    15
 10
5.006760
 20
1.423400
 11
5.004120
 21
2.171400
 12
5.046800
 22
1.397000
 13
5.044160
 23
2.145000
  0
POLYLINE
  8
0
  6
CONTINUOUS
 66
     1
 40
0.000000
 41
0.000000
  0
VERTEX
  8
0
  6
CONTINUOUS
 10
5.006760
 20
1.423400
  0
VERTEX
  8
0
  6
CONTINUOUS
 10
5.004120
 20
2.171400
  0
VERTEX
  8
0
  6
CONTINUOUS
 10
5.044160
 20
2.145000
  0
VERTEX
  8
0
  6
CONTINUOUS
 10
5.046800
 20
1.397000
  0
VERTEX
  8
0
  6
CONTINUOUS
 10
5.006760
 20
1.423400
  0
SEQEND
  8
0
  0
SOLID
  8
0
 62
    15
 10
5.046800
 20
1.397000
 11
5.044160
 21
2.145000
 12
5.089040
 22
1.375440
 13
5.086400
 23
2.123440
  0
POLYLINE
  8
0
  6
CONTINUOUS
 66
     1
 40
0.000000
 41
0.000000
  0
VERTEX
  8
0
  6
CONTINUOUS
 10
5.046800
 20
1.397000
  0
VERTEX
  8
0
  6
CONTINUOUS
 10
5.044160
 20
2.145000
  0
VERTEX
  8
0
  6
CONTINUOUS
 10
5.086400
 20
2.123440
  0
VERTEX
  8
0
  6
CONTINUOUS
 10
5.089040
 20
1.375440
  0
VERTEX
  8
0
  6
CONTINUOUS
 10
5.046800
 20
1.397000
  0
SEQEND
  8
0
  0
SOLID
  8
0
 62
    15
 10
5.089040
 20
1.375440
 11
5.086400
 21
2.123440
 12
5.132600
 22
1.357840
 13
5.129960
 23
2.105840
  0
POLYLINE
  8
0
  6
CONTINUOUS
 66
     1
 40
0.000000
 41
0.000000
  0
VERTEX
  8
0
  6
CONTINUOUS
 10
5.089040
 20
1.375440
  0
VERTEX
  8
0
  6
CONTINUOUS
 10
5.086400
 20
2.123440
  0
VERTEX
  8
0
  6
CONTINUOUS
 10
5.129960
 20
2.105840
  0
VERTEX
  8
0
  6
CONTINUOUS
 10
5.132600
 20
1.357840
  0
VERTEX
  8
0
  6
CONTINUOUS
 10
5.089040
 20
1.375440
  0
SEQEND
  8
0
  0
SOLID
  8
0
 62
    15
 10
4.241600
 20
1.032240
 11
4.238960
 21
1.780240
 12
4.241600
 22
1.592800
 13
4.238960
 23
2.340800
  0
POLYLINE
  8
0
  6
CONTINUOUS
 66
     1
 40
0.000000
 41
0.000000
  0
VERTEX
  8
0
  6
CONTINUOUS
 10
4.241600
 20
1.032240
  0
VERTEX
  8
0
  6
CONTINUOUS
 10
4.238960
 20
1.780240
  0
VERTEX
  8
0
  6
CONTINUOUS
 10
4.238960
 20
2.340800
  0
VERTEX
  8
0
  6
CONTINUOUS
 10
4.241600
 20
1.592800
  0
VERTEX
  8
0
  6
CONTINUOUS
 10
4.241600
 20
1.032240
  0
SEQEND
  8
0
  0
SOLID
  8
0
 62
    15
 10
5.177480
 20
1.344200
 11
5.174840
 21
2.092200
 12
5.269000
 22
1.326160
 13
5.266360
 23
2.074160
  0
POLYLINE
  8
0
  6
CONTINUOUS
 66
     1
 40
0.000000
 41
0.000000
  0
VERTEX
  8
0
  6
CONTINUOUS
 10
5.177480
 20
1.344200
  0
VERTEX
  8
0
  6
CONTINUOUS
 10
5.174840
 20
2.092200
  0
VERTEX
  8
0
  6
CONTINUOUS
 10
5.266360
 20
2.074160
  0
VERTEX
  8
0
  6
CONTINUOUS
 10
5.269000
 20
1.326160
  0
VERTEX
  8
0
  6
CONTINUOUS
 10
5.177480
 20
1.344200
  0
SEQEND
  8
0
  0
SOLID
  8
0
 62
    15
 10
5.269000
 20
1.326160
 11
5.266360
 21
2.074160
 12
5.360520
 22
1.317360
 13
5.357880
 23
2.065360
  0
POLYLINE
  8
0
  6
CONTINUOUS
 66
     1
 40
0.000000
 41
0.000000
  0
VERTEX
  8
0
  6
CONTINUOUS
 10
5.269000
 20
1.326160
  0
VERTEX
  8
0
  6
CONTINUOUS
 10
5.266360
 20
2.074160
  0
VERTEX
  8
0
  6
CONTINUOUS
 10
5.357880
 20
2.065360
  0
VERTEX
  8
0
  6
CONTINUOUS
 10
5.360520
 20
1.317360
  0
VERTEX
  8
0
  6
CONTINUOUS
 10
5.269000
 20
1.326160
  0
SEQEND
  8
0
  0
SOLID
  8
0
 62
    15
 10
5.360520
 20
1.317360
 11
5.357880
 21
2.065360
 12
5.448520
 22
1.314280
 13
5.445880
 23
2.062280
  0
POLYLINE
  8
0
  6
CONTINUOUS
 66
     1
 40
0.000000
 41
0.000000
  0
VERTEX
  8
0
  6
CONTINUOUS
 10
5.360520
 20
1.317360
  0
VERTEX
  8
0
  6
CONTINUOUS
 10
5.357880
 20
2.065360
  0
VERTEX
  8
0
  6
CONTINUOUS
 10
5.445880
 20
2.062280
  0
VERTEX
  8
0
  6
CONTINUOUS
 10
5.448520
 20
1.314280
  0
VERTEX
  8
0
  6
CONTINUOUS
 10
5.360520
 20
1.317360
  0
SEQEND
  8
0
  0
SOLID
  8
0
 62
    15
 10
5.448520
 20
1.314280
 11
5.445880
 21
2.062280
 12
5.529480
 22
1.313400
 13
5.526840
 23
2.061840
  0
POLYLINE
  8
0
  6
CONTINUOUS
 66
     1
 40
0.000000
 41
0.000000
  0
VERTEX
  8
0
  6
CONTINUOUS
 10
5.448520
 20
1.314280
  0
VERTEX
  8
0
  6
CONTINUOUS
 10
5.445880
 20
2.062280
  0
VERTEX
  8
0
  6
CONTINUOUS
 10
5.526840
 20
2.061840
  0
VERTEX
  8
0
  6
CONTINUOUS
 10
5.529480
 20
1.313400
  0
VERTEX
  8
0
  6
CONTINUOUS
 10
5.448520
 20
1.314280
  0
SEQEND
  8
0
  0
SOLID
  8
0
 62
    15
 10
5.529480
 20
1.313400
 11
5.526840
 21
2.061840
 12
5.532560
 22
1.349920
 13
5.529920
 23
2.098360
  0
POLYLINE
  8
0
  6
CONTINUOUS
 66
     1
 40
0.000000
 41
0.000000
  0
VERTEX
  8
0
  6
CONTINUOUS
 10
5.529480
 20
1.313400
  0
VERTEX
  8
0
  6
CONTINUOUS
 10
5.526840
 20
2.061840
  0
VERTEX
  8
0
  6
CONTINUOUS
 10
5.529920
 20
2.098360
  0
VERTEX
  8
0
  6
CONTINUOUS
 10
5.532560
 20
1.349920
  0
VERTEX
  8
0
  6
CONTINUOUS
 10
5.529480
 20
1.313400
  0
SEQEND
  8
0
  0
SOLID
  8
0
 62
    15
 10
5.532560
 20
1.349920
 11
5.529920
 21
2.098360
 12
5.540920
 22
1.382920
 13
5.538280
 23
2.131360
  0
POLYLINE
  8
0
  6
CONTINUOUS
 66
     1
 40
0.000000
 41
0.000000
  0
VERTEX
  8
0
  6
CONTINUOUS
 10
5.532560
 20
1.349920
  0
VERTEX
  8
0
  6
CONTINUOUS
 10
5.529920
 20
2.098360
  0
VERTEX
  8
0
  6
CONTINUOUS
 10
5.538280
 20
2.131360
  0
VERTEX
  8
0
  6
CONTINUOUS
 10
5.540920
 20
1.382920
  0
VERTEX
  8
0
  6
CONTINUOUS
 10
5.532560
 20
1.349920
  0
SEQEND
  8
0
  0
SOLID
  8
0
 62
    15
 10
5.540920
 20
1.382920
 11
5.538280
 21
2.131360
 12
5.552800
 22
1.412400
 13
5.550160
 23
2.160400
  0
POLYLINE
  8
0
  6
CONTINUOUS
 66
     1
 40
0.000000
 41
0.000000
  0
VERTEX
  8
0
  6
CONTINUOUS
 10
5.540920
 20
1.382920
  0
VERTEX
  8
0
  6
CONTINUOUS
 10
5.538280
 20
2.131360
  0
VERTEX
  8
0
  6
CONTINUOUS
 10
5.550160
 20
2.160400
  0
VERTEX
  8
0
  6
CONTINUOUS
 10
5.552800
 20
1.412400
  0
VERTEX
  8
0
  6
CONTINUOUS
 10
5.540920
 20
1.382920
  0
SEQEND
  8
0
  0
SOLID
  8
0
 62
    15
 10
5.552800
 20
1.412400
 11
5.550160
 21
2.160400
 12
5.568640
 22
1.437480
 13
5.566000
 23
2.185480
  0
POLYLINE
  8
0
  6
CONTINUOUS
 66
     1
 40
0.000000
 41
0.000000
  0
VERTEX
  8
0
  6
CONTINUOUS
 10
5.552800
 20
1.412400
  0
VERTEX
  8
0
  6
CONTINUOUS
 10
5.550160
 20
2.160400
  0
VERTEX
  8
0
  6
CONTINUOUS
 10
5.566000
 20
2.185480
  0
VERTEX
  8
0
  6
CONTINUOUS
 10
5.568640
 20
1.437480
  0
VERTEX
  8
0
  6
CONTINUOUS
 10
5.552800
 20
1.412400
  0
SEQEND
  8
0
  0
SOLID
  8
0
 62
    15
 10
5.568640
 20
1.437480
 11
5.566000
 21
2.185480
 12
5.587120
 22
1.457720
 13
5.584480
 23
2.206160
  0
POLYLINE
  8
0
  6
CONTINUOUS
 66
     1
 40
0.000000
 41
0.000000
  0
VERTEX
  8
0
  6
CONTINUOUS
 10
5.568640
 20
1.437480
  0
VERTEX
  8
0
  6
CONTINUOUS
 10
5.566000
 20
2.185480
  0
VERTEX
  8
0
  6
CONTINUOUS
 10
5.584480
 20
2.206160
  0
VERTEX
  8
0
  6
CONTINUOUS
 10
5.587120
 20
1.457720
  0
VERTEX
  8
0
  6
CONTINUOUS
 10
5.568640
 20
1.437480
  0
SEQEND
  8
0
  0
SOLID
  8
0
 62
    15
 10
5.587120
 20
1.457720
 11
5.584480
 21
2.206160
 12
5.607800
 22
1.473560
 13
5.605160
 23
2.221560
  0
POLYLINE
  8
0
  6
CONTINUOUS
 66
     1
 40
0.000000
 41
0.000000
  0
VERTEX
  8
0
  6
CONTINUOUS
 10
5.587120
 20
1.457720
  0
VERTEX
  8
0
  6
CONTINUOUS
 10
5.584480
 20
2.206160
  0
VERTEX
  8
0
  6
CONTINUOUS
 10
5.605160
 20
2.221560
  0
VERTEX
  8
0
  6
CONTINUOUS
 10
5.607800
 20
1.473560
  0
VERTEX
  8
0
  6
CONTINUOUS
 10
5.587120
 20
1.457720
  0
SEQEND
  8
0
  0
SOLID
  8
0
 62
    15
 10
5.607800
 20
1.473560
 11
5.605160
 21
2.221560
 12
5.629800
 22
1.484120
 13
5.627160
 23
2.232120
  0
POLYLINE
  8
0
  6
CONTINUOUS
 66
     1
 40
0.000000
 41
0.000000
  0
VERTEX
  8
0
  6
CONTINUOUS
 10
5.607800
 20
1.473560
  0
VERTEX
  8
0
  6
CONTINUOUS
 10
5.605160
 20
2.221560
  0
VERTEX
  8
0
  6
CONTINUOUS
 10
5.627160
 20
2.232120
  0
VERTEX
  8
0
  6
CONTINUOUS
 10
5.629800
 20
1.484120
  0
VERTEX
  8
0
  6
CONTINUOUS
 10
5.607800
 20
1.473560
  0
SEQEND
  8
0
  0
SOLID
  8
0
 62
    15
 10
5.629800
 20
1.484120
 11
5.627160
 21
2.232120
 12
5.652680
 22
1.489400
 13
5.650040
 23
2.237400
  0
POLYLINE
  8
0
  6
CONTINUOUS
 66
     1
 40
0.000000
 41
0.000000
  0
VERTEX
  8
0
  6
CONTINUOUS
 10
5.629800
 20
1.484120
  0
VERTEX
  8
0
  6
CONTINUOUS
 10
5.627160
 20
2.232120
  0
VERTEX
  8
0
  6
CONTINUOUS
 10
5.650040
 20
2.237400
  0
VERTEX
  8
0
  6
CONTINUOUS
 10
5.652680
 20
1.489400
  0
VERTEX
  8
0
  6
CONTINUOUS
 10
5.629800
 20
1.484120
  0
SEQEND
  8
0
  0
SOLID
  8
0
 62
    15
 10
5.652680
 20
1.489400
 11
5.650040
 21
2.237400
 12
5.676000
 22
1.488960
 13
5.673360
 23
2.236960
  0
POLYLINE
  8
0
  6
CONTINUOUS
 66
     1
 40
0.000000
 41
0.000000
  0
VERTEX
  8
0
  6
CONTINUOUS
 10
5.652680
 20
1.489400
  0
VERTEX
  8
0
  6
CONTINUOUS
 10
5.650040
 20
2.237400
  0
VERTEX
  8
0
  6
CONTINUOUS
 10
5.673360
 20
2.236960
  0
VERTEX
  8
0
  6
CONTINUOUS
 10
5.676000
 20
1.488960
  0
VERTEX
  8
0
  6
CONTINUOUS
 10
5.652680
 20
1.489400
  0
SEQEND
  8
0
  0
SOLID
  8
0
 62
    15
 10
5.676000
 20
1.488960
 11
5.673360
 21
2.236960
 12
5.698880
 22
1.481920
 13
5.696240
 23
2.230360
  0
POLYLINE
  8
0
  6
CONTINUOUS
 66
     1
 40
0.000000
 41
0.000000
  0
VERTEX
  8
0
  6
CONTINUOUS
 10
5.676000
 20
1.488960
  0
VERTEX
  8
0
  6
CONTINUOUS
 10
5.673360
 20
2.236960
  0
VERTEX
  8
0
  6
CONTINUOUS
 10
5.696240
 20
2.230360
  0
VERTEX
  8
0
  6
CONTINUOUS
 10
5.698880
 20
1.481920
  0
VERTEX
  8
0
  6
CONTINUOUS
 10
5.676000
 20
1.488960
  0
SEQEND
  8
0
  0
SOLID
  8
0
 62
    15
 10
5.698880
 20
1.481920
 11
5.696240
 21
2.230360
 12
5.720440
 22
1.469160
 13
5.717800
 23
2.217160
  0
POLYLINE
  8
0
  6
CONTINUOUS
 66
     1
 40
0.000000
 41
0.000000
  0
VERTEX
  8
0
  6
CONTINUOUS
 10
5.698880
 20
1.481920
  0
VERTEX
  8
0
  6
CONTINUOUS
 10
5.696240
 20
2.230360
  0
VERTEX
  8
0
  6
CONTINUOUS
 10
5.717800
 20
2.217160
  0
VERTEX
  8
0
  6
CONTINUOUS
 10
5.720440
 20
1.469160
  0
VERTEX
  8
0
  6
CONTINUOUS
 10
5.698880
 20
1.481920
  0
SEQEND
  8
0
  0
SOLID
  8
0
 62
    15
 10
5.720440
 20
1.469160
 11
5.717800
 21
2.217160
 12
5.740240
 22
1.449360
 13
5.737600
 23
2.197360
  0
POLYLINE
  8
0
  6
CONTINUOUS
 66
     1
 40
0.000000
 41
0.000000
  0
VERTEX
  8
0
  6
CONTINUOUS
 10
5.720440
 20
1.469160
  0
VERTEX
  8
0
  6
CONTINUOUS
 10
5.717800
 20
2.217160
  0
VERTEX
  8
0
  6
CONTINUOUS
 10
5.737600
 20
2.197360
  0
VERTEX
  8
0
  6
CONTINUOUS
 10
5.740240
 20
1.449360
  0
VERTEX
  8
0
  6
CONTINUOUS
 10
5.720440
 20
1.469160
  0
SEQEND
  8
0
  0
SOLID
  8
0
 62
    15
 10
5.740240
 20
1.449360
 11
5.737600
 21
2.197360
 12
5.757400
 22
1.422080
 13
5.754760
 23
2.170080
  0
POLYLINE
  8
0
  6
CONTINUOUS
 66
     1
 40
0.000000
 41
0.000000
  0
VERTEX
  8
0
  6
CONTINUOUS
 10
5.740240
 20
1.449360
  0
VERTEX
  8
0
  6
CONTINUOUS
 10
5.737600
 20
2.197360
  0
VERTEX
  8
0
  6
CONTINUOUS
 10
5.754760
 20
2.170080
  0
VERTEX
  8
0
  6
CONTINUOUS
 10
5.757400
 20
1.422080
  0
VERTEX
  8
0
  6
CONTINUOUS
 10
5.740240
 20
1.449360
  0
SEQEND
  8
0
  0
SOLID
  8
0
 62
    15
 10
5.757400
 20
1.422080
 11
5.754760
 21
2.170080
 12
5.771480
 22
1.387760
 13
5.768840
 23
2.135760
  0
POLYLINE
  8
0
  6
CONTINUOUS
 66
     1
 40
0.000000
 41
0.000000
  0
VERTEX
  8
0
  6
CONTINUOUS
 10
5.757400
 20
1.422080
  0
VERTEX
  8
0
  6
CONTINUOUS
 10
5.754760
 20
2.170080
  0
VERTEX
  8
0
  6
CONTINUOUS
 10
5.768840
 20
2.135760
  0
VERTEX
  8
0
  6
CONTINUOUS
 10
5.771480
 20
1.387760
  0
VERTEX
  8
0
  6
CONTINUOUS
 10
5.757400
 20
1.422080
  0
SEQEND
  8
0
  0
SOLID
  8
0
 62
    15
 10
5.771480
 20
1.387760
 11
5.768840
 21
2.135760
 12
5.782040
 22
1.345960
 13
5.779400
 23
2.093960
  0
POLYLINE
  8
0
  6
CONTINUOUS
 66
     1
 40
0.000000
 41
0.000000
  0
VERTEX
  8
0
  6
CONTINUOUS
 10
5.771480
 20
1.387760
  0
VERTEX
  8
0
  6
CONTINUOUS
 10
5.768840
 20
2.135760
  0
VERTEX
  8
0
  6
CONTINUOUS
 10
5.779400
 20
2.093960
  0
VERTEX
  8
0
  6
CONTINUOUS
 10
5.782040
 20
1.345960
  0
VERTEX
  8
0
  6
CONTINUOUS
 10
5.771480
 20
1.387760
  0
SEQEND
  8
0
  0
SOLID
  8
0
 62
    15
 10
5.782040
 20
1.345960
 11
5.779400
 21
2.093960
 12
5.788200
 22
1.295800
 13
5.785560
 23
2.043800
  0
POLYLINE
  8
0
  6
CONTINUOUS
 66
     1
 40
0.000000
 41
0.000000
  0
VERTEX
  8
0
  6
CONTINUOUS
 10
5.782040
 20
1.345960
  0
VERTEX
  8
0
  6
CONTINUOUS
 10
5.779400
 20
2.093960
  0
VERTEX
  8
0
  6
CONTINUOUS
 10
5.785560
 20
2.043800
  0
VERTEX
  8
0
  6
CONTINUOUS
 10
5.788200
 20
1.295800
  0
VERTEX
  8
0
  6
CONTINUOUS
 10
5.782040
 20
1.345960
  0
SEQEND
  8
0
  0
SOLID
  8
0
 62
    15
 10
5.788200
 20
1.295800
 11
5.785560
 21
2.043800
 12
5.895560
 22
1.295800
 13
5.892920
 23
2.043800
  0
POLYLINE
  8
0
  6
CONTINUOUS
 66
     1
 40
0.000000
 41
0.000000
  0
VERTEX
  8
0
  6
CONTINUOUS
 10
5.788200
 20
1.295800
  0
VERTEX
  8
0
  6
CONTINUOUS
 10
5.785560
 20
2.043800
  0
VERTEX
  8
0
  6
CONTINUOUS
 10
5.892920
 20
2.043800
  0
VERTEX
  8
0
  6
CONTINUOUS
 10
5.895560
 20
1.295800
  0
VERTEX
  8
0
  6
CONTINUOUS
 10
5.788200
 20
1.295800
  0
SEQEND
  8
0
  0
SOLID
  8
0
 62
    15
 10
4.241600
 20
1.592800
 11
4.238960
 21
2.340800
 12
4.403520
 22
1.592800
 13
4.400880
 23
2.340800
  0
POLYLINE
  8
0
  6
CONTINUOUS
 66
     1
 40
0.000000
 41
0.000000
  0
VERTEX
  8
0
  6
CONTINUOUS
 10
4.241600
 20
1.592800
  0
VERTEX
  8
0
  6
CONTINUOUS
 10
4.238960
 20
2.340800
  0
VERTEX
  8
0
  6
CONTINUOUS
 10
4.400880
 20
2.340800
  0
VERTEX
  8
0
  6
CONTINUOUS
 10
4.403520
 20
1.592800
  0
VERTEX
  8
0
  6
CONTINUOUS
 10
4.241600
 20
1.592800
  0
SEQEND
  8
0
  0
SOLID
  8
0
 62
    15
 10
4.403520
 20
1.592800
 11
4.400880
 21
2.340800
 12
4.403520
 22
1.594560
 13
4.400880
 23
2.342560
  0
POLYLINE
  8
0
  6
CONTINUOUS
 66
     1
 40
0.000000
 41
0.000000
  0
VERTEX
  8
0
  6
CONTINUOUS
 10
4.403520
 20
1.592800
  0
VERTEX
  8
0
  6
CONTINUOUS
 10
4.400880
 20
2.340800
  0
VERTEX
  8
0
  6
CONTINUOUS
 10
4.400880
 20
2.342560
  0
VERTEX
  8
0
  6
CONTINUOUS
 10
4.403520
 20
1.594560
  0
VERTEX
  8
0
  6
CONTINUOUS
 10
4.403520
 20
1.592800
  0
SEQEND
  8
0
  0
SOLID
  8
0
 62
    15
 10
4.403520
 20
1.594560
 11
4.400880
 21
2.342560
 12
4.410120
 22
1.633720
 13
4.407480
 23
2.381720
  0
POLYLINE
  8
0
  6
CONTINUOUS
 66
     1
 40
0.000000
 41
0.000000
  0
VERTEX
  8
0
  6
CONTINUOUS
 10
4.403520
 20
1.594560
  0
VERTEX
  8
0
  6
CONTINUOUS
 10
4.400880
 20
2.342560
  0
VERTEX
  8
0
  6
CONTINUOUS
 10
4.407480
 20
2.381720
  0
VERTEX
  8
0
  6
CONTINUOUS
 10
4.410120
 20
1.633720
  0
VERTEX
  8
0
  6
CONTINUOUS
 10
4.403520
 20
1.594560
  0
SEQEND
  8
0
  0
POLYLINE
  8
0
  6
CONTINUOUS
 66
     1
 40
0.000000
 41
0.000000
  0
VERTEX
  8
0
  6
CONTINUOUS
 10
4.403520
 20
1.594560
  0
VERTEX
  8
0
  6
CONTINUOUS
 10
4.410120
 20
1.633720
  0
VERTEX
  8
0
  6
CONTINUOUS
 10
4.422000
 20
1.669360
  0
VERTEX
  8
0
  6
CONTINUOUS
 10
4.438720
 20
1.701480
  0
VERTEX
  8
0
  6
CONTINUOUS
 10
4.460280
 20
1.729200
  0
VERTEX
  8
0
  6
CONTINUOUS
 10
4.484920
 20
1.752520
  0
VERTEX
  8
0
  6
CONTINUOUS
 10
4.512640
 20
1.771000
  0
VERTEX
  8
0
  6
CONTINUOUS
 10
4.542120
 20
1.784200
  0
VERTEX
  8
0
  6
CONTINUOUS
 10
4.572920
 20
1.791240
  0
VERTEX
  8
0
  6
CONTINUOUS
 10
4.604160
 20
1.792120
  0
VERTEX
  8
0
  6
CONTINUOUS
 10
4.635400
 20
1.786400
  0
VERTEX
  8
0
  6
CONTINUOUS
 10
4.665320
 20
1.773200
  0
VERTEX
  8
0
  6
CONTINUOUS
 10
4.693920
 20
1.752520
  0
VERTEX
  8
0
  6
CONTINUOUS
 10
4.719440
 20
1.723480
  0
VERTEX
  8
0
  6
CONTINUOUS
 10
4.742320
 20
1.686080
  0
VERTEX
  8
0
  6
CONTINUOUS
 10
4.760800
 20
1.639880
  0
VERTEX
  8
0
  6
CONTINUOUS
 10
4.774440
 20
1.584440
  0
VERTEX
  8
0
  6
CONTINUOUS
 10
4.874760
 20
1.584440
  0
VERTEX
  8
0
  6
CONTINUOUS
 10
4.902920
 20
1.534720
  0
VERTEX
  8
0
  6
CONTINUOUS
 10
4.934160
 20
1.491600
  0
VERTEX
  8
0
  6
CONTINUOUS
 10
4.968920
 20
1.454640
  0
VERTEX
  8
0
  6
CONTINUOUS
 10
5.006760
 20
1.423400
  0
VERTEX
  8
0
  6
CONTINUOUS
 10
5.046800
 20
1.397000
  0
VERTEX
  8
0
  6
CONTINUOUS
 10
5.089040
 20
1.375440
  0
VERTEX
  8
0
  6
CONTINUOUS
 10
5.132600
 20
1.357840
  0
VERTEX
  8
0
  6
CONTINUOUS
 10
5.177480
 20
1.344200
  0
VERTEX
  8
0
  6
CONTINUOUS
 10
5.269000
 20
1.326160
  0
VERTEX
  8
0
  6
CONTINUOUS
 10
5.360520
 20
1.317360
  0
VERTEX
  8
0
  6
CONTINUOUS
 10
5.448520
 20
1.314280
  0
VERTEX
  8
0
  6
CONTINUOUS
 10
5.529480
 20
1.313400
  0
VERTEX
  8
0
  6
CONTINUOUS
 10
5.532560
 20
1.349920
  0
VERTEX
  8
0
  6
CONTINUOUS
 10
5.540920
 20
1.382920
  0
VERTEX
  8
0
  6
CONTINUOUS
 10
5.552800
 20
1.412400
  0
VERTEX
  8
0
  6
CONTINUOUS
 10
5.568640
 20
1.437480
  0
VERTEX
  8
0
  6
CONTINUOUS
 10
5.587120
 20
1.457720
  0
VERTEX
  8
0
  6
CONTINUOUS
 10
5.607800
 20
1.473560
  0
VERTEX
  8
0
  6
CONTINUOUS
 10
5.629800
 20
1.484120
  0
VERTEX
  8
0
  6
CONTINUOUS
 10
5.652680
 20
1.489400
  0
VERTEX
  8
0
  6
CONTINUOUS
 10
5.676000
 20
1.488960
  0
VERTEX
  8
0
  6
CONTINUOUS
 10
5.698880
 20
1.481920
  0
VERTEX
  8
0
  6
CONTINUOUS
 10
5.720440
 20
1.469160
  0
VERTEX
  8
0
  6
CONTINUOUS
 10
5.740240
 20
1.449360
  0
VERTEX
  8
0
  6
CONTINUOUS
 10
5.757400
 20
1.422080
  0
VERTEX
  8
0
  6
CONTINUOUS
 10
5.771480
 20
1.387760
  0
VERTEX
  8
0
  6
CONTINUOUS
 10
5.782040
 20
1.345960
  0
VERTEX
  8
0
  6
CONTINUOUS
 10
5.788200
 20
1.295800
  0
VERTEX
  8
0
  6
CONTINUOUS
 10
5.895560
 20
1.295800
  0
VERTEX
  8
0
  6
CONTINUOUS
 10
5.895560
 20
1.032240
  0
VERTEX
  8
0
  6
CONTINUOUS
 10
4.241600
 20
1.032240
  0
VERTEX
  8
0
  6
CONTINUOUS
 10
4.241600
 20
1.592800
  0
VERTEX
  8
0
  6
CONTINUOUS
 10
4.403520
 20
1.592800
  0
VERTEX
  8
0
  6
CONTINUOUS
 10
4.403520
 20
1.594560
  0
SEQEND
  8
0
  0
TEXT
  8
0
 10
4.771360
 20
0.800360
 40
0.138145
  1
BA  678
 41
1.000000
  7
SN0
 71
     0
 72
     5
 11
5.361535
 21
0.800360
  0
TEXT
  8
0
 10
4.523640
 20
0.608520
 40
0.138145
  1
3/4" x 1-11/16"
 41
1.000000
  7
SN0
 71
     0
 72
     5
 11
5.608138
 21
0.608520
  0
ENDSEC
  0
EOF
