  0
SECTION
  2
HEADER
  9
$ACADVER
  1
AC1006
  9
$EXTMIN
 10
3.228280
 20
0.615120
  9
$EXTMAX
 10
7.919120
 20
4.224000
  9
$LTSCALE
 40
0.044000
  9
$PDMODE
 70
    35
  9
$PDSIZE
 40
0.035200
  0
ENDSEC
  0
SECTION
  2
TABLES
  0
TABLE
  2
LTYPE
 70
     9
  0
LTYPE
  2
CONTINUOUS
 70
    64
  3
Solid line
 72
    65
 73
     0
 40
0.000000
  0
LTYPE
  2
DASHED
 70
    64
  3
__ __ __ __ __ __ __ __ __ __ __ __ __ __ __
 72
    65
 73
     2
 40
0.000330
 49
0.000220
 49
-0.000110
  0
LTYPE
  2
HIDDEN
 70
    64
  3
 _ _ _ _ _ _ _ _ _ _ _ _ _ _ _ _ _ _ _ _ _ _
 72
    65
 73
     2
 40
0.000165
 49
0.000110
 49
-0.000055
  0
LTYPE
  2
CENTER
 70
    64
  3
____ _ ____ _ ____ _ ____ _ ____ _ ____ _ ____
 72
    65
 73
     4
 40
0.000880
 49
0.000550
 49
-0.000110
 49
0.000110
 49
-0.000110
  0
LTYPE
  2
PHANTOM
 70
    64
  3
_____ _ _ _____ _ _ _____ _ _ _____ _ _ ____
 72
    65
 73
     6
 40
0.001100
 49
0.000550
 49
-0.000110
 49
0.000110
 49
-0.000110
 49
0.000110
 49
-0.000110
  0
LTYPE
  2
DOT
 70
    64
  3
...............................................
 72
    65
 73
     2
 40
0.000110
 49
0.000000
 49
-0.000110
  0
LTYPE
  2
DASHDOT
 70
    64
  3
__ . __ . __ . __ . __ . __ . __ . __ . __ . __
 72
    65
 73
     4
 40
0.000440
 49
0.000220
 49
-0.000110
 49
0.000000
 49
-0.000110
  0
LTYPE
  2
BORDER
 70
    64
  3
__ __ . __ __ . __ __ . __ __ . __ __ . __ __
 72
    65
 73
     6
 40
0.000770
 49
0.000220
 49
-0.000110
 49
0.000220
 49
-0.000110
 49
0.000000
 49
-0.000110
  0
LTYPE
  2
DIVIDE
 70
    64
  3
__ . . __ . . __ . . __ . . __ . . __ . . __
 72
    65
 73
     6
 40
0.000550
 49
0.000220
 49
-0.000110
 49
0.000000
 49
-0.000110
 49
0.000000
 49
-0.000110
  0
LTYPE
  2
DOTDOT
 70
    64
  3
 . .  . .  . .  . .  . .  . . 
 72
    65
 73
     5
 40
0.000242
 49
-0.000110
 49
0.000000
 49
-0.000110
 49
0.000000
 49
-0.000110
  0
ENDTAB
  0
TABLE
  2
STYLE
 70
     2
  0
STYLE
 70
     0
  2
SN0
 40
0.000000
 41
0.000440
 50
0.000000
 71
     0
 42
0.000000
  3
ROMAND
  0
STYLE
 70
    68
  2
SV0
 40
0.000000
 41
0.000440
 50
0.000000
 71
     0
 42
0.000000
  3
ROMAND
  0
ENDTAB
  0
TABLE
  2
LAYER
 70
     3
  0
LAYER
  2
FOREGROUND
 70
    64
 62
     7
  6
CONTINUOUS
  0
LAYER
  2
BACKGROUND
 70
    65
 62
    -7
  6
CONTINUOUS
  0
LAYER
  2
0
 70
    64
 62
     7
  6
CONTINUOUS
  0
ENDTAB
  0
ENDSEC
  0
SECTION
  2
ENTITIES
  0
POLYLINE
  8
FOREGROUND
  6
CONTINUOUS
 66
     1
 40
0.000000
 41
0.000000
  0
VERTEX
  8
FOREGROUND
  6
CONTINUOUS
 10
0.000000
 20
4.839120
  0
VERTEX
  8
FOREGROUND
  6
CONTINUOUS
 10
8.499920
 20
4.839120
  0
VERTEX
  8
FOREGROUND
  6
CONTINUOUS
 10
8.499920
 20
-6.160880
  0
VERTEX
  8
FOREGROUND
  6
CONTINUOUS
 10
0.000000
 20
-6.160880
  0
VERTEX
  8
FOREGROUND
  6
CONTINUOUS
 10
0.000000
 20
4.839120
  0
SEQEND
  8
0
  0
POLYLINE
  8
FOREGROUND
  6
CONTINUOUS
 66
     1
 40
0.000000
 41
0.000000
  0
VERTEX
  8
FOREGROUND
  6
CONTINUOUS
 10
0.000000
 20
4.839120
  0
VERTEX
  8
FOREGROUND
  6
CONTINUOUS
 10
8.499920
 20
4.839120
  0
VERTEX
  8
FOREGROUND
  6
CONTINUOUS
 10
8.499920
 20
-6.160880
  0
VERTEX
  8
FOREGROUND
  6
CONTINUOUS
 10
0.000000
 20
-6.160880
  0
VERTEX
  8
FOREGROUND
  6
CONTINUOUS
 10
0.000000
 20
4.839120
  0
SEQEND
  8
0
  0
POLYLINE
  8
0
  6
CONTINUOUS
 66
     1
 40
0.014080
 41
0.014080
  0
VERTEX
  8
0
  6
CONTINUOUS
 10
5.445880
 20
3.713160
  0
VERTEX
  8
0
  6
CONTINUOUS
 10
5.514520
 20
3.729000
  0
VERTEX
  8
0
  6
CONTINUOUS
 10
5.557640
 20
3.734280
  0
VERTEX
  8
0
  6
CONTINUOUS
 10
5.599000
 20
3.735600
  0
VERTEX
  8
0
  6
CONTINUOUS
 10
5.638600
 20
3.732520
  0
VERTEX
  8
0
  6
CONTINUOUS
 10
5.677320
 20
3.725920
  0
VERTEX
  8
0
  6
CONTINUOUS
 10
5.715160
 20
3.715800
  0
VERTEX
  8
0
  6
CONTINUOUS
 10
5.753000
 20
3.702160
  0
VERTEX
  8
0
  6
CONTINUOUS
 10
5.790840
 20
3.685000
  0
VERTEX
  8
0
  6
CONTINUOUS
 10
5.848480
 20
3.652880
  0
VERTEX
  8
0
  6
CONTINUOUS
 10
5.908320
 20
3.614160
  0
VERTEX
  8
0
  6
CONTINUOUS
 10
5.994120
 20
3.552120
  0
VERTEX
  8
0
  6
CONTINUOUS
 10
6.115120
 20
3.460160
  0
VERTEX
  8
0
  6
CONTINUOUS
 10
6.169680
 20
3.423640
  0
VERTEX
  8
0
  6
CONTINUOUS
 10
6.198720
 20
3.407800
  0
VERTEX
  8
0
  6
CONTINUOUS
 10
6.259880
 20
3.380960
  0
VERTEX
  8
0
  6
CONTINUOUS
 10
6.324120
 20
3.359400
  0
VERTEX
  8
0
  6
CONTINUOUS
 10
6.391000
 20
3.343560
  0
VERTEX
  8
0
  6
CONTINUOUS
 10
6.459200
 20
3.331680
  0
VERTEX
  8
0
  6
CONTINUOUS
 10
6.528280
 20
3.324200
  0
VERTEX
  8
0
  6
CONTINUOUS
 10
6.597360
 20
3.320240
  0
VERTEX
  8
0
  6
CONTINUOUS
 10
6.665120
 20
3.319360
  0
VERTEX
  8
0
  6
CONTINUOUS
 10
6.731120
 20
3.320680
  0
VERTEX
  8
0
  6
CONTINUOUS
 10
6.824840
 20
3.326400
  0
VERTEX
  8
0
  6
CONTINUOUS
 10
6.935720
 20
3.337840
  0
VERTEX
  8
0
  6
CONTINUOUS
 10
7.057160
 20
3.353680
  0
VERTEX
  8
0
  6
CONTINUOUS
 10
7.087520
 20
3.243240
  0
VERTEX
  8
0
  6
CONTINUOUS
 10
7.279360
 20
3.236640
  0
VERTEX
  8
0
  6
CONTINUOUS
 10
7.286400
 20
3.258640
  0
VERTEX
  8
0
  6
CONTINUOUS
 10
7.304880
 20
3.297360
  0
VERTEX
  8
0
  6
CONTINUOUS
 10
7.315880
 20
3.314520
  0
VERTEX
  8
0
  6
CONTINUOUS
 10
7.340960
 20
3.343120
  0
VERTEX
  8
0
  6
CONTINUOUS
 10
7.369560
 20
3.365560
  0
VERTEX
  8
0
  6
CONTINUOUS
 10
7.400800
 20
3.381400
  0
VERTEX
  8
0
  6
CONTINUOUS
 10
7.417080
 20
3.387120
  0
VERTEX
  8
0
  6
CONTINUOUS
 10
7.451400
 20
3.393720
  0
VERTEX
  8
0
  6
CONTINUOUS
 10
7.468560
 20
3.395040
  0
VERTEX
  8
0
  6
CONTINUOUS
 10
7.503760
 20
3.392840
  0
VERTEX
  8
0
  6
CONTINUOUS
 10
7.538520
 20
3.385360
  0
VERTEX
  8
0
  6
CONTINUOUS
 10
7.571960
 20
3.372160
  0
VERTEX
  8
0
  6
CONTINUOUS
 10
7.604080
 20
3.353680
  0
VERTEX
  8
0
  6
CONTINUOUS
 10
7.633120
 20
3.329920
  0
VERTEX
  8
0
  6
CONTINUOUS
 10
7.659520
 20
3.301320
  0
VERTEX
  8
0
  6
CONTINUOUS
 10
7.681520
 20
3.268320
  0
VERTEX
  8
0
  6
CONTINUOUS
 10
7.690760
 20
3.249840
  0
VERTEX
  8
0
  6
CONTINUOUS
 10
7.698680
 20
3.230040
  0
VERTEX
  8
0
  6
CONTINUOUS
 10
7.710120
 20
3.187800
  0
VERTEX
  8
0
  6
CONTINUOUS
 10
7.911640
 20
3.187800
  0
VERTEX
  8
0
  6
CONTINUOUS
 10
7.911640
 20
2.921160
  0
VERTEX
  8
0
  6
CONTINUOUS
 10
5.138320
 20
2.921160
  0
VERTEX
  8
0
  6
CONTINUOUS
 10
5.138320
 20
3.857040
  0
VERTEX
  8
0
  6
CONTINUOUS
 10
5.409800
 20
3.857040
  0
VERTEX
  8
0
  6
CONTINUOUS
 10
5.445880
 20
3.713160
  0
SEQEND
  8
0
  0
SOLID
  8
0
 62
    15
 10
3.645400
 20
2.038080
 11
4.284280
 21
2.426160
 12
3.651560
 22
1.991000
 13
4.290440
 23
2.378640
  0
POLYLINE
  8
0
  6
CONTINUOUS
 66
     1
 40
0.000000
 41
0.000000
  0
VERTEX
  8
0
  6
CONTINUOUS
 10
3.645400
 20
2.038080
  0
VERTEX
  8
0
  6
CONTINUOUS
 10
4.284280
 20
2.426160
  0
VERTEX
  8
0
  6
CONTINUOUS
 10
4.290440
 20
2.378640
  0
VERTEX
  8
0
  6
CONTINUOUS
 10
3.651560
 20
1.991000
  0
VERTEX
  8
0
  6
CONTINUOUS
 10
3.645400
 20
2.038080
  0
SEQEND
  8
0
  0
SOLID
  8
0
 62
    15
 10
4.032600
 20
3.481720
 11
4.671040
 21
3.869360
 12
4.039640
 22
3.437720
 13
4.678520
 23
3.825360
  0
POLYLINE
  8
0
  6
CONTINUOUS
 66
     1
 40
0.000000
 41
0.000000
  0
VERTEX
  8
0
  6
CONTINUOUS
 10
4.032600
 20
3.481720
  0
VERTEX
  8
0
  6
CONTINUOUS
 10
4.671040
 20
3.869360
  0
VERTEX
  8
0
  6
CONTINUOUS
 10
4.678520
 20
3.825360
  0
VERTEX
  8
0
  6
CONTINUOUS
 10
4.039640
 20
3.437720
  0
VERTEX
  8
0
  6
CONTINUOUS
 10
4.032600
 20
3.481720
  0
SEQEND
  8
0
  0
SOLID
  8
0
 62
    15
 10
4.039640
 20
3.437720
 11
4.678520
 21
3.825360
 12
4.043160
 22
3.395480
 13
4.681600
 23
3.783560
  0
POLYLINE
  8
0
  6
CONTINUOUS
 66
     1
 40
0.000000
 41
0.000000
  0
VERTEX
  8
0
  6
CONTINUOUS
 10
4.039640
 20
3.437720
  0
VERTEX
  8
0
  6
CONTINUOUS
 10
4.678520
 20
3.825360
  0
VERTEX
  8
0
  6
CONTINUOUS
 10
4.681600
 20
3.783560
  0
VERTEX
  8
0
  6
CONTINUOUS
 10
4.043160
 20
3.395480
  0
VERTEX
  8
0
  6
CONTINUOUS
 10
4.039640
 20
3.437720
  0
SEQEND
  8
0
  0
SOLID
  8
0
 62
    15
 10
4.043160
 20
3.395480
 11
4.681600
 21
3.783560
 12
4.042280
 22
3.355440
 13
4.680720
 23
3.743080
  0
POLYLINE
  8
0
  6
CONTINUOUS
 66
     1
 40
0.000000
 41
0.000000
  0
VERTEX
  8
0
  6
CONTINUOUS
 10
4.043160
 20
3.395480
  0
VERTEX
  8
0
  6
CONTINUOUS
 10
4.681600
 20
3.783560
  0
VERTEX
  8
0
  6
CONTINUOUS
 10
4.680720
 20
3.743080
  0
VERTEX
  8
0
  6
CONTINUOUS
 10
4.042280
 20
3.355440
  0
VERTEX
  8
0
  6
CONTINUOUS
 10
4.043160
 20
3.395480
  0
SEQEND
  8
0
  0
SOLID
  8
0
 62
    15
 10
4.042280
 20
3.355440
 11
4.680720
 21
3.743080
 12
4.029080
 22
3.278000
 13
4.667960
 23
3.665640
  0
POLYLINE
  8
0
  6
CONTINUOUS
 66
     1
 40
0.000000
 41
0.000000
  0
VERTEX
  8
0
  6
CONTINUOUS
 10
4.042280
 20
3.355440
  0
VERTEX
  8
0
  6
CONTINUOUS
 10
4.680720
 20
3.743080
  0
VERTEX
  8
0
  6
CONTINUOUS
 10
4.667960
 20
3.665640
  0
VERTEX
  8
0
  6
CONTINUOUS
 10
4.029080
 20
3.278000
  0
VERTEX
  8
0
  6
CONTINUOUS
 10
4.042280
 20
3.355440
  0
SEQEND
  8
0
  0
SOLID
  8
0
 62
    15
 10
4.029080
 20
3.278000
 11
4.667960
 21
3.665640
 12
4.001800
 22
3.202320
 13
4.640240
 23
3.589960
  0
POLYLINE
  8
0
  6
CONTINUOUS
 66
     1
 40
0.000000
 41
0.000000
  0
VERTEX
  8
0
  6
CONTINUOUS
 10
4.029080
 20
3.278000
  0
VERTEX
  8
0
  6
CONTINUOUS
 10
4.667960
 20
3.665640
  0
VERTEX
  8
0
  6
CONTINUOUS
 10
4.640240
 20
3.589960
  0
VERTEX
  8
0
  6
CONTINUOUS
 10
4.001800
 20
3.202320
  0
VERTEX
  8
0
  6
CONTINUOUS
 10
4.029080
 20
3.278000
  0
SEQEND
  8
0
  0
SOLID
  8
0
 62
    15
 10
4.001800
 20
3.202320
 11
4.640240
 21
3.589960
 12
3.960880
 22
3.125760
 13
4.599320
 23
3.513400
  0
POLYLINE
  8
0
  6
CONTINUOUS
 66
     1
 40
0.000000
 41
0.000000
  0
VERTEX
  8
0
  6
CONTINUOUS
 10
4.001800
 20
3.202320
  0
VERTEX
  8
0
  6
CONTINUOUS
 10
4.640240
 20
3.589960
  0
VERTEX
  8
0
  6
CONTINUOUS
 10
4.599320
 20
3.513400
  0
VERTEX
  8
0
  6
CONTINUOUS
 10
3.960880
 20
3.125760
  0
VERTEX
  8
0
  6
CONTINUOUS
 10
4.001800
 20
3.202320
  0
SEQEND
  8
0
  0
SOLID
  8
0
 62
    15
 10
3.960880
 20
3.125760
 11
4.599320
 21
3.513400
 12
3.907200
 22
3.044800
 13
4.546080
 23
3.432880
  0
POLYLINE
  8
0
  6
CONTINUOUS
 66
     1
 40
0.000000
 41
0.000000
  0
VERTEX
  8
0
  6
CONTINUOUS
 10
3.960880
 20
3.125760
  0
VERTEX
  8
0
  6
CONTINUOUS
 10
4.599320
 20
3.513400
  0
VERTEX
  8
0
  6
CONTINUOUS
 10
4.546080
 20
3.432880
  0
VERTEX
  8
0
  6
CONTINUOUS
 10
3.907200
 20
3.044800
  0
VERTEX
  8
0
  6
CONTINUOUS
 10
3.960880
 20
3.125760
  0
SEQEND
  8
0
  0
SOLID
  8
0
 62
    15
 10
3.907200
 20
3.044800
 11
4.546080
 21
3.432880
 12
3.842520
 22
2.957240
 13
4.481400
 23
3.344880
  0
POLYLINE
  8
0
  6
CONTINUOUS
 66
     1
 40
0.000000
 41
0.000000
  0
VERTEX
  8
0
  6
CONTINUOUS
 10
3.907200
 20
3.044800
  0
VERTEX
  8
0
  6
CONTINUOUS
 10
4.546080
 20
3.432880
  0
VERTEX
  8
0
  6
CONTINUOUS
 10
4.481400
 20
3.344880
  0
VERTEX
  8
0
  6
CONTINUOUS
 10
3.842520
 20
2.957240
  0
VERTEX
  8
0
  6
CONTINUOUS
 10
3.907200
 20
3.044800
  0
SEQEND
  8
0
  0
SOLID
  8
0
 62
    15
 10
3.842520
 20
2.957240
 11
4.481400
 21
3.344880
 12
3.806440
 22
2.909720
 13
4.444880
 23
3.297360
  0
POLYLINE
  8
0
  6
CONTINUOUS
 66
     1
 40
0.000000
 41
0.000000
  0
VERTEX
  8
0
  6
CONTINUOUS
 10
3.842520
 20
2.957240
  0
VERTEX
  8
0
  6
CONTINUOUS
 10
4.481400
 20
3.344880
  0
VERTEX
  8
0
  6
CONTINUOUS
 10
4.444880
 20
3.297360
  0
VERTEX
  8
0
  6
CONTINUOUS
 10
3.806440
 20
2.909720
  0
VERTEX
  8
0
  6
CONTINUOUS
 10
3.842520
 20
2.957240
  0
SEQEND
  8
0
  0
SOLID
  8
0
 62
    15
 10
3.806440
 20
2.909720
 11
4.444880
 21
3.297360
 12
3.767720
 22
2.859120
 13
4.406160
 23
3.246760
  0
POLYLINE
  8
0
  6
CONTINUOUS
 66
     1
 40
0.000000
 41
0.000000
  0
VERTEX
  8
0
  6
CONTINUOUS
 10
3.806440
 20
2.909720
  0
VERTEX
  8
0
  6
CONTINUOUS
 10
4.444880
 20
3.297360
  0
VERTEX
  8
0
  6
CONTINUOUS
 10
4.406160
 20
3.246760
  0
VERTEX
  8
0
  6
CONTINUOUS
 10
3.767720
 20
2.859120
  0
VERTEX
  8
0
  6
CONTINUOUS
 10
3.806440
 20
2.909720
  0
SEQEND
  8
0
  0
SOLID
  8
0
 62
    15
 10
3.767720
 20
2.859120
 11
4.406160
 21
3.246760
 12
3.731200
 22
2.804560
 13
4.370080
 23
3.192200
  0
POLYLINE
  8
0
  6
CONTINUOUS
 66
     1
 40
0.000000
 41
0.000000
  0
VERTEX
  8
0
  6
CONTINUOUS
 10
3.767720
 20
2.859120
  0
VERTEX
  8
0
  6
CONTINUOUS
 10
4.406160
 20
3.246760
  0
VERTEX
  8
0
  6
CONTINUOUS
 10
4.370080
 20
3.192200
  0
VERTEX
  8
0
  6
CONTINUOUS
 10
3.731200
 20
2.804560
  0
VERTEX
  8
0
  6
CONTINUOUS
 10
3.767720
 20
2.859120
  0
SEQEND
  8
0
  0
SOLID
  8
0
 62
    15
 10
3.731200
 20
2.804560
 11
4.370080
 21
3.192200
 12
3.701280
 22
2.745160
 13
4.339720
 23
3.132800
  0
POLYLINE
  8
0
  6
CONTINUOUS
 66
     1
 40
0.000000
 41
0.000000
  0
VERTEX
  8
0
  6
CONTINUOUS
 10
3.731200
 20
2.804560
  0
VERTEX
  8
0
  6
CONTINUOUS
 10
4.370080
 20
3.192200
  0
VERTEX
  8
0
  6
CONTINUOUS
 10
4.339720
 20
3.132800
  0
VERTEX
  8
0
  6
CONTINUOUS
 10
3.701280
 20
2.745160
  0
VERTEX
  8
0
  6
CONTINUOUS
 10
3.731200
 20
2.804560
  0
SEQEND
  8
0
  0
SOLID
  8
0
 62
    15
 10
3.701280
 20
2.745160
 11
4.339720
 21
3.132800
 12
3.677080
 22
2.682240
 13
4.315960
 23
3.070320
  0
POLYLINE
  8
0
  6
CONTINUOUS
 66
     1
 40
0.000000
 41
0.000000
  0
VERTEX
  8
0
  6
CONTINUOUS
 10
3.701280
 20
2.745160
  0
VERTEX
  8
0
  6
CONTINUOUS
 10
4.339720
 20
3.132800
  0
VERTEX
  8
0
  6
CONTINUOUS
 10
4.315960
 20
3.070320
  0
VERTEX
  8
0
  6
CONTINUOUS
 10
3.677080
 20
2.682240
  0
VERTEX
  8
0
  6
CONTINUOUS
 10
3.701280
 20
2.745160
  0
SEQEND
  8
0
  0
SOLID
  8
0
 62
    15
 10
3.677080
 20
2.682240
 11
4.315960
 21
3.070320
 12
3.658600
 22
2.616680
 13
4.297040
 23
3.004320
  0
POLYLINE
  8
0
  6
CONTINUOUS
 66
     1
 40
0.000000
 41
0.000000
  0
VERTEX
  8
0
  6
CONTINUOUS
 10
3.677080
 20
2.682240
  0
VERTEX
  8
0
  6
CONTINUOUS
 10
4.315960
 20
3.070320
  0
VERTEX
  8
0
  6
CONTINUOUS
 10
4.297040
 20
3.004320
  0
VERTEX
  8
0
  6
CONTINUOUS
 10
3.658600
 20
2.616680
  0
VERTEX
  8
0
  6
CONTINUOUS
 10
3.677080
 20
2.682240
  0
SEQEND
  8
0
  0
SOLID
  8
0
 62
    15
 10
3.658600
 20
2.616680
 11
4.297040
 21
3.004320
 12
3.644520
 22
2.548920
 13
4.283400
 23
2.936560
  0
POLYLINE
  8
0
  6
CONTINUOUS
 66
     1
 40
0.000000
 41
0.000000
  0
VERTEX
  8
0
  6
CONTINUOUS
 10
3.658600
 20
2.616680
  0
VERTEX
  8
0
  6
CONTINUOUS
 10
4.297040
 20
3.004320
  0
VERTEX
  8
0
  6
CONTINUOUS
 10
4.283400
 20
2.936560
  0
VERTEX
  8
0
  6
CONTINUOUS
 10
3.644520
 20
2.548920
  0
VERTEX
  8
0
  6
CONTINUOUS
 10
3.658600
 20
2.616680
  0
SEQEND
  8
0
  0
SOLID
  8
0
 62
    15
 10
3.644520
 20
2.548920
 11
4.283400
 21
2.936560
 12
3.635280
 22
2.480280
 13
4.273720
 23
2.867920
  0
POLYLINE
  8
0
  6
CONTINUOUS
 66
     1
 40
0.000000
 41
0.000000
  0
VERTEX
  8
0
  6
CONTINUOUS
 10
3.644520
 20
2.548920
  0
VERTEX
  8
0
  6
CONTINUOUS
 10
4.283400
 20
2.936560
  0
VERTEX
  8
0
  6
CONTINUOUS
 10
4.273720
 20
2.867920
  0
VERTEX
  8
0
  6
CONTINUOUS
 10
3.635280
 20
2.480280
  0
VERTEX
  8
0
  6
CONTINUOUS
 10
3.644520
 20
2.548920
  0
SEQEND
  8
0
  0
SOLID
  8
0
 62
    15
 10
3.635280
 20
2.480280
 11
4.273720
 21
2.867920
 12
3.627360
 22
2.342560
 13
4.265800
 23
2.730200
  0
POLYLINE
  8
0
  6
CONTINUOUS
 66
     1
 40
0.000000
 41
0.000000
  0
VERTEX
  8
0
  6
CONTINUOUS
 10
3.635280
 20
2.480280
  0
VERTEX
  8
0
  6
CONTINUOUS
 10
4.273720
 20
2.867920
  0
VERTEX
  8
0
  6
CONTINUOUS
 10
4.265800
 20
2.730200
  0
VERTEX
  8
0
  6
CONTINUOUS
 10
3.627360
 20
2.342560
  0
VERTEX
  8
0
  6
CONTINUOUS
 10
3.635280
 20
2.480280
  0
SEQEND
  8
0
  0
SOLID
  8
0
 62
    15
 10
3.627360
 20
2.342560
 11
4.265800
 21
2.730200
 12
3.630000
 22
2.210560
 13
4.268880
 23
2.598640
  0
POLYLINE
  8
0
  6
CONTINUOUS
 66
     1
 40
0.000000
 41
0.000000
  0
VERTEX
  8
0
  6
CONTINUOUS
 10
3.627360
 20
2.342560
  0
VERTEX
  8
0
  6
CONTINUOUS
 10
4.265800
 20
2.730200
  0
VERTEX
  8
0
  6
CONTINUOUS
 10
4.268880
 20
2.598640
  0
VERTEX
  8
0
  6
CONTINUOUS
 10
3.630000
 20
2.210560
  0
VERTEX
  8
0
  6
CONTINUOUS
 10
3.627360
 20
2.342560
  0
SEQEND
  8
0
  0
SOLID
  8
0
 62
    15
 10
3.630000
 20
2.210560
 11
4.268880
 21
2.598640
 12
3.639680
 22
2.091320
 13
4.278120
 23
2.478960
  0
POLYLINE
  8
0
  6
CONTINUOUS
 66
     1
 40
0.000000
 41
0.000000
  0
VERTEX
  8
0
  6
CONTINUOUS
 10
3.630000
 20
2.210560
  0
VERTEX
  8
0
  6
CONTINUOUS
 10
4.268880
 20
2.598640
  0
VERTEX
  8
0
  6
CONTINUOUS
 10
4.278120
 20
2.478960
  0
VERTEX
  8
0
  6
CONTINUOUS
 10
3.639680
 20
2.091320
  0
VERTEX
  8
0
  6
CONTINUOUS
 10
3.630000
 20
2.210560
  0
SEQEND
  8
0
  0
SOLID
  8
0
 62
    15
 10
3.639680
 20
2.091320
 11
4.278120
 21
2.478960
 12
3.645400
 22
2.038080
 13
4.284280
 23
2.426160
  0
POLYLINE
  8
0
  6
CONTINUOUS
 66
     1
 40
0.000000
 41
0.000000
  0
VERTEX
  8
0
  6
CONTINUOUS
 10
3.639680
 20
2.091320
  0
VERTEX
  8
0
  6
CONTINUOUS
 10
4.278120
 20
2.478960
  0
VERTEX
  8
0
  6
CONTINUOUS
 10
4.284280
 20
2.426160
  0
VERTEX
  8
0
  6
CONTINUOUS
 10
3.645400
 20
2.038080
  0
VERTEX
  8
0
  6
CONTINUOUS
 10
3.639680
 20
2.091320
  0
SEQEND
  8
0
  0
SOLID
  8
0
 62
    15
 10
4.020720
 20
3.528360
 11
4.659600
 21
3.916000
 12
4.032600
 22
3.481720
 13
4.671040
 23
3.869360
  0
POLYLINE
  8
0
  6
CONTINUOUS
 66
     1
 40
0.000000
 41
0.000000
  0
VERTEX
  8
0
  6
CONTINUOUS
 10
4.020720
 20
3.528360
  0
VERTEX
  8
0
  6
CONTINUOUS
 10
4.659600
 20
3.916000
  0
VERTEX
  8
0
  6
CONTINUOUS
 10
4.671040
 20
3.869360
  0
VERTEX
  8
0
  6
CONTINUOUS
 10
4.032600
 20
3.481720
  0
VERTEX
  8
0
  6
CONTINUOUS
 10
4.020720
 20
3.528360
  0
SEQEND
  8
0
  0
SOLID
  8
0
 62
    15
 10
3.550800
 20
1.886720
 11
4.189680
 21
2.274360
 12
3.544640
 22
1.694440
 13
4.183080
 23
2.082520
  0
POLYLINE
  8
0
  6
CONTINUOUS
 66
     1
 40
0.000000
 41
0.000000
  0
VERTEX
  8
0
  6
CONTINUOUS
 10
3.550800
 20
1.886720
  0
VERTEX
  8
0
  6
CONTINUOUS
 10
4.189680
 20
2.274360
  0
VERTEX
  8
0
  6
CONTINUOUS
 10
4.183080
 20
2.082520
  0
VERTEX
  8
0
  6
CONTINUOUS
 10
3.544640
 20
1.694440
  0
VERTEX
  8
0
  6
CONTINUOUS
 10
3.550800
 20
1.886720
  0
SEQEND
  8
0
  0
SOLID
  8
0
 62
    15
 10
3.660800
 20
1.924560
 11
4.299240
 21
2.312200
 12
3.661680
 22
1.916640
 13
4.300120
 23
2.304720
  0
POLYLINE
  8
0
  6
CONTINUOUS
 66
     1
 40
0.000000
 41
0.000000
  0
VERTEX
  8
0
  6
CONTINUOUS
 10
3.660800
 20
1.924560
  0
VERTEX
  8
0
  6
CONTINUOUS
 10
4.299240
 20
2.312200
  0
VERTEX
  8
0
  6
CONTINUOUS
 10
4.300120
 20
2.304720
  0
VERTEX
  8
0
  6
CONTINUOUS
 10
3.661680
 20
1.916640
  0
VERTEX
  8
0
  6
CONTINUOUS
 10
3.660800
 20
1.924560
  0
SEQEND
  8
0
  0
SOLID
  8
0
 62
    15
 10
3.651560
 20
1.991000
 11
4.290440
 21
2.378640
 12
3.660800
 22
1.924560
 13
4.299240
 23
2.312200
  0
POLYLINE
  8
0
  6
CONTINUOUS
 66
     1
 40
0.000000
 41
0.000000
  0
VERTEX
  8
0
  6
CONTINUOUS
 10
3.651560
 20
1.991000
  0
VERTEX
  8
0
  6
CONTINUOUS
 10
4.290440
 20
2.378640
  0
VERTEX
  8
0
  6
CONTINUOUS
 10
4.299240
 20
2.312200
  0
VERTEX
  8
0
  6
CONTINUOUS
 10
3.660800
 20
1.924560
  0
VERTEX
  8
0
  6
CONTINUOUS
 10
3.651560
 20
1.991000
  0
SEQEND
  8
0
  0
SOLID
  8
0
 62
    15
 10
3.544640
 20
1.694440
 11
4.183080
 21
2.082520
 12
3.586880
 22
1.679040
 13
4.225320
 23
2.066680
  0
POLYLINE
  8
0
  6
CONTINUOUS
 66
     1
 40
0.000000
 41
0.000000
  0
VERTEX
  8
0
  6
CONTINUOUS
 10
3.544640
 20
1.694440
  0
VERTEX
  8
0
  6
CONTINUOUS
 10
4.183080
 20
2.082520
  0
VERTEX
  8
0
  6
CONTINUOUS
 10
4.225320
 20
2.066680
  0
VERTEX
  8
0
  6
CONTINUOUS
 10
3.586880
 20
1.679040
  0
VERTEX
  8
0
  6
CONTINUOUS
 10
3.544640
 20
1.694440
  0
SEQEND
  8
0
  0
SOLID
  8
0
 62
    15
 10
3.586880
 20
1.679040
 11
4.225320
 21
2.066680
 12
3.622080
 22
1.657920
 13
4.260960
 23
2.046000
  0
POLYLINE
  8
0
  6
CONTINUOUS
 66
     1
 40
0.000000
 41
0.000000
  0
VERTEX
  8
0
  6
CONTINUOUS
 10
3.586880
 20
1.679040
  0
VERTEX
  8
0
  6
CONTINUOUS
 10
4.225320
 20
2.066680
  0
VERTEX
  8
0
  6
CONTINUOUS
 10
4.260960
 20
2.046000
  0
VERTEX
  8
0
  6
CONTINUOUS
 10
3.622080
 20
1.657920
  0
VERTEX
  8
0
  6
CONTINUOUS
 10
3.586880
 20
1.679040
  0
SEQEND
  8
0
  0
SOLID
  8
0
 62
    15
 10
3.622080
 20
1.657920
 11
4.260960
 21
2.046000
 12
3.651120
 22
1.632840
 13
4.289560
 23
2.020920
  0
POLYLINE
  8
0
  6
CONTINUOUS
 66
     1
 40
0.000000
 41
0.000000
  0
VERTEX
  8
0
  6
CONTINUOUS
 10
3.622080
 20
1.657920
  0
VERTEX
  8
0
  6
CONTINUOUS
 10
4.260960
 20
2.046000
  0
VERTEX
  8
0
  6
CONTINUOUS
 10
4.289560
 20
2.020920
  0
VERTEX
  8
0
  6
CONTINUOUS
 10
3.651120
 20
1.632840
  0
VERTEX
  8
0
  6
CONTINUOUS
 10
3.622080
 20
1.657920
  0
SEQEND
  8
0
  0
SOLID
  8
0
 62
    15
 10
3.651120
 20
1.632840
 11
4.289560
 21
2.020920
 12
3.673120
 22
1.604240
 13
4.312000
 23
1.992320
  0
POLYLINE
  8
0
  6
CONTINUOUS
 66
     1
 40
0.000000
 41
0.000000
  0
VERTEX
  8
0
  6
CONTINUOUS
 10
3.651120
 20
1.632840
  0
VERTEX
  8
0
  6
CONTINUOUS
 10
4.289560
 20
2.020920
  0
VERTEX
  8
0
  6
CONTINUOUS
 10
4.312000
 20
1.992320
  0
VERTEX
  8
0
  6
CONTINUOUS
 10
3.673120
 20
1.604240
  0
VERTEX
  8
0
  6
CONTINUOUS
 10
3.651120
 20
1.632840
  0
SEQEND
  8
0
  0
SOLID
  8
0
 62
    15
 10
3.673120
 20
1.604240
 11
4.312000
 21
1.992320
 12
3.688960
 22
1.573000
 13
4.327840
 23
1.961080
  0
POLYLINE
  8
0
  6
CONTINUOUS
 66
     1
 40
0.000000
 41
0.000000
  0
VERTEX
  8
0
  6
CONTINUOUS
 10
3.673120
 20
1.604240
  0
VERTEX
  8
0
  6
CONTINUOUS
 10
4.312000
 20
1.992320
  0
VERTEX
  8
0
  6
CONTINUOUS
 10
4.327840
 20
1.961080
  0
VERTEX
  8
0
  6
CONTINUOUS
 10
3.688960
 20
1.573000
  0
VERTEX
  8
0
  6
CONTINUOUS
 10
3.673120
 20
1.604240
  0
SEQEND
  8
0
  0
SOLID
  8
0
 62
    15
 10
3.688960
 20
1.573000
 11
4.327840
 21
1.961080
 12
3.698640
 22
1.540000
 13
4.337520
 23
1.927640
  0
POLYLINE
  8
0
  6
CONTINUOUS
 66
     1
 40
0.000000
 41
0.000000
  0
VERTEX
  8
0
  6
CONTINUOUS
 10
3.688960
 20
1.573000
  0
VERTEX
  8
0
  6
CONTINUOUS
 10
4.327840
 20
1.961080
  0
VERTEX
  8
0
  6
CONTINUOUS
 10
4.337520
 20
1.927640
  0
VERTEX
  8
0
  6
CONTINUOUS
 10
3.698640
 20
1.540000
  0
VERTEX
  8
0
  6
CONTINUOUS
 10
3.688960
 20
1.573000
  0
SEQEND
  8
0
  0
SOLID
  8
0
 62
    15
 10
3.698640
 20
1.540000
 11
4.337520
 21
1.927640
 12
3.702600
 22
1.505240
 13
4.341480
 23
1.892880
  0
POLYLINE
  8
0
  6
CONTINUOUS
 66
     1
 40
0.000000
 41
0.000000
  0
VERTEX
  8
0
  6
CONTINUOUS
 10
3.698640
 20
1.540000
  0
VERTEX
  8
0
  6
CONTINUOUS
 10
4.337520
 20
1.927640
  0
VERTEX
  8
0
  6
CONTINUOUS
 10
4.341480
 20
1.892880
  0
VERTEX
  8
0
  6
CONTINUOUS
 10
3.702600
 20
1.505240
  0
VERTEX
  8
0
  6
CONTINUOUS
 10
3.698640
 20
1.540000
  0
SEQEND
  8
0
  0
SOLID
  8
0
 62
    15
 10
3.702600
 20
1.505240
 11
4.341480
 21
1.892880
 12
3.700840
 22
1.470480
 13
4.339280
 23
1.858120
  0
POLYLINE
  8
0
  6
CONTINUOUS
 66
     1
 40
0.000000
 41
0.000000
  0
VERTEX
  8
0
  6
CONTINUOUS
 10
3.702600
 20
1.505240
  0
VERTEX
  8
0
  6
CONTINUOUS
 10
4.341480
 20
1.892880
  0
VERTEX
  8
0
  6
CONTINUOUS
 10
4.339280
 20
1.858120
  0
VERTEX
  8
0
  6
CONTINUOUS
 10
3.700840
 20
1.470480
  0
VERTEX
  8
0
  6
CONTINUOUS
 10
3.702600
 20
1.505240
  0
SEQEND
  8
0
  0
SOLID
  8
0
 62
    15
 10
3.700840
 20
1.470480
 11
4.339280
 21
1.858120
 12
3.692920
 22
1.435720
 13
4.331800
 23
1.823360
  0
POLYLINE
  8
0
  6
CONTINUOUS
 66
     1
 40
0.000000
 41
0.000000
  0
VERTEX
  8
0
  6
CONTINUOUS
 10
3.700840
 20
1.470480
  0
VERTEX
  8
0
  6
CONTINUOUS
 10
4.339280
 20
1.858120
  0
VERTEX
  8
0
  6
CONTINUOUS
 10
4.331800
 20
1.823360
  0
VERTEX
  8
0
  6
CONTINUOUS
 10
3.692920
 20
1.435720
  0
VERTEX
  8
0
  6
CONTINUOUS
 10
3.700840
 20
1.470480
  0
SEQEND
  8
0
  0
SOLID
  8
0
 62
    15
 10
3.692920
 20
1.435720
 11
4.331800
 21
1.823360
 12
3.679720
 22
1.401840
 13
4.318600
 23
1.789480
  0
POLYLINE
  8
0
  6
CONTINUOUS
 66
     1
 40
0.000000
 41
0.000000
  0
VERTEX
  8
0
  6
CONTINUOUS
 10
3.692920
 20
1.435720
  0
VERTEX
  8
0
  6
CONTINUOUS
 10
4.331800
 20
1.823360
  0
VERTEX
  8
0
  6
CONTINUOUS
 10
4.318600
 20
1.789480
  0
VERTEX
  8
0
  6
CONTINUOUS
 10
3.679720
 20
1.401840
  0
VERTEX
  8
0
  6
CONTINUOUS
 10
3.692920
 20
1.435720
  0
SEQEND
  8
0
  0
SOLID
  8
0
 62
    15
 10
3.679720
 20
1.401840
 11
4.318600
 21
1.789480
 12
3.661240
 22
1.370160
 13
4.300120
 23
1.757800
  0
POLYLINE
  8
0
  6
CONTINUOUS
 66
     1
 40
0.000000
 41
0.000000
  0
VERTEX
  8
0
  6
CONTINUOUS
 10
3.679720
 20
1.401840
  0
VERTEX
  8
0
  6
CONTINUOUS
 10
4.318600
 20
1.789480
  0
VERTEX
  8
0
  6
CONTINUOUS
 10
4.300120
 20
1.757800
  0
VERTEX
  8
0
  6
CONTINUOUS
 10
3.661240
 20
1.370160
  0
VERTEX
  8
0
  6
CONTINUOUS
 10
3.679720
 20
1.401840
  0
SEQEND
  8
0
  0
SOLID
  8
0
 62
    15
 10
3.495800
 20
1.264120
 11
4.134240
 21
1.651760
 12
3.495800
 22
1.062160
 13
4.134240
 23
1.449800
  0
POLYLINE
  8
0
  6
CONTINUOUS
 66
     1
 40
0.000000
 41
0.000000
  0
VERTEX
  8
0
  6
CONTINUOUS
 10
3.495800
 20
1.264120
  0
VERTEX
  8
0
  6
CONTINUOUS
 10
4.134240
 20
1.651760
  0
VERTEX
  8
0
  6
CONTINUOUS
 10
4.134240
 20
1.449800
  0
VERTEX
  8
0
  6
CONTINUOUS
 10
3.495800
 20
1.062160
  0
VERTEX
  8
0
  6
CONTINUOUS
 10
3.495800
 20
1.264120
  0
SEQEND
  8
0
  0
SOLID
  8
0
 62
    15
 10
3.609320
 20
1.314720
 11
4.247760
 21
1.702360
 12
3.575880
 22
1.292720
 13
4.214760
 23
1.680360
  0
POLYLINE
  8
0
  6
CONTINUOUS
 66
     1
 40
0.000000
 41
0.000000
  0
VERTEX
  8
0
  6
CONTINUOUS
 10
3.609320
 20
1.314720
  0
VERTEX
  8
0
  6
CONTINUOUS
 10
4.247760
 20
1.702360
  0
VERTEX
  8
0
  6
CONTINUOUS
 10
4.214760
 20
1.680360
  0
VERTEX
  8
0
  6
CONTINUOUS
 10
3.575880
 20
1.292720
  0
VERTEX
  8
0
  6
CONTINUOUS
 10
3.609320
 20
1.314720
  0
SEQEND
  8
0
  0
SOLID
  8
0
 62
    15
 10
3.637920
 20
1.340680
 11
4.276360
 21
1.728320
 12
3.609320
 22
1.314720
 13
4.247760
 23
1.702360
  0
POLYLINE
  8
0
  6
CONTINUOUS
 66
     1
 40
0.000000
 41
0.000000
  0
VERTEX
  8
0
  6
CONTINUOUS
 10
3.637920
 20
1.340680
  0
VERTEX
  8
0
  6
CONTINUOUS
 10
4.276360
 20
1.728320
  0
VERTEX
  8
0
  6
CONTINUOUS
 10
4.247760
 20
1.702360
  0
VERTEX
  8
0
  6
CONTINUOUS
 10
3.609320
 20
1.314720
  0
VERTEX
  8
0
  6
CONTINUOUS
 10
3.637920
 20
1.340680
  0
SEQEND
  8
0
  0
SOLID
  8
0
 62
    15
 10
3.661240
 20
1.370160
 11
4.300120
 21
1.757800
 12
3.637920
 22
1.340680
 13
4.276360
 23
1.728320
  0
POLYLINE
  8
0
  6
CONTINUOUS
 66
     1
 40
0.000000
 41
0.000000
  0
VERTEX
  8
0
  6
CONTINUOUS
 10
3.661240
 20
1.370160
  0
VERTEX
  8
0
  6
CONTINUOUS
 10
4.300120
 20
1.757800
  0
VERTEX
  8
0
  6
CONTINUOUS
 10
4.276360
 20
1.728320
  0
VERTEX
  8
0
  6
CONTINUOUS
 10
3.637920
 20
1.340680
  0
VERTEX
  8
0
  6
CONTINUOUS
 10
3.661240
 20
1.370160
  0
SEQEND
  8
0
  0
SOLID
  8
0
 62
    15
 10
3.228720
 20
3.835480
 11
3.867600
 21
4.223560
 12
4.164600
 22
3.835480
 13
4.803480
 23
4.223560
  0
POLYLINE
  8
0
  6
CONTINUOUS
 66
     1
 40
0.000000
 41
0.000000
  0
VERTEX
  8
0
  6
CONTINUOUS
 10
3.228720
 20
3.835480
  0
VERTEX
  8
0
  6
CONTINUOUS
 10
3.867600
 20
4.223560
  0
VERTEX
  8
0
  6
CONTINUOUS
 10
4.803480
 20
4.223560
  0
VERTEX
  8
0
  6
CONTINUOUS
 10
4.164600
 20
3.835480
  0
VERTEX
  8
0
  6
CONTINUOUS
 10
3.228720
 20
3.835480
  0
SEQEND
  8
0
  0
SOLID
  8
0
 62
    15
 10
4.164600
 20
3.835480
 11
4.803480
 21
4.223560
 12
4.164600
 22
3.564440
 13
4.803480
 23
3.952080
  0
POLYLINE
  8
0
  6
CONTINUOUS
 66
     1
 40
0.000000
 41
0.000000
  0
VERTEX
  8
0
  6
CONTINUOUS
 10
4.164600
 20
3.835480
  0
VERTEX
  8
0
  6
CONTINUOUS
 10
4.803480
 20
4.223560
  0
VERTEX
  8
0
  6
CONTINUOUS
 10
4.803480
 20
3.952080
  0
VERTEX
  8
0
  6
CONTINUOUS
 10
4.164600
 20
3.564440
  0
VERTEX
  8
0
  6
CONTINUOUS
 10
4.164600
 20
3.835480
  0
SEQEND
  8
0
  0
POLYLINE
  8
0
  6
CONTINUOUS
 66
     1
 40
0.000000
 41
0.000000
  0
VERTEX
  8
0
  6
CONTINUOUS
 10
4.020720
 20
3.528360
  0
VERTEX
  8
0
  6
CONTINUOUS
 10
4.032600
 20
3.481720
  0
VERTEX
  8
0
  6
CONTINUOUS
 10
4.039640
 20
3.437720
  0
VERTEX
  8
0
  6
CONTINUOUS
 10
4.043160
 20
3.395480
  0
VERTEX
  8
0
  6
CONTINUOUS
 10
4.042280
 20
3.355440
  0
VERTEX
  8
0
  6
CONTINUOUS
 10
4.029080
 20
3.278000
  0
VERTEX
  8
0
  6
CONTINUOUS
 10
4.001800
 20
3.202320
  0
VERTEX
  8
0
  6
CONTINUOUS
 10
3.960880
 20
3.125760
  0
VERTEX
  8
0
  6
CONTINUOUS
 10
3.907200
 20
3.044800
  0
VERTEX
  8
0
  6
CONTINUOUS
 10
3.842520
 20
2.957240
  0
VERTEX
  8
0
  6
CONTINUOUS
 10
3.806440
 20
2.909720
  0
VERTEX
  8
0
  6
CONTINUOUS
 10
3.767720
 20
2.859120
  0
VERTEX
  8
0
  6
CONTINUOUS
 10
3.731200
 20
2.804560
  0
VERTEX
  8
0
  6
CONTINUOUS
 10
3.701280
 20
2.745160
  0
VERTEX
  8
0
  6
CONTINUOUS
 10
3.677080
 20
2.682240
  0
VERTEX
  8
0
  6
CONTINUOUS
 10
3.658600
 20
2.616680
  0
VERTEX
  8
0
  6
CONTINUOUS
 10
3.644520
 20
2.548920
  0
VERTEX
  8
0
  6
CONTINUOUS
 10
3.635280
 20
2.480280
  0
VERTEX
  8
0
  6
CONTINUOUS
 10
3.627360
 20
2.342560
  0
VERTEX
  8
0
  6
CONTINUOUS
 10
3.630000
 20
2.210560
  0
VERTEX
  8
0
  6
CONTINUOUS
 10
3.639680
 20
2.091320
  0
VERTEX
  8
0
  6
CONTINUOUS
 10
3.645400
 20
2.038080
  0
VERTEX
  8
0
  6
CONTINUOUS
 10
3.651560
 20
1.991000
  0
VERTEX
  8
0
  6
CONTINUOUS
 10
3.660800
 20
1.924560
  0
VERTEX
  8
0
  6
CONTINUOUS
 10
3.661680
 20
1.916640
  0
VERTEX
  8
0
  6
CONTINUOUS
 10
3.550800
 20
1.886720
  0
VERTEX
  8
0
  6
CONTINUOUS
 10
3.544640
 20
1.694440
  0
VERTEX
  8
0
  6
CONTINUOUS
 10
3.586880
 20
1.679040
  0
VERTEX
  8
0
  6
CONTINUOUS
 10
3.622080
 20
1.657920
  0
VERTEX
  8
0
  6
CONTINUOUS
 10
3.651120
 20
1.632840
  0
VERTEX
  8
0
  6
CONTINUOUS
 10
3.673120
 20
1.604240
  0
VERTEX
  8
0
  6
CONTINUOUS
 10
3.688960
 20
1.573000
  0
VERTEX
  8
0
  6
CONTINUOUS
 10
3.698640
 20
1.540000
  0
VERTEX
  8
0
  6
CONTINUOUS
 10
3.702600
 20
1.505240
  0
VERTEX
  8
0
  6
CONTINUOUS
 10
3.700840
 20
1.470480
  0
VERTEX
  8
0
  6
CONTINUOUS
 10
3.692920
 20
1.435720
  0
VERTEX
  8
0
  6
CONTINUOUS
 10
3.679720
 20
1.401840
  0
VERTEX
  8
0
  6
CONTINUOUS
 10
3.661240
 20
1.370160
  0
VERTEX
  8
0
  6
CONTINUOUS
 10
3.637920
 20
1.340680
  0
VERTEX
  8
0
  6
CONTINUOUS
 10
3.609320
 20
1.314720
  0
VERTEX
  8
0
  6
CONTINUOUS
 10
3.575880
 20
1.292720
  0
VERTEX
  8
0
  6
CONTINUOUS
 10
3.538040
 20
1.275560
  0
VERTEX
  8
0
  6
CONTINUOUS
 10
3.495800
 20
1.264120
  0
VERTEX
  8
0
  6
CONTINUOUS
 10
3.495800
 20
1.062160
  0
VERTEX
  8
0
  6
CONTINUOUS
 10
3.228720
 20
1.062160
  0
VERTEX
  8
0
  6
CONTINUOUS
 10
3.228720
 20
3.835480
  0
VERTEX
  8
0
  6
CONTINUOUS
 10
4.164600
 20
3.835480
  0
VERTEX
  8
0
  6
CONTINUOUS
 10
4.164600
 20
3.564440
  0
VERTEX
  8
0
  6
CONTINUOUS
 10
4.020720
 20
3.528360
  0
SEQEND
  8
0
  0
TEXT
  8
0
 10
3.721080
 20
0.850520
 40
0.138248
  1
BA  677
 41
1.000000
  7
SN0
 71
     0
 72
     5
 11
4.312360
 21
0.850520
  0
TEXT
  8
0
 10
3.565320
 20
0.658680
 40
0.138248
  1
7/8" x 2-3/4"
 41
1.000000
  7
SN0
 71
     0
 72
     5
 11
4.467369
 21
0.658680
  0
ENDSEC
  0
EOF
