  0
SECTION
  2
HEADER
  9
$ACADVER
  1
AC1006
  9
$EXTMIN
 10
3.057120
 20
0.460240
  9
$EXTMAX
 10
7.964440
 20
4.378440
  9
$LTSCALE
 40
0.044000
  9
$PDMODE
 70
    35
  9
$PDSIZE
 40
0.035200
  0
ENDSEC
  0
SECTION
  2
TABLES
  0
TABLE
  2
LTYPE
 70
     9
  0
LTYPE
  2
CONTINUOUS
 70
    64
  3
Solid line
 72
    65
 73
     0
 40
0.000000
  0
LTYPE
  2
DASHED
 70
    64
  3
__ __ __ __ __ __ __ __ __ __ __ __ __ __ __
 72
    65
 73
     2
 40
0.000330
 49
0.000220
 49
-0.000110
  0
LTYPE
  2
HIDDEN
 70
    64
  3
 _ _ _ _ _ _ _ _ _ _ _ _ _ _ _ _ _ _ _ _ _ _
 72
    65
 73
     2
 40
0.000165
 49
0.000110
 49
-0.000055
  0
LTYPE
  2
CENTER
 70
    64
  3
____ _ ____ _ ____ _ ____ _ ____ _ ____ _ ____
 72
    65
 73
     4
 40
0.000880
 49
0.000550
 49
-0.000110
 49
0.000110
 49
-0.000110
  0
LTYPE
  2
PHANTOM
 70
    64
  3
_____ _ _ _____ _ _ _____ _ _ _____ _ _ ____
 72
    65
 73
     6
 40
0.001100
 49
0.000550
 49
-0.000110
 49
0.000110
 49
-0.000110
 49
0.000110
 49
-0.000110
  0
LTYPE
  2
DOT
 70
    64
  3
...............................................
 72
    65
 73
     2
 40
0.000110
 49
0.000000
 49
-0.000110
  0
LTYPE
  2
DASHDOT
 70
    64
  3
__ . __ . __ . __ . __ . __ . __ . __ . __ . __
 72
    65
 73
     4
 40
0.000440
 49
0.000220
 49
-0.000110
 49
0.000000
 49
-0.000110
  0
LTYPE
  2
BORDER
 70
    64
  3
__ __ . __ __ . __ __ . __ __ . __ __ . __ __
 72
    65
 73
     6
 40
0.000770
 49
0.000220
 49
-0.000110
 49
0.000220
 49
-0.000110
 49
0.000000
 49
-0.000110
  0
LTYPE
  2
DIVIDE
 70
    64
  3
__ . . __ . . __ . . __ . . __ . . __ . . __
 72
    65
 73
     6
 40
0.000550
 49
0.000220
 49
-0.000110
 49
0.000000
 49
-0.000110
 49
0.000000
 49
-0.000110
  0
LTYPE
  2
DOTDOT
 70
    64
  3
 . .  . .  . .  . .  . .  . . 
 72
    65
 73
     5
 40
0.000242
 49
-0.000110
 49
0.000000
 49
-0.000110
 49
0.000000
 49
-0.000110
  0
ENDTAB
  0
TABLE
  2
STYLE
 70
     2
  0
STYLE
 70
     0
  2
SN0
 40
0.000000
 41
0.000440
 50
0.000000
 71
     0
 42
0.000000
  3
ROMAND
  0
STYLE
 70
    68
  2
SV0
 40
0.000000
 41
0.000440
 50
0.000000
 71
     0
 42
0.000000
  3
ROMAND
  0
ENDTAB
  0
TABLE
  2
LAYER
 70
     3
  0
LAYER
  2
FOREGROUND
 70
    64
 62
     7
  6
CONTINUOUS
  0
LAYER
  2
BACKGROUND
 70
    65
 62
    -7
  6
CONTINUOUS
  0
LAYER
  2
0
 70
    64
 62
     7
  6
CONTINUOUS
  0
ENDTAB
  0
ENDSEC
  0
SECTION
  2
ENTITIES
  0
POLYLINE
  8
FOREGROUND
  6
CONTINUOUS
 66
     1
 40
0.000000
 41
0.000000
  0
VERTEX
  8
FOREGROUND
  6
CONTINUOUS
 10
0.000000
 20
4.838680
  0
VERTEX
  8
FOREGROUND
  6
CONTINUOUS
 10
8.499920
 20
4.838680
  0
VERTEX
  8
FOREGROUND
  6
CONTINUOUS
 10
8.499920
 20
-6.161320
  0
VERTEX
  8
FOREGROUND
  6
CONTINUOUS
 10
0.000000
 20
-6.161320
  0
VERTEX
  8
FOREGROUND
  6
CONTINUOUS
 10
0.000000
 20
4.838680
  0
SEQEND
  8
0
  0
POLYLINE
  8
FOREGROUND
  6
CONTINUOUS
 66
     1
 40
0.000000
 41
0.000000
  0
VERTEX
  8
FOREGROUND
  6
CONTINUOUS
 10
0.000000
 20
4.838680
  0
VERTEX
  8
FOREGROUND
  6
CONTINUOUS
 10
8.499920
 20
4.838680
  0
VERTEX
  8
FOREGROUND
  6
CONTINUOUS
 10
8.499920
 20
-6.161320
  0
VERTEX
  8
FOREGROUND
  6
CONTINUOUS
 10
0.000000
 20
-6.161320
  0
VERTEX
  8
FOREGROUND
  6
CONTINUOUS
 10
0.000000
 20
4.838680
  0
SEQEND
  8
0
  0
POLYLINE
  8
0
  6
CONTINUOUS
 66
     1
 40
0.014080
 41
0.014080
  0
VERTEX
  8
0
  6
CONTINUOUS
 10
4.388120
 20
3.351040
  0
VERTEX
  8
0
  6
CONTINUOUS
 10
3.244120
 20
3.351040
  0
VERTEX
  8
0
  6
CONTINUOUS
 10
3.244120
 20
4.370960
  0
VERTEX
  8
0
  6
CONTINUOUS
 10
3.731640
 20
4.370960
  0
VERTEX
  8
0
  6
CONTINUOUS
 10
3.755400
 20
4.213880
  0
VERTEX
  8
0
  6
CONTINUOUS
 10
3.822280
 20
4.213880
  0
VERTEX
  8
0
  6
CONTINUOUS
 10
3.824920
 20
4.232360
  0
VERTEX
  8
0
  6
CONTINUOUS
 10
3.833280
 20
4.255240
  0
VERTEX
  8
0
  6
CONTINUOUS
 10
3.841200
 20
4.272400
  0
VERTEX
  8
0
  6
CONTINUOUS
 10
3.864960
 20
4.305400
  0
VERTEX
  8
0
  6
CONTINUOUS
 10
3.888720
 20
4.327400
  0
VERTEX
  8
0
  6
CONTINUOUS
 10
3.917320
 20
4.343680
  0
VERTEX
  8
0
  6
CONTINUOUS
 10
3.939320
 20
4.349840
  0
VERTEX
  8
0
  6
CONTINUOUS
 10
3.963520
 20
4.352040
  0
VERTEX
  8
0
  6
CONTINUOUS
 10
3.976280
 20
4.351160
  0
VERTEX
  8
0
  6
CONTINUOUS
 10
4.003560
 20
4.344560
  0
VERTEX
  8
0
  6
CONTINUOUS
 10
4.033040
 20
4.332240
  0
VERTEX
  8
0
  6
CONTINUOUS
 10
4.064720
 20
4.312440
  0
VERTEX
  8
0
  6
CONTINUOUS
 10
4.098160
 20
4.284720
  0
VERTEX
  8
0
  6
CONTINUOUS
 10
4.197160
 20
4.187040
  0
VERTEX
  8
0
  6
CONTINUOUS
 10
4.253920
 20
4.136440
  0
VERTEX
  8
0
  6
CONTINUOUS
 10
4.293960
 20
4.105200
  0
VERTEX
  8
0
  6
CONTINUOUS
 10
4.319920
 20
4.087600
  0
VERTEX
  8
0
  6
CONTINUOUS
 10
4.371840
 20
4.058560
  0
VERTEX
  8
0
  6
CONTINUOUS
 10
4.398680
 20
4.046680
  0
VERTEX
  8
0
  6
CONTINUOUS
 10
4.426400
 20
4.036560
  0
VERTEX
  8
0
  6
CONTINUOUS
 10
4.486680
 20
4.020280
  0
VERTEX
  8
0
  6
CONTINUOUS
 10
4.555760
 20
4.008400
  0
VERTEX
  8
0
  6
CONTINUOUS
 10
4.594480
 20
4.003560
  0
VERTEX
  8
0
  6
CONTINUOUS
 10
4.594480
 20
3.783120
  0
VERTEX
  8
0
  6
CONTINUOUS
 10
4.429920
 20
3.783120
  0
VERTEX
  8
0
  6
CONTINUOUS
 10
4.429920
 20
3.353240
  0
VERTEX
  8
0
  6
CONTINUOUS
 10
4.388120
 20
3.353240
  0
SEQEND
  8
0
  0
POLYLINE
  8
0
  6
CONTINUOUS
 66
     1
 40
0.014080
 41
0.014080
  0
VERTEX
  8
0
  6
CONTINUOUS
 10
4.590080
 20
3.788400
  0
VERTEX
  8
0
  6
CONTINUOUS
 10
4.590080
 20
3.883880
  0
VERTEX
  8
0
  6
CONTINUOUS
 10
4.671920
 20
3.883880
  0
VERTEX
  8
0
  6
CONTINUOUS
 10
4.673680
 20
3.896200
  0
VERTEX
  8
0
  6
CONTINUOUS
 10
4.676760
 20
3.908080
  0
VERTEX
  8
0
  6
CONTINUOUS
 10
4.680280
 20
3.918640
  0
VERTEX
  8
0
  6
CONTINUOUS
 10
4.685120
 20
3.928760
  0
VERTEX
  8
0
  6
CONTINUOUS
 10
4.690400
 20
3.938000
  0
VERTEX
  8
0
  6
CONTINUOUS
 10
4.696560
 20
3.946800
  0
VERTEX
  8
0
  6
CONTINUOUS
 10
4.703600
 20
3.954280
  0
VERTEX
  8
0
  6
CONTINUOUS
 10
4.711080
 20
3.961320
  0
VERTEX
  8
0
  6
CONTINUOUS
 10
4.719440
 20
3.967480
  0
VERTEX
  8
0
  6
CONTINUOUS
 10
4.727800
 20
3.973200
  0
VERTEX
  8
0
  6
CONTINUOUS
 10
4.737040
 20
3.977600
  0
VERTEX
  8
0
  6
CONTINUOUS
 10
4.746280
 20
3.981560
  0
VERTEX
  8
0
  6
CONTINUOUS
 10
4.755960
 20
3.984640
  0
VERTEX
  8
0
  6
CONTINUOUS
 10
4.766080
 20
3.986840
  0
VERTEX
  8
0
  6
CONTINUOUS
 10
4.776200
 20
3.988600
  0
VERTEX
  8
0
  6
CONTINUOUS
 10
4.786320
 20
3.989040
  0
VERTEX
  8
0
  6
CONTINUOUS
 10
4.796440
 20
3.989040
  0
VERTEX
  8
0
  6
CONTINUOUS
 10
4.806560
 20
3.988160
  0
VERTEX
  8
0
  6
CONTINUOUS
 10
4.816680
 20
3.986400
  0
VERTEX
  8
0
  6
CONTINUOUS
 10
4.826800
 20
3.984200
  0
VERTEX
  8
0
  6
CONTINUOUS
 10
4.836480
 20
3.980680
  0
VERTEX
  8
0
  6
CONTINUOUS
 10
4.845720
 20
3.976720
  0
VERTEX
  8
0
  6
CONTINUOUS
 10
4.854960
 20
3.971880
  0
VERTEX
  8
0
  6
CONTINUOUS
 10
4.863320
 20
3.966160
  0
VERTEX
  8
0
  6
CONTINUOUS
 10
4.871240
 20
3.960000
  0
VERTEX
  8
0
  6
CONTINUOUS
 10
4.879160
 20
3.952520
  0
VERTEX
  8
0
  6
CONTINUOUS
 10
4.885760
 20
3.944600
  0
VERTEX
  8
0
  6
CONTINUOUS
 10
4.891920
 20
3.935800
  0
VERTEX
  8
0
  6
CONTINUOUS
 10
4.897640
 20
3.926120
  0
VERTEX
  8
0
  6
CONTINUOUS
 10
4.902040
 20
3.915560
  0
VERTEX
  8
0
  6
CONTINUOUS
 10
4.906000
 20
3.904120
  0
VERTEX
  8
0
  6
CONTINUOUS
 10
4.908640
 20
3.892240
  0
VERTEX
  8
0
  6
CONTINUOUS
 10
6.200920
 20
3.892240
  0
VERTEX
  8
0
  6
CONTINUOUS
 10
6.200920
 20
3.801600
  0
VERTEX
  8
0
  6
CONTINUOUS
 10
7.256920
 20
3.801600
  0
VERTEX
  8
0
  6
CONTINUOUS
 10
7.256920
 20
3.702600
  0
VERTEX
  8
0
  6
CONTINUOUS
 10
7.957400
 20
3.702600
  0
VERTEX
  8
0
  6
CONTINUOUS
 10
7.957400
 20
3.352360
  0
VERTEX
  8
0
  6
CONTINUOUS
 10
4.744080
 20
3.352360
  0
VERTEX
  8
0
  6
CONTINUOUS
 10
4.428160
 20
3.352360
  0
VERTEX
  8
0
  6
CONTINUOUS
 10
4.428160
 20
3.785760
  0
VERTEX
  8
0
  6
CONTINUOUS
 10
4.590080
 20
3.785760
  0
VERTEX
  8
0
  6
CONTINUOUS
 10
4.590080
 20
3.788400
  0
SEQEND
  8
0
  0
TEXT
  8
0
 10
4.678960
 20
0.695200
 40
0.138105
  1
BA  676 5/8" x 3-1/2"
 41
1.000000
  7
SN0
 71
     0
 72
     5
 11
6.215687
 21
0.695200
  0
TEXT
  8
0
 10
4.678960
 20
0.503800
 40
0.138105
  1
BA  680 1" x 1-3/8"
 41
1.000000
  7
SN0
 71
     0
 72
     5
 11
6.077546
 21
0.503800
  0
SOLID
  8
0
 62
    15
 10
4.656080
 20
1.581800
 11
4.656960
 21
2.327160
 12
4.673680
 22
1.571240
 13
4.675000
 23
2.316600
  0
POLYLINE
  8
0
  6
CONTINUOUS
 66
     1
 40
0.000000
 41
0.000000
  0
VERTEX
  8
0
  6
CONTINUOUS
 10
4.656080
 20
1.581800
  0
VERTEX
  8
0
  6
CONTINUOUS
 10
4.656960
 20
2.327160
  0
VERTEX
  8
0
  6
CONTINUOUS
 10
4.675000
 20
2.316600
  0
VERTEX
  8
0
  6
CONTINUOUS
 10
4.673680
 20
1.571240
  0
VERTEX
  8
0
  6
CONTINUOUS
 10
4.656080
 20
1.581800
  0
SEQEND
  8
0
  0
SOLID
  8
0
 62
    15
 10
4.238520
 20
1.390840
 11
4.239400
 21
2.135760
 12
4.400880
 22
1.390840
 13
4.401760
 23
2.135760
  0
POLYLINE
  8
0
  6
CONTINUOUS
 66
     1
 40
0.000000
 41
0.000000
  0
VERTEX
  8
0
  6
CONTINUOUS
 10
4.238520
 20
1.390840
  0
VERTEX
  8
0
  6
CONTINUOUS
 10
4.239400
 20
2.135760
  0
VERTEX
  8
0
  6
CONTINUOUS
 10
4.401760
 20
2.135760
  0
VERTEX
  8
0
  6
CONTINUOUS
 10
4.400880
 20
1.390840
  0
VERTEX
  8
0
  6
CONTINUOUS
 10
4.238520
 20
1.390840
  0
SEQEND
  8
0
  0
SOLID
  8
0
 62
    15
 10
4.400880
 20
1.488960
 11
4.401760
 21
2.234320
 12
4.482280
 22
1.488960
 13
4.483160
 23
2.234320
  0
POLYLINE
  8
0
  6
CONTINUOUS
 66
     1
 40
0.000000
 41
0.000000
  0
VERTEX
  8
0
  6
CONTINUOUS
 10
4.400880
 20
1.488960
  0
VERTEX
  8
0
  6
CONTINUOUS
 10
4.401760
 20
2.234320
  0
VERTEX
  8
0
  6
CONTINUOUS
 10
4.483160
 20
2.234320
  0
VERTEX
  8
0
  6
CONTINUOUS
 10
4.482280
 20
1.488960
  0
VERTEX
  8
0
  6
CONTINUOUS
 10
4.400880
 20
1.488960
  0
SEQEND
  8
0
  0
SOLID
  8
0
 62
    15
 10
4.495480
 20
1.533840
 11
4.496360
 21
2.279200
 12
4.507360
 22
1.551880
 13
4.508240
 23
2.296800
  0
POLYLINE
  8
0
  6
CONTINUOUS
 66
     1
 40
0.000000
 41
0.000000
  0
VERTEX
  8
0
  6
CONTINUOUS
 10
4.495480
 20
1.533840
  0
VERTEX
  8
0
  6
CONTINUOUS
 10
4.496360
 20
2.279200
  0
VERTEX
  8
0
  6
CONTINUOUS
 10
4.508240
 20
2.296800
  0
VERTEX
  8
0
  6
CONTINUOUS
 10
4.507360
 20
1.551880
  0
VERTEX
  8
0
  6
CONTINUOUS
 10
4.495480
 20
1.533840
  0
SEQEND
  8
0
  0
SOLID
  8
0
 62
    15
 10
4.507360
 20
1.551880
 11
4.508240
 21
2.296800
 12
4.521880
 22
1.566400
 13
4.522760
 23
2.311760
  0
POLYLINE
  8
0
  6
CONTINUOUS
 66
     1
 40
0.000000
 41
0.000000
  0
VERTEX
  8
0
  6
CONTINUOUS
 10
4.507360
 20
1.551880
  0
VERTEX
  8
0
  6
CONTINUOUS
 10
4.508240
 20
2.296800
  0
VERTEX
  8
0
  6
CONTINUOUS
 10
4.522760
 20
2.311760
  0
VERTEX
  8
0
  6
CONTINUOUS
 10
4.521880
 20
1.566400
  0
VERTEX
  8
0
  6
CONTINUOUS
 10
4.507360
 20
1.551880
  0
SEQEND
  8
0
  0
SOLID
  8
0
 62
    15
 10
4.521880
 20
1.566400
 11
4.522760
 21
2.311760
 12
4.538600
 22
1.578280
 13
4.539480
 23
2.323200
  0
POLYLINE
  8
0
  6
CONTINUOUS
 66
     1
 40
0.000000
 41
0.000000
  0
VERTEX
  8
0
  6
CONTINUOUS
 10
4.521880
 20
1.566400
  0
VERTEX
  8
0
  6
CONTINUOUS
 10
4.522760
 20
2.311760
  0
VERTEX
  8
0
  6
CONTINUOUS
 10
4.539480
 20
2.323200
  0
VERTEX
  8
0
  6
CONTINUOUS
 10
4.538600
 20
1.578280
  0
VERTEX
  8
0
  6
CONTINUOUS
 10
4.521880
 20
1.566400
  0
SEQEND
  8
0
  0
SOLID
  8
0
 62
    15
 10
4.538600
 20
1.578280
 11
4.539480
 21
2.323200
 12
4.556640
 22
1.586640
 13
4.557960
 23
2.332000
  0
POLYLINE
  8
0
  6
CONTINUOUS
 66
     1
 40
0.000000
 41
0.000000
  0
VERTEX
  8
0
  6
CONTINUOUS
 10
4.538600
 20
1.578280
  0
VERTEX
  8
0
  6
CONTINUOUS
 10
4.539480
 20
2.323200
  0
VERTEX
  8
0
  6
CONTINUOUS
 10
4.557960
 20
2.332000
  0
VERTEX
  8
0
  6
CONTINUOUS
 10
4.556640
 20
1.586640
  0
VERTEX
  8
0
  6
CONTINUOUS
 10
4.538600
 20
1.578280
  0
SEQEND
  8
0
  0
SOLID
  8
0
 62
    15
 10
4.556640
 20
1.586640
 11
4.557960
 21
2.332000
 12
4.576440
 22
1.591920
 13
4.577320
 23
2.337280
  0
POLYLINE
  8
0
  6
CONTINUOUS
 66
     1
 40
0.000000
 41
0.000000
  0
VERTEX
  8
0
  6
CONTINUOUS
 10
4.556640
 20
1.586640
  0
VERTEX
  8
0
  6
CONTINUOUS
 10
4.557960
 20
2.332000
  0
VERTEX
  8
0
  6
CONTINUOUS
 10
4.577320
 20
2.337280
  0
VERTEX
  8
0
  6
CONTINUOUS
 10
4.576440
 20
1.591920
  0
VERTEX
  8
0
  6
CONTINUOUS
 10
4.556640
 20
1.586640
  0
SEQEND
  8
0
  0
SOLID
  8
0
 62
    15
 10
4.576440
 20
1.591920
 11
4.577320
 21
2.337280
 12
4.596680
 22
1.594120
 13
4.597560
 23
2.339480
  0
POLYLINE
  8
0
  6
CONTINUOUS
 66
     1
 40
0.000000
 41
0.000000
  0
VERTEX
  8
0
  6
CONTINUOUS
 10
4.576440
 20
1.591920
  0
VERTEX
  8
0
  6
CONTINUOUS
 10
4.577320
 20
2.337280
  0
VERTEX
  8
0
  6
CONTINUOUS
 10
4.597560
 20
2.339480
  0
VERTEX
  8
0
  6
CONTINUOUS
 10
4.596680
 20
1.594120
  0
VERTEX
  8
0
  6
CONTINUOUS
 10
4.576440
 20
1.591920
  0
SEQEND
  8
0
  0
SOLID
  8
0
 62
    15
 10
4.596680
 20
1.594120
 11
4.597560
 21
2.339480
 12
4.617360
 22
1.593240
 13
4.618240
 23
2.338600
  0
POLYLINE
  8
0
  6
CONTINUOUS
 66
     1
 40
0.000000
 41
0.000000
  0
VERTEX
  8
0
  6
CONTINUOUS
 10
4.596680
 20
1.594120
  0
VERTEX
  8
0
  6
CONTINUOUS
 10
4.597560
 20
2.339480
  0
VERTEX
  8
0
  6
CONTINUOUS
 10
4.618240
 20
2.338600
  0
VERTEX
  8
0
  6
CONTINUOUS
 10
4.617360
 20
1.593240
  0
VERTEX
  8
0
  6
CONTINUOUS
 10
4.596680
 20
1.594120
  0
SEQEND
  8
0
  0
SOLID
  8
0
 62
    15
 10
4.617360
 20
1.593240
 11
4.618240
 21
2.338600
 12
4.637160
 22
1.589280
 13
4.638040
 23
2.334200
  0
POLYLINE
  8
0
  6
CONTINUOUS
 66
     1
 40
0.000000
 41
0.000000
  0
VERTEX
  8
0
  6
CONTINUOUS
 10
4.617360
 20
1.593240
  0
VERTEX
  8
0
  6
CONTINUOUS
 10
4.618240
 20
2.338600
  0
VERTEX
  8
0
  6
CONTINUOUS
 10
4.638040
 20
2.334200
  0
VERTEX
  8
0
  6
CONTINUOUS
 10
4.637160
 20
1.589280
  0
VERTEX
  8
0
  6
CONTINUOUS
 10
4.617360
 20
1.593240
  0
SEQEND
  8
0
  0
SOLID
  8
0
 62
    15
 10
4.637160
 20
1.589280
 11
4.638040
 21
2.334200
 12
4.656080
 22
1.581800
 13
4.656960
 23
2.327160
  0
POLYLINE
  8
0
  6
CONTINUOUS
 66
     1
 40
0.000000
 41
0.000000
  0
VERTEX
  8
0
  6
CONTINUOUS
 10
4.637160
 20
1.589280
  0
VERTEX
  8
0
  6
CONTINUOUS
 10
4.638040
 20
2.334200
  0
VERTEX
  8
0
  6
CONTINUOUS
 10
4.656960
 20
2.327160
  0
VERTEX
  8
0
  6
CONTINUOUS
 10
4.656080
 20
1.581800
  0
VERTEX
  8
0
  6
CONTINUOUS
 10
4.637160
 20
1.589280
  0
SEQEND
  8
0
  0
SOLID
  8
0
 62
    15
 10
4.482280
 20
1.488960
 11
4.483160
 21
2.234320
 12
4.487120
 22
1.513160
 13
4.488000
 23
2.258080
  0
POLYLINE
  8
0
  6
CONTINUOUS
 66
     1
 40
0.000000
 41
0.000000
  0
VERTEX
  8
0
  6
CONTINUOUS
 10
4.482280
 20
1.488960
  0
VERTEX
  8
0
  6
CONTINUOUS
 10
4.483160
 20
2.234320
  0
VERTEX
  8
0
  6
CONTINUOUS
 10
4.488000
 20
2.258080
  0
VERTEX
  8
0
  6
CONTINUOUS
 10
4.487120
 20
1.513160
  0
VERTEX
  8
0
  6
CONTINUOUS
 10
4.482280
 20
1.488960
  0
SEQEND
  8
0
  0
SOLID
  8
0
 62
    15
 10
4.673680
 20
1.571240
 11
4.675000
 21
2.316600
 12
4.689520
 22
1.557600
 13
4.690400
 23
2.302960
  0
POLYLINE
  8
0
  6
CONTINUOUS
 66
     1
 40
0.000000
 41
0.000000
  0
VERTEX
  8
0
  6
CONTINUOUS
 10
4.673680
 20
1.571240
  0
VERTEX
  8
0
  6
CONTINUOUS
 10
4.675000
 20
2.316600
  0
VERTEX
  8
0
  6
CONTINUOUS
 10
4.690400
 20
2.302960
  0
VERTEX
  8
0
  6
CONTINUOUS
 10
4.689520
 20
1.557600
  0
VERTEX
  8
0
  6
CONTINUOUS
 10
4.673680
 20
1.571240
  0
SEQEND
  8
0
  0
SOLID
  8
0
 62
    15
 10
4.689520
 20
1.557600
 11
4.690400
 21
2.302960
 12
4.702720
 22
1.540880
 13
4.703600
 23
2.285800
  0
POLYLINE
  8
0
  6
CONTINUOUS
 66
     1
 40
0.000000
 41
0.000000
  0
VERTEX
  8
0
  6
CONTINUOUS
 10
4.689520
 20
1.557600
  0
VERTEX
  8
0
  6
CONTINUOUS
 10
4.690400
 20
2.302960
  0
VERTEX
  8
0
  6
CONTINUOUS
 10
4.703600
 20
2.285800
  0
VERTEX
  8
0
  6
CONTINUOUS
 10
4.702720
 20
1.540880
  0
VERTEX
  8
0
  6
CONTINUOUS
 10
4.689520
 20
1.557600
  0
SEQEND
  8
0
  0
SOLID
  8
0
 62
    15
 10
4.702720
 20
1.540880
 11
4.703600
 21
2.285800
 12
4.712840
 22
1.520640
 13
4.713720
 23
2.265560
  0
POLYLINE
  8
0
  6
CONTINUOUS
 66
     1
 40
0.000000
 41
0.000000
  0
VERTEX
  8
0
  6
CONTINUOUS
 10
4.702720
 20
1.540880
  0
VERTEX
  8
0
  6
CONTINUOUS
 10
4.703600
 20
2.285800
  0
VERTEX
  8
0
  6
CONTINUOUS
 10
4.713720
 20
2.265560
  0
VERTEX
  8
0
  6
CONTINUOUS
 10
4.712840
 20
1.520640
  0
VERTEX
  8
0
  6
CONTINUOUS
 10
4.702720
 20
1.540880
  0
SEQEND
  8
0
  0
SOLID
  8
0
 62
    15
 10
4.712840
 20
1.520640
 11
4.713720
 21
2.265560
 12
4.719440
 22
1.497320
 13
4.720320
 23
2.242240
  0
POLYLINE
  8
0
  6
CONTINUOUS
 66
     1
 40
0.000000
 41
0.000000
  0
VERTEX
  8
0
  6
CONTINUOUS
 10
4.712840
 20
1.520640
  0
VERTEX
  8
0
  6
CONTINUOUS
 10
4.713720
 20
2.265560
  0
VERTEX
  8
0
  6
CONTINUOUS
 10
4.720320
 20
2.242240
  0
VERTEX
  8
0
  6
CONTINUOUS
 10
4.719440
 20
1.497320
  0
VERTEX
  8
0
  6
CONTINUOUS
 10
4.712840
 20
1.520640
  0
SEQEND
  8
0
  0
SOLID
  8
0
 62
    15
 10
7.768200
 20
1.307680
 11
7.769080
 21
2.052600
 12
7.768200
 22
0.957440
 13
7.769080
 23
1.702360
  0
POLYLINE
  8
0
  6
CONTINUOUS
 66
     1
 40
0.000000
 41
0.000000
  0
VERTEX
  8
0
  6
CONTINUOUS
 10
7.768200
 20
1.307680
  0
VERTEX
  8
0
  6
CONTINUOUS
 10
7.769080
 20
2.052600
  0
VERTEX
  8
0
  6
CONTINUOUS
 10
7.769080
 20
1.702360
  0
VERTEX
  8
0
  6
CONTINUOUS
 10
7.768200
 20
0.957440
  0
VERTEX
  8
0
  6
CONTINUOUS
 10
7.768200
 20
1.307680
  0
SEQEND
  8
0
  0
SOLID
  8
0
 62
    15
 10
7.067720
 20
1.307680
 11
7.068600
 21
2.052600
 12
7.768200
 22
1.307680
 13
7.769080
 23
2.052600
  0
POLYLINE
  8
0
  6
CONTINUOUS
 66
     1
 40
0.000000
 41
0.000000
  0
VERTEX
  8
0
  6
CONTINUOUS
 10
7.067720
 20
1.307680
  0
VERTEX
  8
0
  6
CONTINUOUS
 10
7.068600
 20
2.052600
  0
VERTEX
  8
0
  6
CONTINUOUS
 10
7.769080
 20
2.052600
  0
VERTEX
  8
0
  6
CONTINUOUS
 10
7.768200
 20
1.307680
  0
VERTEX
  8
0
  6
CONTINUOUS
 10
7.067720
 20
1.307680
  0
SEQEND
  8
0
  0
SOLID
  8
0
 62
    15
 10
7.067720
 20
1.406680
 11
7.068600
 21
2.152040
 12
7.067720
 22
1.307680
 13
7.068600
 23
2.052600
  0
POLYLINE
  8
0
  6
CONTINUOUS
 66
     1
 40
0.000000
 41
0.000000
  0
VERTEX
  8
0
  6
CONTINUOUS
 10
7.067720
 20
1.406680
  0
VERTEX
  8
0
  6
CONTINUOUS
 10
7.068600
 20
2.152040
  0
VERTEX
  8
0
  6
CONTINUOUS
 10
7.068600
 20
2.052600
  0
VERTEX
  8
0
  6
CONTINUOUS
 10
7.067720
 20
1.307680
  0
VERTEX
  8
0
  6
CONTINUOUS
 10
7.067720
 20
1.406680
  0
SEQEND
  8
0
  0
SOLID
  8
0
 62
    15
 10
6.011280
 20
1.406680
 11
6.012160
 21
2.152040
 12
7.067720
 22
1.406680
 13
7.068600
 23
2.152040
  0
POLYLINE
  8
0
  6
CONTINUOUS
 66
     1
 40
0.000000
 41
0.000000
  0
VERTEX
  8
0
  6
CONTINUOUS
 10
6.011280
 20
1.406680
  0
VERTEX
  8
0
  6
CONTINUOUS
 10
6.012160
 20
2.152040
  0
VERTEX
  8
0
  6
CONTINUOUS
 10
7.068600
 20
2.152040
  0
VERTEX
  8
0
  6
CONTINUOUS
 10
7.067720
 20
1.406680
  0
VERTEX
  8
0
  6
CONTINUOUS
 10
6.011280
 20
1.406680
  0
SEQEND
  8
0
  0
SOLID
  8
0
 62
    15
 10
6.011280
 20
1.497320
 11
6.012160
 21
2.242240
 12
6.011280
 22
1.406680
 13
6.012160
 23
2.152040
  0
POLYLINE
  8
0
  6
CONTINUOUS
 66
     1
 40
0.000000
 41
0.000000
  0
VERTEX
  8
0
  6
CONTINUOUS
 10
6.011280
 20
1.497320
  0
VERTEX
  8
0
  6
CONTINUOUS
 10
6.012160
 20
2.242240
  0
VERTEX
  8
0
  6
CONTINUOUS
 10
6.012160
 20
2.152040
  0
VERTEX
  8
0
  6
CONTINUOUS
 10
6.011280
 20
1.406680
  0
VERTEX
  8
0
  6
CONTINUOUS
 10
6.011280
 20
1.497320
  0
SEQEND
  8
0
  0
SOLID
  8
0
 62
    15
 10
4.719440
 20
1.497320
 11
4.720320
 21
2.242240
 12
6.011280
 22
1.497320
 13
6.012160
 23
2.242240
  0
POLYLINE
  8
0
  6
CONTINUOUS
 66
     1
 40
0.000000
 41
0.000000
  0
VERTEX
  8
0
  6
CONTINUOUS
 10
4.719440
 20
1.497320
  0
VERTEX
  8
0
  6
CONTINUOUS
 10
4.720320
 20
2.242240
  0
VERTEX
  8
0
  6
CONTINUOUS
 10
6.012160
 20
2.242240
  0
VERTEX
  8
0
  6
CONTINUOUS
 10
6.011280
 20
1.497320
  0
VERTEX
  8
0
  6
CONTINUOUS
 10
4.719440
 20
1.497320
  0
SEQEND
  8
0
  0
SOLID
  8
0
 62
    15
 10
4.487120
 20
1.513160
 11
4.488000
 21
2.258080
 12
4.495480
 22
1.533840
 13
4.496360
 23
2.279200
  0
POLYLINE
  8
0
  6
CONTINUOUS
 66
     1
 40
0.000000
 41
0.000000
  0
VERTEX
  8
0
  6
CONTINUOUS
 10
4.487120
 20
1.513160
  0
VERTEX
  8
0
  6
CONTINUOUS
 10
4.488000
 20
2.258080
  0
VERTEX
  8
0
  6
CONTINUOUS
 10
4.496360
 20
2.279200
  0
VERTEX
  8
0
  6
CONTINUOUS
 10
4.495480
 20
1.533840
  0
VERTEX
  8
0
  6
CONTINUOUS
 10
4.487120
 20
1.513160
  0
SEQEND
  8
0
  0
POLYLINE
  8
0
  6
CONTINUOUS
 66
     1
 40
0.000000
 41
0.000000
  0
VERTEX
  8
0
  6
CONTINUOUS
 10
4.400880
 20
1.393480
  0
VERTEX
  8
0
  6
CONTINUOUS
 10
4.400880
 20
1.488960
  0
VERTEX
  8
0
  6
CONTINUOUS
 10
4.482280
 20
1.488960
  0
VERTEX
  8
0
  6
CONTINUOUS
 10
4.487120
 20
1.513160
  0
VERTEX
  8
0
  6
CONTINUOUS
 10
4.495480
 20
1.533840
  0
VERTEX
  8
0
  6
CONTINUOUS
 10
4.507360
 20
1.551880
  0
VERTEX
  8
0
  6
CONTINUOUS
 10
4.521880
 20
1.566400
  0
VERTEX
  8
0
  6
CONTINUOUS
 10
4.538600
 20
1.578280
  0
VERTEX
  8
0
  6
CONTINUOUS
 10
4.556640
 20
1.586640
  0
VERTEX
  8
0
  6
CONTINUOUS
 10
4.576440
 20
1.591920
  0
VERTEX
  8
0
  6
CONTINUOUS
 10
4.596680
 20
1.594120
  0
VERTEX
  8
0
  6
CONTINUOUS
 10
4.617360
 20
1.593240
  0
VERTEX
  8
0
  6
CONTINUOUS
 10
4.637160
 20
1.589280
  0
VERTEX
  8
0
  6
CONTINUOUS
 10
4.656080
 20
1.581800
  0
VERTEX
  8
0
  6
CONTINUOUS
 10
4.673680
 20
1.571240
  0
VERTEX
  8
0
  6
CONTINUOUS
 10
4.689520
 20
1.557600
  0
VERTEX
  8
0
  6
CONTINUOUS
 10
4.702720
 20
1.540880
  0
VERTEX
  8
0
  6
CONTINUOUS
 10
4.712840
 20
1.520640
  0
VERTEX
  8
0
  6
CONTINUOUS
 10
4.719440
 20
1.497320
  0
VERTEX
  8
0
  6
CONTINUOUS
 10
6.011280
 20
1.497320
  0
VERTEX
  8
0
  6
CONTINUOUS
 10
6.011280
 20
1.406680
  0
VERTEX
  8
0
  6
CONTINUOUS
 10
7.067720
 20
1.406680
  0
VERTEX
  8
0
  6
CONTINUOUS
 10
7.067720
 20
1.307680
  0
VERTEX
  8
0
  6
CONTINUOUS
 10
7.768200
 20
1.307680
  0
VERTEX
  8
0
  6
CONTINUOUS
 10
7.768200
 20
0.957440
  0
VERTEX
  8
0
  6
CONTINUOUS
 10
4.238520
 20
0.957440
  0
VERTEX
  8
0
  6
CONTINUOUS
 10
4.238520
 20
1.390840
  0
VERTEX
  8
0
  6
CONTINUOUS
 10
4.400880
 20
1.390840
  0
VERTEX
  8
0
  6
CONTINUOUS
 10
4.400880
 20
1.393480
  0
SEQEND
  8
0
  0
SOLID
  8
0
 62
    15
 10
3.861880
 20
1.931600
 11
3.863640
 21
2.671680
 12
3.894440
 22
1.907840
 13
3.896200
 23
2.648360
  0
POLYLINE
  8
0
  6
CONTINUOUS
 66
     1
 40
0.000000
 41
0.000000
  0
VERTEX
  8
0
  6
CONTINUOUS
 10
3.861880
 20
1.931600
  0
VERTEX
  8
0
  6
CONTINUOUS
 10
3.863640
 20
2.671680
  0
VERTEX
  8
0
  6
CONTINUOUS
 10
3.896200
 20
2.648360
  0
VERTEX
  8
0
  6
CONTINUOUS
 10
3.894440
 20
1.907840
  0
VERTEX
  8
0
  6
CONTINUOUS
 10
3.861880
 20
1.931600
  0
SEQEND
  8
0
  0
SOLID
  8
0
 62
    15
 10
3.545080
 20
1.979120
 11
3.546840
 21
2.719640
 12
3.561800
 22
1.871760
 13
3.563560
 23
2.612280
  0
POLYLINE
  8
0
  6
CONTINUOUS
 66
     1
 40
0.000000
 41
0.000000
  0
VERTEX
  8
0
  6
CONTINUOUS
 10
3.545080
 20
1.979120
  0
VERTEX
  8
0
  6
CONTINUOUS
 10
3.546840
 20
2.719640
  0
VERTEX
  8
0
  6
CONTINUOUS
 10
3.563560
 20
2.612280
  0
VERTEX
  8
0
  6
CONTINUOUS
 10
3.561800
 20
1.871760
  0
VERTEX
  8
0
  6
CONTINUOUS
 10
3.545080
 20
1.979120
  0
SEQEND
  8
0
  0
SOLID
  8
0
 62
    15
 10
3.561800
 20
1.871760
 11
3.563560
 21
2.612280
 12
3.568840
 22
1.822040
 13
3.570600
 23
2.562120
  0
POLYLINE
  8
0
  6
CONTINUOUS
 66
     1
 40
0.000000
 41
0.000000
  0
VERTEX
  8
0
  6
CONTINUOUS
 10
3.561800
 20
1.871760
  0
VERTEX
  8
0
  6
CONTINUOUS
 10
3.563560
 20
2.612280
  0
VERTEX
  8
0
  6
CONTINUOUS
 10
3.570600
 20
2.562120
  0
VERTEX
  8
0
  6
CONTINUOUS
 10
3.568840
 20
1.822040
  0
VERTEX
  8
0
  6
CONTINUOUS
 10
3.561800
 20
1.871760
  0
SEQEND
  8
0
  0
SOLID
  8
0
 62
    15
 10
3.568840
 20
1.822040
 11
3.570600
 21
2.562120
 12
3.636160
 22
1.822480
 13
3.637920
 23
2.562560
  0
POLYLINE
  8
0
  6
CONTINUOUS
 66
     1
 40
0.000000
 41
0.000000
  0
VERTEX
  8
0
  6
CONTINUOUS
 10
3.568840
 20
1.822040
  0
VERTEX
  8
0
  6
CONTINUOUS
 10
3.570600
 20
2.562120
  0
VERTEX
  8
0
  6
CONTINUOUS
 10
3.637920
 20
2.562560
  0
VERTEX
  8
0
  6
CONTINUOUS
 10
3.636160
 20
1.822480
  0
VERTEX
  8
0
  6
CONTINUOUS
 10
3.568840
 20
1.822040
  0
SEQEND
  8
0
  0
SOLID
  8
0
 62
    15
 10
3.636160
 20
1.822480
 11
3.637920
 21
2.562560
 12
3.641000
 22
1.848000
 13
3.642760
 23
2.588080
  0
POLYLINE
  8
0
  6
CONTINUOUS
 66
     1
 40
0.000000
 41
0.000000
  0
VERTEX
  8
0
  6
CONTINUOUS
 10
3.636160
 20
1.822480
  0
VERTEX
  8
0
  6
CONTINUOUS
 10
3.637920
 20
2.562560
  0
VERTEX
  8
0
  6
CONTINUOUS
 10
3.642760
 20
2.588080
  0
VERTEX
  8
0
  6
CONTINUOUS
 10
3.641000
 20
1.848000
  0
VERTEX
  8
0
  6
CONTINUOUS
 10
3.636160
 20
1.822480
  0
SEQEND
  8
0
  0
SOLID
  8
0
 62
    15
 10
3.641000
 20
1.848000
 11
3.642760
 21
2.588080
 12
3.655080
 22
1.880560
 13
3.656840
 23
2.621080
  0
POLYLINE
  8
0
  6
CONTINUOUS
 66
     1
 40
0.000000
 41
0.000000
  0
VERTEX
  8
0
  6
CONTINUOUS
 10
3.641000
 20
1.848000
  0
VERTEX
  8
0
  6
CONTINUOUS
 10
3.642760
 20
2.588080
  0
VERTEX
  8
0
  6
CONTINUOUS
 10
3.656840
 20
2.621080
  0
VERTEX
  8
0
  6
CONTINUOUS
 10
3.655080
 20
1.880560
  0
VERTEX
  8
0
  6
CONTINUOUS
 10
3.641000
 20
1.848000
  0
SEQEND
  8
0
  0
SOLID
  8
0
 62
    15
 10
3.655080
 20
1.880560
 11
3.656840
 21
2.621080
 12
3.678840
 22
1.914000
 13
3.680600
 23
2.654520
  0
POLYLINE
  8
0
  6
CONTINUOUS
 66
     1
 40
0.000000
 41
0.000000
  0
VERTEX
  8
0
  6
CONTINUOUS
 10
3.655080
 20
1.880560
  0
VERTEX
  8
0
  6
CONTINUOUS
 10
3.656840
 20
2.621080
  0
VERTEX
  8
0
  6
CONTINUOUS
 10
3.680600
 20
2.654520
  0
VERTEX
  8
0
  6
CONTINUOUS
 10
3.678840
 20
1.914000
  0
VERTEX
  8
0
  6
CONTINUOUS
 10
3.655080
 20
1.880560
  0
SEQEND
  8
0
  0
SOLID
  8
0
 62
    15
 10
3.678840
 20
1.914000
 11
3.680600
 21
2.654520
 12
3.711400
 22
1.942160
 13
3.713160
 23
2.682240
  0
POLYLINE
  8
0
  6
CONTINUOUS
 66
     1
 40
0.000000
 41
0.000000
  0
VERTEX
  8
0
  6
CONTINUOUS
 10
3.678840
 20
1.914000
  0
VERTEX
  8
0
  6
CONTINUOUS
 10
3.680600
 20
2.654520
  0
VERTEX
  8
0
  6
CONTINUOUS
 10
3.713160
 20
2.682240
  0
VERTEX
  8
0
  6
CONTINUOUS
 10
3.711400
 20
1.942160
  0
VERTEX
  8
0
  6
CONTINUOUS
 10
3.678840
 20
1.914000
  0
SEQEND
  8
0
  0
SOLID
  8
0
 62
    15
 10
3.711400
 20
1.942160
 11
3.713160
 21
2.682240
 12
3.752760
 22
1.958440
 13
3.754520
 23
2.698520
  0
POLYLINE
  8
0
  6
CONTINUOUS
 66
     1
 40
0.000000
 41
0.000000
  0
VERTEX
  8
0
  6
CONTINUOUS
 10
3.711400
 20
1.942160
  0
VERTEX
  8
0
  6
CONTINUOUS
 10
3.713160
 20
2.682240
  0
VERTEX
  8
0
  6
CONTINUOUS
 10
3.754520
 20
2.698520
  0
VERTEX
  8
0
  6
CONTINUOUS
 10
3.752760
 20
1.958440
  0
VERTEX
  8
0
  6
CONTINUOUS
 10
3.711400
 20
1.942160
  0
SEQEND
  8
0
  0
SOLID
  8
0
 62
    15
 10
3.752760
 20
1.958440
 11
3.754520
 21
2.698520
 12
3.776960
 22
1.960200
 13
3.778720
 23
2.700720
  0
POLYLINE
  8
0
  6
CONTINUOUS
 66
     1
 40
0.000000
 41
0.000000
  0
VERTEX
  8
0
  6
CONTINUOUS
 10
3.752760
 20
1.958440
  0
VERTEX
  8
0
  6
CONTINUOUS
 10
3.754520
 20
2.698520
  0
VERTEX
  8
0
  6
CONTINUOUS
 10
3.778720
 20
2.700720
  0
VERTEX
  8
0
  6
CONTINUOUS
 10
3.776960
 20
1.960200
  0
VERTEX
  8
0
  6
CONTINUOUS
 10
3.752760
 20
1.958440
  0
SEQEND
  8
0
  0
SOLID
  8
0
 62
    15
 10
3.776960
 20
1.960200
 11
3.778720
 21
2.700720
 12
3.803360
 22
1.957120
 13
3.805120
 23
2.697200
  0
POLYLINE
  8
0
  6
CONTINUOUS
 66
     1
 40
0.000000
 41
0.000000
  0
VERTEX
  8
0
  6
CONTINUOUS
 10
3.776960
 20
1.960200
  0
VERTEX
  8
0
  6
CONTINUOUS
 10
3.778720
 20
2.700720
  0
VERTEX
  8
0
  6
CONTINUOUS
 10
3.805120
 20
2.697200
  0
VERTEX
  8
0
  6
CONTINUOUS
 10
3.803360
 20
1.957120
  0
VERTEX
  8
0
  6
CONTINUOUS
 10
3.776960
 20
1.960200
  0
SEQEND
  8
0
  0
SOLID
  8
0
 62
    15
 10
3.803360
 20
1.957120
 11
3.805120
 21
2.697200
 12
3.831520
 22
1.947440
 13
3.833280
 23
2.687960
  0
POLYLINE
  8
0
  6
CONTINUOUS
 66
     1
 40
0.000000
 41
0.000000
  0
VERTEX
  8
0
  6
CONTINUOUS
 10
3.803360
 20
1.957120
  0
VERTEX
  8
0
  6
CONTINUOUS
 10
3.805120
 20
2.697200
  0
VERTEX
  8
0
  6
CONTINUOUS
 10
3.833280
 20
2.687960
  0
VERTEX
  8
0
  6
CONTINUOUS
 10
3.831520
 20
1.947440
  0
VERTEX
  8
0
  6
CONTINUOUS
 10
3.803360
 20
1.957120
  0
SEQEND
  8
0
  0
SOLID
  8
0
 62
    15
 10
3.831520
 20
1.947440
 11
3.833280
 21
2.687960
 12
3.861880
 22
1.931600
 13
3.863640
 23
2.671680
  0
POLYLINE
  8
0
  6
CONTINUOUS
 66
     1
 40
0.000000
 41
0.000000
  0
VERTEX
  8
0
  6
CONTINUOUS
 10
3.831520
 20
1.947440
  0
VERTEX
  8
0
  6
CONTINUOUS
 10
3.833280
 20
2.687960
  0
VERTEX
  8
0
  6
CONTINUOUS
 10
3.863640
 20
2.671680
  0
VERTEX
  8
0
  6
CONTINUOUS
 10
3.861880
 20
1.931600
  0
VERTEX
  8
0
  6
CONTINUOUS
 10
3.831520
 20
1.947440
  0
SEQEND
  8
0
  0
SOLID
  8
0
 62
    15
 10
3.058000
 20
1.979120
 11
3.059760
 21
2.719640
 12
3.545080
 22
1.979120
 13
3.546840
 23
2.719640
  0
POLYLINE
  8
0
  6
CONTINUOUS
 66
     1
 40
0.000000
 41
0.000000
  0
VERTEX
  8
0
  6
CONTINUOUS
 10
3.058000
 20
1.979120
  0
VERTEX
  8
0
  6
CONTINUOUS
 10
3.059760
 20
2.719640
  0
VERTEX
  8
0
  6
CONTINUOUS
 10
3.546840
 20
2.719640
  0
VERTEX
  8
0
  6
CONTINUOUS
 10
3.545080
 20
1.979120
  0
VERTEX
  8
0
  6
CONTINUOUS
 10
3.058000
 20
1.979120
  0
SEQEND
  8
0
  0
SOLID
  8
0
 62
    15
 10
3.894440
 20
1.907840
 11
3.896200
 21
2.648360
 12
3.929200
 22
1.876160
 13
3.930960
 23
2.616240
  0
POLYLINE
  8
0
  6
CONTINUOUS
 66
     1
 40
0.000000
 41
0.000000
  0
VERTEX
  8
0
  6
CONTINUOUS
 10
3.894440
 20
1.907840
  0
VERTEX
  8
0
  6
CONTINUOUS
 10
3.896200
 20
2.648360
  0
VERTEX
  8
0
  6
CONTINUOUS
 10
3.930960
 20
2.616240
  0
VERTEX
  8
0
  6
CONTINUOUS
 10
3.929200
 20
1.876160
  0
VERTEX
  8
0
  6
CONTINUOUS
 10
3.894440
 20
1.907840
  0
SEQEND
  8
0
  0
SOLID
  8
0
 62
    15
 10
3.929200
 20
1.876160
 11
3.930960
 21
2.616240
 12
3.995640
 22
1.809720
 13
3.997400
 23
2.550240
  0
POLYLINE
  8
0
  6
CONTINUOUS
 66
     1
 40
0.000000
 41
0.000000
  0
VERTEX
  8
0
  6
CONTINUOUS
 10
3.929200
 20
1.876160
  0
VERTEX
  8
0
  6
CONTINUOUS
 10
3.930960
 20
2.616240
  0
VERTEX
  8
0
  6
CONTINUOUS
 10
3.997400
 20
2.550240
  0
VERTEX
  8
0
  6
CONTINUOUS
 10
3.995640
 20
1.809720
  0
VERTEX
  8
0
  6
CONTINUOUS
 10
3.929200
 20
1.876160
  0
SEQEND
  8
0
  0
SOLID
  8
0
 62
    15
 10
3.995640
 20
1.809720
 11
3.997400
 21
2.550240
 12
4.054160
 22
1.756480
 13
4.055920
 23
2.496560
  0
POLYLINE
  8
0
  6
CONTINUOUS
 66
     1
 40
0.000000
 41
0.000000
  0
VERTEX
  8
0
  6
CONTINUOUS
 10
3.995640
 20
1.809720
  0
VERTEX
  8
0
  6
CONTINUOUS
 10
3.997400
 20
2.550240
  0
VERTEX
  8
0
  6
CONTINUOUS
 10
4.055920
 20
2.496560
  0
VERTEX
  8
0
  6
CONTINUOUS
 10
4.054160
 20
1.756480
  0
VERTEX
  8
0
  6
CONTINUOUS
 10
3.995640
 20
1.809720
  0
SEQEND
  8
0
  0
SOLID
  8
0
 62
    15
 10
4.054160
 20
1.756480
 11
4.055920
 21
2.496560
 12
4.107400
 22
1.713800
 13
4.109600
 23
2.453880
  0
POLYLINE
  8
0
  6
CONTINUOUS
 66
     1
 40
0.000000
 41
0.000000
  0
VERTEX
  8
0
  6
CONTINUOUS
 10
4.054160
 20
1.756480
  0
VERTEX
  8
0
  6
CONTINUOUS
 10
4.055920
 20
2.496560
  0
VERTEX
  8
0
  6
CONTINUOUS
 10
4.109600
 20
2.453880
  0
VERTEX
  8
0
  6
CONTINUOUS
 10
4.107400
 20
1.713800
  0
VERTEX
  8
0
  6
CONTINUOUS
 10
4.054160
 20
1.756480
  0
SEQEND
  8
0
  0
SOLID
  8
0
 62
    15
 10
4.107400
 20
1.713800
 11
4.109600
 21
2.453880
 12
4.159320
 22
1.680360
 13
4.161080
 23
2.420440
  0
POLYLINE
  8
0
  6
CONTINUOUS
 66
     1
 40
0.000000
 41
0.000000
  0
VERTEX
  8
0
  6
CONTINUOUS
 10
4.107400
 20
1.713800
  0
VERTEX
  8
0
  6
CONTINUOUS
 10
4.109600
 20
2.453880
  0
VERTEX
  8
0
  6
CONTINUOUS
 10
4.161080
 20
2.420440
  0
VERTEX
  8
0
  6
CONTINUOUS
 10
4.159320
 20
1.680360
  0
VERTEX
  8
0
  6
CONTINUOUS
 10
4.107400
 20
1.713800
  0
SEQEND
  8
0
  0
SOLID
  8
0
 62
    15
 10
4.201560
 20
0.961400
 11
4.203760
 21
1.701920
 12
4.201560
 22
0.959200
 13
4.203760
 23
1.699280
  0
POLYLINE
  8
0
  6
CONTINUOUS
 66
     1
 40
0.000000
 41
0.000000
  0
VERTEX
  8
0
  6
CONTINUOUS
 10
4.201560
 20
0.961400
  0
VERTEX
  8
0
  6
CONTINUOUS
 10
4.203760
 20
1.701920
  0
VERTEX
  8
0
  6
CONTINUOUS
 10
4.203760
 20
1.699280
  0
VERTEX
  8
0
  6
CONTINUOUS
 10
4.201560
 20
0.959200
  0
VERTEX
  8
0
  6
CONTINUOUS
 10
4.201560
 20
0.961400
  0
SEQEND
  8
0
  0
SOLID
  8
0
 62
    15
 10
4.243360
 20
1.391280
 11
4.245120
 21
2.131360
 12
4.243360
 22
0.961400
 13
4.245120
 23
1.701920
  0
POLYLINE
  8
0
  6
CONTINUOUS
 66
     1
 40
0.000000
 41
0.000000
  0
VERTEX
  8
0
  6
CONTINUOUS
 10
4.243360
 20
1.391280
  0
VERTEX
  8
0
  6
CONTINUOUS
 10
4.245120
 20
2.131360
  0
VERTEX
  8
0
  6
CONTINUOUS
 10
4.245120
 20
1.701920
  0
VERTEX
  8
0
  6
CONTINUOUS
 10
4.243360
 20
0.961400
  0
VERTEX
  8
0
  6
CONTINUOUS
 10
4.243360
 20
1.391280
  0
SEQEND
  8
0
  0
SOLID
  8
0
 62
    15
 10
4.269320
 20
1.635920
 11
4.271080
 21
2.376440
 12
4.333560
 22
1.622280
 13
4.335760
 23
2.362360
  0
POLYLINE
  8
0
  6
CONTINUOUS
 66
     1
 40
0.000000
 41
0.000000
  0
VERTEX
  8
0
  6
CONTINUOUS
 10
4.269320
 20
1.635920
  0
VERTEX
  8
0
  6
CONTINUOUS
 10
4.271080
 20
2.376440
  0
VERTEX
  8
0
  6
CONTINUOUS
 10
4.335760
 20
2.362360
  0
VERTEX
  8
0
  6
CONTINUOUS
 10
4.333560
 20
1.622280
  0
VERTEX
  8
0
  6
CONTINUOUS
 10
4.269320
 20
1.635920
  0
SEQEND
  8
0
  0
SOLID
  8
0
 62
    15
 10
4.408360
 20
1.611720
 11
4.410120
 21
2.351800
 12
4.408360
 22
1.391280
 13
4.410120
 23
2.131360
  0
POLYLINE
  8
0
  6
CONTINUOUS
 66
     1
 40
0.000000
 41
0.000000
  0
VERTEX
  8
0
  6
CONTINUOUS
 10
4.408360
 20
1.611720
  0
VERTEX
  8
0
  6
CONTINUOUS
 10
4.410120
 20
2.351800
  0
VERTEX
  8
0
  6
CONTINUOUS
 10
4.410120
 20
2.131360
  0
VERTEX
  8
0
  6
CONTINUOUS
 10
4.408360
 20
1.391280
  0
VERTEX
  8
0
  6
CONTINUOUS
 10
4.408360
 20
1.611720
  0
SEQEND
  8
0
  0
SOLID
  8
0
 62
    15
 10
4.333560
 20
1.622280
 11
4.335760
 21
2.362360
 12
4.408360
 22
1.611720
 13
4.410120
 23
2.351800
  0
POLYLINE
  8
0
  6
CONTINUOUS
 66
     1
 40
0.000000
 41
0.000000
  0
VERTEX
  8
0
  6
CONTINUOUS
 10
4.333560
 20
1.622280
  0
VERTEX
  8
0
  6
CONTINUOUS
 10
4.335760
 20
2.362360
  0
VERTEX
  8
0
  6
CONTINUOUS
 10
4.410120
 20
2.351800
  0
VERTEX
  8
0
  6
CONTINUOUS
 10
4.408360
 20
1.611720
  0
VERTEX
  8
0
  6
CONTINUOUS
 10
4.333560
 20
1.622280
  0
SEQEND
  8
0
  0
SOLID
  8
0
 62
    15
 10
4.212120
 20
1.654840
 11
4.214320
 21
2.395360
 12
4.269320
 22
1.635920
 13
4.271080
 23
2.376440
  0
POLYLINE
  8
0
  6
CONTINUOUS
 66
     1
 40
0.000000
 41
0.000000
  0
VERTEX
  8
0
  6
CONTINUOUS
 10
4.212120
 20
1.654840
  0
VERTEX
  8
0
  6
CONTINUOUS
 10
4.214320
 20
2.395360
  0
VERTEX
  8
0
  6
CONTINUOUS
 10
4.271080
 20
2.376440
  0
VERTEX
  8
0
  6
CONTINUOUS
 10
4.269320
 20
1.635920
  0
VERTEX
  8
0
  6
CONTINUOUS
 10
4.212120
 20
1.654840
  0
SEQEND
  8
0
  0
SOLID
  8
0
 62
    15
 10
4.159320
 20
1.680360
 11
4.161080
 21
2.420440
 12
4.212120
 22
1.654840
 13
4.214320
 23
2.395360
  0
POLYLINE
  8
0
  6
CONTINUOUS
 66
     1
 40
0.000000
 41
0.000000
  0
VERTEX
  8
0
  6
CONTINUOUS
 10
4.159320
 20
1.680360
  0
VERTEX
  8
0
  6
CONTINUOUS
 10
4.161080
 20
2.420440
  0
VERTEX
  8
0
  6
CONTINUOUS
 10
4.214320
 20
2.395360
  0
VERTEX
  8
0
  6
CONTINUOUS
 10
4.212120
 20
1.654840
  0
VERTEX
  8
0
  6
CONTINUOUS
 10
4.159320
 20
1.680360
  0
SEQEND
  8
0
  0
POLYLINE
  8
0
  6
CONTINUOUS
 66
     1
 40
0.000000
 41
0.000000
  0
VERTEX
  8
0
  6
CONTINUOUS
 10
4.201560
 20
0.959200
  0
VERTEX
  8
0
  6
CONTINUOUS
 10
3.058000
 20
0.959200
  0
VERTEX
  8
0
  6
CONTINUOUS
 10
3.058000
 20
1.979120
  0
VERTEX
  8
0
  6
CONTINUOUS
 10
3.545080
 20
1.979120
  0
VERTEX
  8
0
  6
CONTINUOUS
 10
3.561800
 20
1.871760
  0
VERTEX
  8
0
  6
CONTINUOUS
 10
3.568840
 20
1.822040
  0
VERTEX
  8
0
  6
CONTINUOUS
 10
3.636160
 20
1.822480
  0
VERTEX
  8
0
  6
CONTINUOUS
 10
3.641000
 20
1.848000
  0
VERTEX
  8
0
  6
CONTINUOUS
 10
3.655080
 20
1.880560
  0
VERTEX
  8
0
  6
CONTINUOUS
 10
3.678840
 20
1.914000
  0
VERTEX
  8
0
  6
CONTINUOUS
 10
3.711400
 20
1.942160
  0
VERTEX
  8
0
  6
CONTINUOUS
 10
3.752760
 20
1.958440
  0
VERTEX
  8
0
  6
CONTINUOUS
 10
3.776960
 20
1.960200
  0
VERTEX
  8
0
  6
CONTINUOUS
 10
3.803360
 20
1.957120
  0
VERTEX
  8
0
  6
CONTINUOUS
 10
3.831520
 20
1.947440
  0
VERTEX
  8
0
  6
CONTINUOUS
 10
3.861880
 20
1.931600
  0
VERTEX
  8
0
  6
CONTINUOUS
 10
3.894440
 20
1.907840
  0
VERTEX
  8
0
  6
CONTINUOUS
 10
3.929200
 20
1.876160
  0
VERTEX
  8
0
  6
CONTINUOUS
 10
3.995640
 20
1.809720
  0
VERTEX
  8
0
  6
CONTINUOUS
 10
4.054160
 20
1.756480
  0
VERTEX
  8
0
  6
CONTINUOUS
 10
4.107400
 20
1.713800
  0
VERTEX
  8
0
  6
CONTINUOUS
 10
4.159320
 20
1.680360
  0
VERTEX
  8
0
  6
CONTINUOUS
 10
4.212120
 20
1.654840
  0
VERTEX
  8
0
  6
CONTINUOUS
 10
4.269320
 20
1.635920
  0
VERTEX
  8
0
  6
CONTINUOUS
 10
4.333560
 20
1.622280
  0
VERTEX
  8
0
  6
CONTINUOUS
 10
4.408360
 20
1.611720
  0
VERTEX
  8
0
  6
CONTINUOUS
 10
4.408360
 20
1.391280
  0
VERTEX
  8
0
  6
CONTINUOUS
 10
4.243360
 20
1.391280
  0
VERTEX
  8
0
  6
CONTINUOUS
 10
4.243360
 20
0.961400
  0
VERTEX
  8
0
  6
CONTINUOUS
 10
4.201560
 20
0.961400
  0
VERTEX
  8
0
  6
CONTINUOUS
 10
4.201560
 20
0.959200
  0
SEQEND
  8
0
  0
TEXT
  8
0
 10
3.140720
 20
1.052920
 40
0.138105
  1
680
 41
1.000000
  7
SN0
 71
     0
 72
     5
 11
3.417738
 21
1.052920
  0
TEXT
  8
0
 10
4.320360
 20
1.052920
 40
0.138105
  1
676
 41
1.000000
  7
SN0
 71
     0
 72
     5
 11
4.597378
 21
1.052920
  0
ENDSEC
  0
EOF
