  0
SECTION
  2
HEADER
  9
$ACADVER
  1
AC1006
  9
$EXTMIN
 10
3.849120
 20
0.393360
  9
$EXTMAX
 10
7.674040
 20
4.169000
  9
$LTSCALE
 40
0.044000
  9
$PDMODE
 70
    35
  9
$PDSIZE
 40
0.035200
  0
ENDSEC
  0
SECTION
  2
TABLES
  0
TABLE
  2
LTYPE
 70
     9
  0
LTYPE
  2
CONTINUOUS
 70
    64
  3
Solid line
 72
    65
 73
     0
 40
0.000000
  0
LTYPE
  2
DASHED
 70
    64
  3
__ __ __ __ __ __ __ __ __ __ __ __ __ __ __
 72
    65
 73
     2
 40
0.000330
 49
0.000220
 49
-0.000110
  0
LTYPE
  2
HIDDEN
 70
    64
  3
 _ _ _ _ _ _ _ _ _ _ _ _ _ _ _ _ _ _ _ _ _ _
 72
    65
 73
     2
 40
0.000165
 49
0.000110
 49
-0.000055
  0
LTYPE
  2
CENTER
 70
    64
  3
____ _ ____ _ ____ _ ____ _ ____ _ ____ _ ____
 72
    65
 73
     4
 40
0.000880
 49
0.000550
 49
-0.000110
 49
0.000110
 49
-0.000110
  0
LTYPE
  2
PHANTOM
 70
    64
  3
_____ _ _ _____ _ _ _____ _ _ _____ _ _ ____
 72
    65
 73
     6
 40
0.001100
 49
0.000550
 49
-0.000110
 49
0.000110
 49
-0.000110
 49
0.000110
 49
-0.000110
  0
LTYPE
  2
DOT
 70
    64
  3
...............................................
 72
    65
 73
     2
 40
0.000110
 49
0.000000
 49
-0.000110
  0
LTYPE
  2
DASHDOT
 70
    64
  3
__ . __ . __ . __ . __ . __ . __ . __ . __ . __
 72
    65
 73
     4
 40
0.000440
 49
0.000220
 49
-0.000110
 49
0.000000
 49
-0.000110
  0
LTYPE
  2
BORDER
 70
    64
  3
__ __ . __ __ . __ __ . __ __ . __ __ . __ __
 72
    65
 73
     6
 40
0.000770
 49
0.000220
 49
-0.000110
 49
0.000220
 49
-0.000110
 49
0.000000
 49
-0.000110
  0
LTYPE
  2
DIVIDE
 70
    64
  3
__ . . __ . . __ . . __ . . __ . . __ . . __
 72
    65
 73
     6
 40
0.000550
 49
0.000220
 49
-0.000110
 49
0.000000
 49
-0.000110
 49
0.000000
 49
-0.000110
  0
LTYPE
  2
DOTDOT
 70
    64
  3
 . .  . .  . .  . .  . .  . . 
 72
    65
 73
     5
 40
0.000242
 49
-0.000110
 49
0.000000
 49
-0.000110
 49
0.000000
 49
-0.000110
  0
ENDTAB
  0
TABLE
  2
STYLE
 70
     2
  0
STYLE
 70
     0
  2
SN0
 40
0.000000
 41
0.000440
 50
0.000000
 71
     0
 42
0.000000
  3
ROMAND
  0
STYLE
 70
    68
  2
SV0
 40
0.000000
 41
0.000440
 50
0.000000
 71
     0
 42
0.000000
  3
ROMAND
  0
ENDTAB
  0
TABLE
  2
LAYER
 70
     3
  0
LAYER
  2
FOREGROUND
 70
    64
 62
     7
  6
CONTINUOUS
  0
LAYER
  2
BACKGROUND
 70
    65
 62
    -7
  6
CONTINUOUS
  0
LAYER
  2
0
 70
    64
 62
     7
  6
CONTINUOUS
  0
ENDTAB
  0
ENDSEC
  0
SECTION
  2
ENTITIES
  0
POLYLINE
  8
FOREGROUND
  6
CONTINUOUS
 66
     1
 40
0.000000
 41
0.000000
  0
VERTEX
  8
FOREGROUND
  6
CONTINUOUS
 10
0.000000
 20
4.562360
  0
VERTEX
  8
FOREGROUND
  6
CONTINUOUS
 10
8.499920
 20
4.562360
  0
VERTEX
  8
FOREGROUND
  6
CONTINUOUS
 10
8.499920
 20
-6.437640
  0
VERTEX
  8
FOREGROUND
  6
CONTINUOUS
 10
0.000000
 20
-6.437640
  0
VERTEX
  8
FOREGROUND
  6
CONTINUOUS
 10
0.000000
 20
4.562360
  0
SEQEND
  8
0
  0
POLYLINE
  8
FOREGROUND
  6
CONTINUOUS
 66
     1
 40
0.000000
 41
0.000000
  0
VERTEX
  8
FOREGROUND
  6
CONTINUOUS
 10
0.000000
 20
4.562360
  0
VERTEX
  8
FOREGROUND
  6
CONTINUOUS
 10
8.499920
 20
4.562360
  0
VERTEX
  8
FOREGROUND
  6
CONTINUOUS
 10
8.499920
 20
-6.437640
  0
VERTEX
  8
FOREGROUND
  6
CONTINUOUS
 10
0.000000
 20
-6.437640
  0
VERTEX
  8
FOREGROUND
  6
CONTINUOUS
 10
0.000000
 20
4.562360
  0
SEQEND
  8
0
  0
POLYLINE
  8
0
  6
CONTINUOUS
 66
     1
 40
0.014080
 41
0.014080
  0
VERTEX
  8
0
  6
CONTINUOUS
 10
4.438720
 20
4.113560
  0
VERTEX
  8
0
  6
CONTINUOUS
 10
4.447080
 20
4.046680
  0
VERTEX
  8
0
  6
CONTINUOUS
 10
4.543000
 20
4.017640
  0
VERTEX
  8
0
  6
CONTINUOUS
 10
4.555320
 20
3.909400
  0
VERTEX
  8
0
  6
CONTINUOUS
 10
4.613840
 20
3.909400
  0
VERTEX
  8
0
  6
CONTINUOUS
 10
4.649040
 20
3.959560
  0
VERTEX
  8
0
  6
CONTINUOUS
 10
4.686440
 20
3.999600
  0
VERTEX
  8
0
  6
CONTINUOUS
 10
4.712840
 20
4.020280
  0
VERTEX
  8
0
  6
CONTINUOUS
 10
4.739680
 20
4.036560
  0
VERTEX
  8
0
  6
CONTINUOUS
 10
4.767840
 20
4.048000
  0
VERTEX
  8
0
  6
CONTINUOUS
 10
4.796440
 20
4.054600
  0
VERTEX
  8
0
  6
CONTINUOUS
 10
4.825480
 20
4.056360
  0
VERTEX
  8
0
  6
CONTINUOUS
 10
4.840440
 20
4.055480
  0
VERTEX
  8
0
  6
CONTINUOUS
 10
4.870360
 20
4.049320
  0
VERTEX
  8
0
  6
CONTINUOUS
 10
4.900720
 20
4.038760
  0
VERTEX
  8
0
  6
CONTINUOUS
 10
4.946920
 20
4.012800
  0
VERTEX
  8
0
  6
CONTINUOUS
 10
4.993560
 20
3.974960
  0
VERTEX
  8
0
  6
CONTINUOUS
 10
5.024800
 20
3.942840
  0
VERTEX
  8
0
  6
CONTINUOUS
 10
5.056040
 20
3.905440
  0
VERTEX
  8
0
  6
CONTINUOUS
 10
5.122480
 20
3.819640
  0
VERTEX
  8
0
  6
CONTINUOUS
 10
5.160760
 20
3.776520
  0
VERTEX
  8
0
  6
CONTINUOUS
 10
5.225440
 20
3.713600
  0
VERTEX
  8
0
  6
CONTINUOUS
 10
5.273400
 20
3.673560
  0
VERTEX
  8
0
  6
CONTINUOUS
 10
5.325320
 20
3.636600
  0
VERTEX
  8
0
  6
CONTINUOUS
 10
5.380760
 20
3.602720
  0
VERTEX
  8
0
  6
CONTINUOUS
 10
5.440160
 20
3.572360
  0
VERTEX
  8
0
  6
CONTINUOUS
 10
5.503960
 20
3.546840
  0
VERTEX
  8
0
  6
CONTINUOUS
 10
5.571280
 20
3.526600
  0
VERTEX
  8
0
  6
CONTINUOUS
 10
5.606920
 20
3.518680
  0
VERTEX
  8
0
  6
CONTINUOUS
 10
5.680400
 20
3.507680
  0
VERTEX
  8
0
  6
CONTINUOUS
 10
5.719120
 20
3.504600
  0
VERTEX
  8
0
  6
CONTINUOUS
 10
5.758280
 20
3.503720
  0
VERTEX
  8
0
  6
CONTINUOUS
 10
5.799200
 20
3.504160
  0
VERTEX
  8
0
  6
CONTINUOUS
 10
5.840560
 20
3.506800
  0
VERTEX
  8
0
  6
CONTINUOUS
 10
5.883240
 20
3.511640
  0
VERTEX
  8
0
  6
CONTINUOUS
 10
5.949240
 20
3.523080
  0
VERTEX
  8
0
  6
CONTINUOUS
 10
6.017880
 20
3.539360
  0
VERTEX
  8
0
  6
CONTINUOUS
 10
6.064960
 20
3.553440
  0
VERTEX
  8
0
  6
CONTINUOUS
 10
6.086960
 20
3.480840
  0
VERTEX
  8
0
  6
CONTINUOUS
 10
6.098400
 20
3.453120
  0
VERTEX
  8
0
  6
CONTINUOUS
 10
6.102360
 20
3.449600
  0
VERTEX
  8
0
  6
CONTINUOUS
 10
6.327200
 20
3.449600
  0
VERTEX
  8
0
  6
CONTINUOUS
 10
6.347880
 20
3.374800
  0
VERTEX
  8
0
  6
CONTINUOUS
 10
7.346680
 20
3.374800
  0
VERTEX
  8
0
  6
CONTINUOUS
 10
7.351520
 20
3.356320
  0
VERTEX
  8
0
  6
CONTINUOUS
 10
7.364720
 20
3.325080
  0
VERTEX
  8
0
  6
CONTINUOUS
 10
7.381440
 20
3.300880
  0
VERTEX
  8
0
  6
CONTINUOUS
 10
7.400800
 20
3.282840
  0
VERTEX
  8
0
  6
CONTINUOUS
 10
7.422800
 20
3.269640
  0
VERTEX
  8
0
  6
CONTINUOUS
 10
7.446560
 20
3.260840
  0
VERTEX
  8
0
  6
CONTINUOUS
 10
7.483960
 20
3.252480
  0
VERTEX
  8
0
  6
CONTINUOUS
 10
7.523120
 20
3.246760
  0
VERTEX
  8
0
  6
CONTINUOUS
 10
7.550400
 20
3.238840
  0
VERTEX
  8
0
  6
CONTINUOUS
 10
7.578120
 20
3.226520
  0
VERTEX
  8
0
  6
CONTINUOUS
 10
7.604080
 20
3.209360
  0
VERTEX
  8
0
  6
CONTINUOUS
 10
7.627400
 20
3.188240
  0
VERTEX
  8
0
  6
CONTINUOUS
 10
7.646760
 20
3.163160
  0
VERTEX
  8
0
  6
CONTINUOUS
 10
7.654240
 20
3.149080
  0
VERTEX
  8
0
  6
CONTINUOUS
 10
7.664360
 20
3.118720
  0
VERTEX
  8
0
  6
CONTINUOUS
 10
7.666560
 20
3.102000
  0
VERTEX
  8
0
  6
CONTINUOUS
 10
7.666560
 20
3.084400
  0
VERTEX
  8
0
  6
CONTINUOUS
 10
3.856600
 20
3.084400
  0
VERTEX
  8
0
  6
CONTINUOUS
 10
3.856600
 20
4.161080
  0
VERTEX
  8
0
  6
CONTINUOUS
 10
4.438720
 20
4.113560
  0
SEQEND
  8
0
  0
SOLID
  8
0
 62
    15
 10
5.793920
 20
1.303720
 11
5.799200
 21
2.038080
 12
5.877960
 22
1.311640
 13
5.883680
 23
2.046000
  0
POLYLINE
  8
0
  6
CONTINUOUS
 66
     1
 40
0.000000
 41
0.000000
  0
VERTEX
  8
0
  6
CONTINUOUS
 10
5.793920
 20
1.303720
  0
VERTEX
  8
0
  6
CONTINUOUS
 10
5.799200
 20
2.038080
  0
VERTEX
  8
0
  6
CONTINUOUS
 10
5.883680
 20
2.046000
  0
VERTEX
  8
0
  6
CONTINUOUS
 10
5.877960
 20
1.311640
  0
VERTEX
  8
0
  6
CONTINUOUS
 10
5.793920
 20
1.303720
  0
SEQEND
  8
0
  0
SOLID
  8
0
 62
    15
 10
4.442240
 20
1.846680
 11
4.447520
 21
2.581040
 12
4.537720
 22
1.817200
 13
4.543440
 23
2.551560
  0
POLYLINE
  8
0
  6
CONTINUOUS
 66
     1
 40
0.000000
 41
0.000000
  0
VERTEX
  8
0
  6
CONTINUOUS
 10
4.442240
 20
1.846680
  0
VERTEX
  8
0
  6
CONTINUOUS
 10
4.447520
 20
2.581040
  0
VERTEX
  8
0
  6
CONTINUOUS
 10
4.543440
 20
2.551560
  0
VERTEX
  8
0
  6
CONTINUOUS
 10
4.537720
 20
1.817200
  0
VERTEX
  8
0
  6
CONTINUOUS
 10
4.442240
 20
1.846680
  0
SEQEND
  8
0
  0
SOLID
  8
0
 62
    15
 10
4.537720
 20
1.817200
 11
4.543440
 21
2.551560
 12
4.550480
 22
1.708960
 13
4.555760
 23
2.443320
  0
POLYLINE
  8
0
  6
CONTINUOUS
 66
     1
 40
0.000000
 41
0.000000
  0
VERTEX
  8
0
  6
CONTINUOUS
 10
4.537720
 20
1.817200
  0
VERTEX
  8
0
  6
CONTINUOUS
 10
4.543440
 20
2.551560
  0
VERTEX
  8
0
  6
CONTINUOUS
 10
4.555760
 20
2.443320
  0
VERTEX
  8
0
  6
CONTINUOUS
 10
4.550480
 20
1.708960
  0
VERTEX
  8
0
  6
CONTINUOUS
 10
4.537720
 20
1.817200
  0
SEQEND
  8
0
  0
SOLID
  8
0
 62
    15
 10
4.550480
 20
1.708960
 11
4.555760
 21
2.443320
 12
4.608560
 22
1.708960
 13
4.613840
 23
2.443320
  0
POLYLINE
  8
0
  6
CONTINUOUS
 66
     1
 40
0.000000
 41
0.000000
  0
VERTEX
  8
0
  6
CONTINUOUS
 10
4.550480
 20
1.708960
  0
VERTEX
  8
0
  6
CONTINUOUS
 10
4.555760
 20
2.443320
  0
VERTEX
  8
0
  6
CONTINUOUS
 10
4.613840
 20
2.443320
  0
VERTEX
  8
0
  6
CONTINUOUS
 10
4.608560
 20
1.708960
  0
VERTEX
  8
0
  6
CONTINUOUS
 10
4.550480
 20
1.708960
  0
SEQEND
  8
0
  0
SOLID
  8
0
 62
    15
 10
4.608560
 20
1.708960
 11
4.613840
 21
2.443320
 12
4.656080
 22
1.773640
 13
4.661360
 23
2.508000
  0
POLYLINE
  8
0
  6
CONTINUOUS
 66
     1
 40
0.000000
 41
0.000000
  0
VERTEX
  8
0
  6
CONTINUOUS
 10
4.608560
 20
1.708960
  0
VERTEX
  8
0
  6
CONTINUOUS
 10
4.613840
 20
2.443320
  0
VERTEX
  8
0
  6
CONTINUOUS
 10
4.661360
 20
2.508000
  0
VERTEX
  8
0
  6
CONTINUOUS
 10
4.656080
 20
1.773640
  0
VERTEX
  8
0
  6
CONTINUOUS
 10
4.608560
 20
1.708960
  0
SEQEND
  8
0
  0
SOLID
  8
0
 62
    15
 10
4.656080
 20
1.773640
 11
4.661360
 21
2.508000
 12
4.707560
 22
1.819840
 13
4.713280
 23
2.554200
  0
POLYLINE
  8
0
  6
CONTINUOUS
 66
     1
 40
0.000000
 41
0.000000
  0
VERTEX
  8
0
  6
CONTINUOUS
 10
4.656080
 20
1.773640
  0
VERTEX
  8
0
  6
CONTINUOUS
 10
4.661360
 20
2.508000
  0
VERTEX
  8
0
  6
CONTINUOUS
 10
4.713280
 20
2.554200
  0
VERTEX
  8
0
  6
CONTINUOUS
 10
4.707560
 20
1.819840
  0
VERTEX
  8
0
  6
CONTINUOUS
 10
4.656080
 20
1.773640
  0
SEQEND
  8
0
  0
SOLID
  8
0
 62
    15
 10
4.707560
 20
1.819840
 11
4.713280
 21
2.554200
 12
4.762560
 22
1.847560
 13
4.767840
 23
2.581920
  0
POLYLINE
  8
0
  6
CONTINUOUS
 66
     1
 40
0.000000
 41
0.000000
  0
VERTEX
  8
0
  6
CONTINUOUS
 10
4.707560
 20
1.819840
  0
VERTEX
  8
0
  6
CONTINUOUS
 10
4.713280
 20
2.554200
  0
VERTEX
  8
0
  6
CONTINUOUS
 10
4.767840
 20
2.581920
  0
VERTEX
  8
0
  6
CONTINUOUS
 10
4.762560
 20
1.847560
  0
VERTEX
  8
0
  6
CONTINUOUS
 10
4.707560
 20
1.819840
  0
SEQEND
  8
0
  0
SOLID
  8
0
 62
    15
 10
4.762560
 20
1.847560
 11
4.767840
 21
2.581920
 12
4.820200
 22
1.855920
 13
4.825920
 23
2.590280
  0
POLYLINE
  8
0
  6
CONTINUOUS
 66
     1
 40
0.000000
 41
0.000000
  0
VERTEX
  8
0
  6
CONTINUOUS
 10
4.762560
 20
1.847560
  0
VERTEX
  8
0
  6
CONTINUOUS
 10
4.767840
 20
2.581920
  0
VERTEX
  8
0
  6
CONTINUOUS
 10
4.825920
 20
2.590280
  0
VERTEX
  8
0
  6
CONTINUOUS
 10
4.820200
 20
1.855920
  0
VERTEX
  8
0
  6
CONTINUOUS
 10
4.762560
 20
1.847560
  0
SEQEND
  8
0
  0
SOLID
  8
0
 62
    15
 10
4.820200
 20
1.855920
 11
4.825920
 21
2.590280
 12
4.880040
 22
1.844480
 13
4.885760
 23
2.578400
  0
POLYLINE
  8
0
  6
CONTINUOUS
 66
     1
 40
0.000000
 41
0.000000
  0
VERTEX
  8
0
  6
CONTINUOUS
 10
4.820200
 20
1.855920
  0
VERTEX
  8
0
  6
CONTINUOUS
 10
4.825920
 20
2.590280
  0
VERTEX
  8
0
  6
CONTINUOUS
 10
4.885760
 20
2.578400
  0
VERTEX
  8
0
  6
CONTINUOUS
 10
4.880040
 20
1.844480
  0
VERTEX
  8
0
  6
CONTINUOUS
 10
4.820200
 20
1.855920
  0
SEQEND
  8
0
  0
SOLID
  8
0
 62
    15
 10
4.880040
 20
1.844480
 11
4.885760
 21
2.578400
 12
4.941640
 22
1.812360
 13
4.946920
 23
2.546280
  0
POLYLINE
  8
0
  6
CONTINUOUS
 66
     1
 40
0.000000
 41
0.000000
  0
VERTEX
  8
0
  6
CONTINUOUS
 10
4.880040
 20
1.844480
  0
VERTEX
  8
0
  6
CONTINUOUS
 10
4.885760
 20
2.578400
  0
VERTEX
  8
0
  6
CONTINUOUS
 10
4.946920
 20
2.546280
  0
VERTEX
  8
0
  6
CONTINUOUS
 10
4.941640
 20
1.812360
  0
VERTEX
  8
0
  6
CONTINUOUS
 10
4.880040
 20
1.844480
  0
SEQEND
  8
0
  0
SOLID
  8
0
 62
    15
 10
4.941640
 20
1.812360
 11
4.946920
 21
2.546280
 12
4.972880
 22
1.788160
 13
4.978160
 23
2.522520
  0
POLYLINE
  8
0
  6
CONTINUOUS
 66
     1
 40
0.000000
 41
0.000000
  0
VERTEX
  8
0
  6
CONTINUOUS
 10
4.941640
 20
1.812360
  0
VERTEX
  8
0
  6
CONTINUOUS
 10
4.946920
 20
2.546280
  0
VERTEX
  8
0
  6
CONTINUOUS
 10
4.978160
 20
2.522520
  0
VERTEX
  8
0
  6
CONTINUOUS
 10
4.972880
 20
1.788160
  0
VERTEX
  8
0
  6
CONTINUOUS
 10
4.941640
 20
1.812360
  0
SEQEND
  8
0
  0
SOLID
  8
0
 62
    15
 10
4.972880
 20
1.788160
 11
4.978160
 21
2.522520
 12
5.003680
 22
1.759120
 13
5.009400
 23
2.493480
  0
POLYLINE
  8
0
  6
CONTINUOUS
 66
     1
 40
0.000000
 41
0.000000
  0
VERTEX
  8
0
  6
CONTINUOUS
 10
4.972880
 20
1.788160
  0
VERTEX
  8
0
  6
CONTINUOUS
 10
4.978160
 20
2.522520
  0
VERTEX
  8
0
  6
CONTINUOUS
 10
5.009400
 20
2.493480
  0
VERTEX
  8
0
  6
CONTINUOUS
 10
5.003680
 20
1.759120
  0
VERTEX
  8
0
  6
CONTINUOUS
 10
4.972880
 20
1.788160
  0
SEQEND
  8
0
  0
SOLID
  8
0
 62
    15
 10
5.003680
 20
1.759120
 11
5.009400
 21
2.493480
 12
5.035360
 22
1.724360
 13
5.040640
 23
2.458720
  0
POLYLINE
  8
0
  6
CONTINUOUS
 66
     1
 40
0.000000
 41
0.000000
  0
VERTEX
  8
0
  6
CONTINUOUS
 10
5.003680
 20
1.759120
  0
VERTEX
  8
0
  6
CONTINUOUS
 10
5.009400
 20
2.493480
  0
VERTEX
  8
0
  6
CONTINUOUS
 10
5.040640
 20
2.458720
  0
VERTEX
  8
0
  6
CONTINUOUS
 10
5.035360
 20
1.724360
  0
VERTEX
  8
0
  6
CONTINUOUS
 10
5.003680
 20
1.759120
  0
SEQEND
  8
0
  0
SOLID
  8
0
 62
    15
 10
5.035360
 20
1.724360
 11
5.040640
 21
2.458720
 12
5.066600
 22
1.684320
 13
5.071880
 23
2.418680
  0
POLYLINE
  8
0
  6
CONTINUOUS
 66
     1
 40
0.000000
 41
0.000000
  0
VERTEX
  8
0
  6
CONTINUOUS
 10
5.035360
 20
1.724360
  0
VERTEX
  8
0
  6
CONTINUOUS
 10
5.040640
 20
2.458720
  0
VERTEX
  8
0
  6
CONTINUOUS
 10
5.071880
 20
2.418680
  0
VERTEX
  8
0
  6
CONTINUOUS
 10
5.066600
 20
1.684320
  0
VERTEX
  8
0
  6
CONTINUOUS
 10
5.035360
 20
1.724360
  0
SEQEND
  8
0
  0
SOLID
  8
0
 62
    15
 10
5.066600
 20
1.684320
 11
5.071880
 21
2.418680
 12
5.136120
 22
1.597640
 13
5.141400
 23
2.332000
  0
POLYLINE
  8
0
  6
CONTINUOUS
 66
     1
 40
0.000000
 41
0.000000
  0
VERTEX
  8
0
  6
CONTINUOUS
 10
5.066600
 20
1.684320
  0
VERTEX
  8
0
  6
CONTINUOUS
 10
5.071880
 20
2.418680
  0
VERTEX
  8
0
  6
CONTINUOUS
 10
5.141400
 20
2.332000
  0
VERTEX
  8
0
  6
CONTINUOUS
 10
5.136120
 20
1.597640
  0
VERTEX
  8
0
  6
CONTINUOUS
 10
5.066600
 20
1.684320
  0
SEQEND
  8
0
  0
SOLID
  8
0
 62
    15
 10
5.136120
 20
1.597640
 11
5.141400
 21
2.332000
 12
5.220600
 22
1.513160
 13
5.225880
 23
2.247520
  0
POLYLINE
  8
0
  6
CONTINUOUS
 66
     1
 40
0.000000
 41
0.000000
  0
VERTEX
  8
0
  6
CONTINUOUS
 10
5.136120
 20
1.597640
  0
VERTEX
  8
0
  6
CONTINUOUS
 10
5.141400
 20
2.332000
  0
VERTEX
  8
0
  6
CONTINUOUS
 10
5.225880
 20
2.247520
  0
VERTEX
  8
0
  6
CONTINUOUS
 10
5.220600
 20
1.513160
  0
VERTEX
  8
0
  6
CONTINUOUS
 10
5.136120
 20
1.597640
  0
SEQEND
  8
0
  0
SOLID
  8
0
 62
    15
 10
5.220600
 20
1.513160
 11
5.225880
 21
2.247520
 12
5.320040
 22
1.436160
 13
5.325320
 23
2.170520
  0
POLYLINE
  8
0
  6
CONTINUOUS
 66
     1
 40
0.000000
 41
0.000000
  0
VERTEX
  8
0
  6
CONTINUOUS
 10
5.220600
 20
1.513160
  0
VERTEX
  8
0
  6
CONTINUOUS
 10
5.225880
 20
2.247520
  0
VERTEX
  8
0
  6
CONTINUOUS
 10
5.325320
 20
2.170520
  0
VERTEX
  8
0
  6
CONTINUOUS
 10
5.320040
 20
1.436160
  0
VERTEX
  8
0
  6
CONTINUOUS
 10
5.220600
 20
1.513160
  0
SEQEND
  8
0
  0
SOLID
  8
0
 62
    15
 10
5.320040
 20
1.436160
 11
5.325320
 21
2.170520
 12
5.375480
 22
1.402280
 13
5.381200
 23
2.136200
  0
POLYLINE
  8
0
  6
CONTINUOUS
 66
     1
 40
0.000000
 41
0.000000
  0
VERTEX
  8
0
  6
CONTINUOUS
 10
5.320040
 20
1.436160
  0
VERTEX
  8
0
  6
CONTINUOUS
 10
5.325320
 20
2.170520
  0
VERTEX
  8
0
  6
CONTINUOUS
 10
5.381200
 20
2.136200
  0
VERTEX
  8
0
  6
CONTINUOUS
 10
5.375480
 20
1.402280
  0
VERTEX
  8
0
  6
CONTINUOUS
 10
5.320040
 20
1.436160
  0
SEQEND
  8
0
  0
SOLID
  8
0
 62
    15
 10
5.375480
 20
1.402280
 11
5.381200
 21
2.136200
 12
5.434880
 22
1.371920
 13
5.440600
 23
2.106280
  0
POLYLINE
  8
0
  6
CONTINUOUS
 66
     1
 40
0.000000
 41
0.000000
  0
VERTEX
  8
0
  6
CONTINUOUS
 10
5.375480
 20
1.402280
  0
VERTEX
  8
0
  6
CONTINUOUS
 10
5.381200
 20
2.136200
  0
VERTEX
  8
0
  6
CONTINUOUS
 10
5.440600
 20
2.106280
  0
VERTEX
  8
0
  6
CONTINUOUS
 10
5.434880
 20
1.371920
  0
VERTEX
  8
0
  6
CONTINUOUS
 10
5.375480
 20
1.402280
  0
SEQEND
  8
0
  0
SOLID
  8
0
 62
    15
 10
5.434880
 20
1.371920
 11
5.440600
 21
2.106280
 12
5.498680
 22
1.346400
 13
5.503960
 23
2.080760
  0
POLYLINE
  8
0
  6
CONTINUOUS
 66
     1
 40
0.000000
 41
0.000000
  0
VERTEX
  8
0
  6
CONTINUOUS
 10
5.434880
 20
1.371920
  0
VERTEX
  8
0
  6
CONTINUOUS
 10
5.440600
 20
2.106280
  0
VERTEX
  8
0
  6
CONTINUOUS
 10
5.503960
 20
2.080760
  0
VERTEX
  8
0
  6
CONTINUOUS
 10
5.498680
 20
1.346400
  0
VERTEX
  8
0
  6
CONTINUOUS
 10
5.434880
 20
1.371920
  0
SEQEND
  8
0
  0
SOLID
  8
0
 62
    15
 10
5.498680
 20
1.346400
 11
5.503960
 21
2.080760
 12
5.566000
 22
1.326160
 13
5.571720
 23
2.060520
  0
POLYLINE
  8
0
  6
CONTINUOUS
 66
     1
 40
0.000000
 41
0.000000
  0
VERTEX
  8
0
  6
CONTINUOUS
 10
5.498680
 20
1.346400
  0
VERTEX
  8
0
  6
CONTINUOUS
 10
5.503960
 20
2.080760
  0
VERTEX
  8
0
  6
CONTINUOUS
 10
5.571720
 20
2.060520
  0
VERTEX
  8
0
  6
CONTINUOUS
 10
5.566000
 20
1.326160
  0
VERTEX
  8
0
  6
CONTINUOUS
 10
5.498680
 20
1.346400
  0
SEQEND
  8
0
  0
SOLID
  8
0
 62
    15
 10
5.566000
 20
1.326160
 11
5.571720
 21
2.060520
 12
5.637720
 22
1.312080
 13
5.643440
 23
2.046440
  0
POLYLINE
  8
0
  6
CONTINUOUS
 66
     1
 40
0.000000
 41
0.000000
  0
VERTEX
  8
0
  6
CONTINUOUS
 10
5.566000
 20
1.326160
  0
VERTEX
  8
0
  6
CONTINUOUS
 10
5.571720
 20
2.060520
  0
VERTEX
  8
0
  6
CONTINUOUS
 10
5.643440
 20
2.046440
  0
VERTEX
  8
0
  6
CONTINUOUS
 10
5.637720
 20
1.312080
  0
VERTEX
  8
0
  6
CONTINUOUS
 10
5.566000
 20
1.326160
  0
SEQEND
  8
0
  0
SOLID
  8
0
 62
    15
 10
5.637720
 20
1.312080
 11
5.643440
 21
2.046440
 12
5.713840
 22
1.304160
 13
5.719120
 23
2.038520
  0
POLYLINE
  8
0
  6
CONTINUOUS
 66
     1
 40
0.000000
 41
0.000000
  0
VERTEX
  8
0
  6
CONTINUOUS
 10
5.637720
 20
1.312080
  0
VERTEX
  8
0
  6
CONTINUOUS
 10
5.643440
 20
2.046440
  0
VERTEX
  8
0
  6
CONTINUOUS
 10
5.719120
 20
2.038520
  0
VERTEX
  8
0
  6
CONTINUOUS
 10
5.713840
 20
1.304160
  0
VERTEX
  8
0
  6
CONTINUOUS
 10
5.637720
 20
1.312080
  0
SEQEND
  8
0
  0
SOLID
  8
0
 62
    15
 10
5.713840
 20
1.304160
 11
5.719120
 21
2.038520
 12
5.793920
 22
1.303720
 13
5.799200
 23
2.038080
  0
POLYLINE
  8
0
  6
CONTINUOUS
 66
     1
 40
0.000000
 41
0.000000
  0
VERTEX
  8
0
  6
CONTINUOUS
 10
5.713840
 20
1.304160
  0
VERTEX
  8
0
  6
CONTINUOUS
 10
5.719120
 20
2.038520
  0
VERTEX
  8
0
  6
CONTINUOUS
 10
5.799200
 20
2.038080
  0
VERTEX
  8
0
  6
CONTINUOUS
 10
5.793920
 20
1.303720
  0
VERTEX
  8
0
  6
CONTINUOUS
 10
5.713840
 20
1.304160
  0
SEQEND
  8
0
  0
SOLID
  8
0
 62
    15
 10
4.433880
 20
1.913120
 11
4.439160
 21
2.647480
 12
4.442240
 22
1.846680
 13
4.447520
 23
2.581040
  0
POLYLINE
  8
0
  6
CONTINUOUS
 66
     1
 40
0.000000
 41
0.000000
  0
VERTEX
  8
0
  6
CONTINUOUS
 10
4.433880
 20
1.913120
  0
VERTEX
  8
0
  6
CONTINUOUS
 10
4.439160
 20
2.647480
  0
VERTEX
  8
0
  6
CONTINUOUS
 10
4.447520
 20
2.581040
  0
VERTEX
  8
0
  6
CONTINUOUS
 10
4.442240
 20
1.846680
  0
VERTEX
  8
0
  6
CONTINUOUS
 10
4.433880
 20
1.913120
  0
SEQEND
  8
0
  0
SOLID
  8
0
 62
    15
 10
5.877960
 20
1.311640
 11
5.883680
 21
2.046000
 12
5.966840
 22
1.327920
 13
5.972120
 23
2.061840
  0
POLYLINE
  8
0
  6
CONTINUOUS
 66
     1
 40
0.000000
 41
0.000000
  0
VERTEX
  8
0
  6
CONTINUOUS
 10
5.877960
 20
1.311640
  0
VERTEX
  8
0
  6
CONTINUOUS
 10
5.883680
 20
2.046000
  0
VERTEX
  8
0
  6
CONTINUOUS
 10
5.972120
 20
2.061840
  0
VERTEX
  8
0
  6
CONTINUOUS
 10
5.966840
 20
1.327920
  0
VERTEX
  8
0
  6
CONTINUOUS
 10
5.877960
 20
1.311640
  0
SEQEND
  8
0
  0
SOLID
  8
0
 62
    15
 10
5.966840
 20
1.327920
 11
5.972120
 21
2.061840
 12
6.059680
 22
1.353440
 13
6.064960
 23
2.087800
  0
POLYLINE
  8
0
  6
CONTINUOUS
 66
     1
 40
0.000000
 41
0.000000
  0
VERTEX
  8
0
  6
CONTINUOUS
 10
5.966840
 20
1.327920
  0
VERTEX
  8
0
  6
CONTINUOUS
 10
5.972120
 20
2.061840
  0
VERTEX
  8
0
  6
CONTINUOUS
 10
6.064960
 20
2.087800
  0
VERTEX
  8
0
  6
CONTINUOUS
 10
6.059680
 20
1.353440
  0
VERTEX
  8
0
  6
CONTINUOUS
 10
5.966840
 20
1.327920
  0
SEQEND
  8
0
  0
SOLID
  8
0
 62
    15
 10
6.059680
 20
1.353440
 11
6.064960
 21
2.087800
 12
6.064520
 22
1.336280
 13
6.069800
 23
2.070640
  0
POLYLINE
  8
0
  6
CONTINUOUS
 66
     1
 40
0.000000
 41
0.000000
  0
VERTEX
  8
0
  6
CONTINUOUS
 10
6.059680
 20
1.353440
  0
VERTEX
  8
0
  6
CONTINUOUS
 10
6.064960
 20
2.087800
  0
VERTEX
  8
0
  6
CONTINUOUS
 10
6.069800
 20
2.070640
  0
VERTEX
  8
0
  6
CONTINUOUS
 10
6.064520
 20
1.336280
  0
VERTEX
  8
0
  6
CONTINUOUS
 10
6.059680
 20
1.353440
  0
SEQEND
  8
0
  0
SOLID
  8
0
 62
    15
 10
6.064520
 20
1.336280
 11
6.069800
 21
2.070640
 12
6.075080
 22
1.299760
 13
6.080800
 23
2.034120
  0
POLYLINE
  8
0
  6
CONTINUOUS
 66
     1
 40
0.000000
 41
0.000000
  0
VERTEX
  8
0
  6
CONTINUOUS
 10
6.064520
 20
1.336280
  0
VERTEX
  8
0
  6
CONTINUOUS
 10
6.069800
 20
2.070640
  0
VERTEX
  8
0
  6
CONTINUOUS
 10
6.080800
 20
2.034120
  0
VERTEX
  8
0
  6
CONTINUOUS
 10
6.075080
 20
1.299760
  0
VERTEX
  8
0
  6
CONTINUOUS
 10
6.064520
 20
1.336280
  0
SEQEND
  8
0
  0
SOLID
  8
0
 62
    15
 10
6.075080
 20
1.299760
 11
6.080800
 21
2.034120
 12
6.087840
 22
1.263680
 13
6.093120
 23
1.998040
  0
POLYLINE
  8
0
  6
CONTINUOUS
 66
     1
 40
0.000000
 41
0.000000
  0
VERTEX
  8
0
  6
CONTINUOUS
 10
6.075080
 20
1.299760
  0
VERTEX
  8
0
  6
CONTINUOUS
 10
6.080800
 20
2.034120
  0
VERTEX
  8
0
  6
CONTINUOUS
 10
6.093120
 20
1.998040
  0
VERTEX
  8
0
  6
CONTINUOUS
 10
6.087840
 20
1.263680
  0
VERTEX
  8
0
  6
CONTINUOUS
 10
6.075080
 20
1.299760
  0
SEQEND
  8
0
  0
SOLID
  8
0
 62
    15
 10
6.087840
 20
1.263680
 11
6.093120
 21
1.998040
 12
6.093120
 22
1.252680
 13
6.098840
 23
1.986600
  0
POLYLINE
  8
0
  6
CONTINUOUS
 66
     1
 40
0.000000
 41
0.000000
  0
VERTEX
  8
0
  6
CONTINUOUS
 10
6.087840
 20
1.263680
  0
VERTEX
  8
0
  6
CONTINUOUS
 10
6.093120
 20
1.998040
  0
VERTEX
  8
0
  6
CONTINUOUS
 10
6.098840
 20
1.986600
  0
VERTEX
  8
0
  6
CONTINUOUS
 10
6.093120
 20
1.252680
  0
VERTEX
  8
0
  6
CONTINUOUS
 10
6.087840
 20
1.263680
  0
SEQEND
  8
0
  0
SOLID
  8
0
 62
    15
 10
6.093120
 20
1.252680
 11
6.098840
 21
1.986600
 12
6.097080
 22
1.249160
 13
6.102800
 23
1.983520
  0
POLYLINE
  8
0
  6
CONTINUOUS
 66
     1
 40
0.000000
 41
0.000000
  0
VERTEX
  8
0
  6
CONTINUOUS
 10
6.093120
 20
1.252680
  0
VERTEX
  8
0
  6
CONTINUOUS
 10
6.098840
 20
1.986600
  0
VERTEX
  8
0
  6
CONTINUOUS
 10
6.102800
 20
1.983520
  0
VERTEX
  8
0
  6
CONTINUOUS
 10
6.097080
 20
1.249160
  0
VERTEX
  8
0
  6
CONTINUOUS
 10
6.093120
 20
1.252680
  0
SEQEND
  8
0
  0
SOLID
  8
0
 62
    15
 10
6.097080
 20
1.249160
 11
6.102800
 21
1.983520
 12
6.321920
 22
1.249160
 13
6.327200
 23
1.983520
  0
POLYLINE
  8
0
  6
CONTINUOUS
 66
     1
 40
0.000000
 41
0.000000
  0
VERTEX
  8
0
  6
CONTINUOUS
 10
6.097080
 20
1.249160
  0
VERTEX
  8
0
  6
CONTINUOUS
 10
6.102800
 20
1.983520
  0
VERTEX
  8
0
  6
CONTINUOUS
 10
6.327200
 20
1.983520
  0
VERTEX
  8
0
  6
CONTINUOUS
 10
6.321920
 20
1.249160
  0
VERTEX
  8
0
  6
CONTINUOUS
 10
6.097080
 20
1.249160
  0
SEQEND
  8
0
  0
SOLID
  8
0
 62
    15
 10
6.321920
 20
1.249160
 11
6.327200
 21
1.983520
 12
6.342600
 22
1.174360
 13
6.348320
 23
1.908720
  0
POLYLINE
  8
0
  6
CONTINUOUS
 66
     1
 40
0.000000
 41
0.000000
  0
VERTEX
  8
0
  6
CONTINUOUS
 10
6.321920
 20
1.249160
  0
VERTEX
  8
0
  6
CONTINUOUS
 10
6.327200
 20
1.983520
  0
VERTEX
  8
0
  6
CONTINUOUS
 10
6.348320
 20
1.908720
  0
VERTEX
  8
0
  6
CONTINUOUS
 10
6.342600
 20
1.174360
  0
VERTEX
  8
0
  6
CONTINUOUS
 10
6.321920
 20
1.249160
  0
SEQEND
  8
0
  0
SOLID
  8
0
 62
    15
 10
6.342600
 20
1.174360
 11
6.348320
 21
1.908720
 12
7.341840
 22
1.174360
 13
7.347120
 23
1.908720
  0
POLYLINE
  8
0
  6
CONTINUOUS
 66
     1
 40
0.000000
 41
0.000000
  0
VERTEX
  8
0
  6
CONTINUOUS
 10
6.342600
 20
1.174360
  0
VERTEX
  8
0
  6
CONTINUOUS
 10
6.348320
 20
1.908720
  0
VERTEX
  8
0
  6
CONTINUOUS
 10
7.347120
 20
1.908720
  0
VERTEX
  8
0
  6
CONTINUOUS
 10
7.341840
 20
1.174360
  0
VERTEX
  8
0
  6
CONTINUOUS
 10
6.342600
 20
1.174360
  0
SEQEND
  8
0
  0
SOLID
  8
0
 62
    15
 10
7.341840
 20
1.174360
 11
7.347120
 21
1.908720
 12
7.352840
 22
1.139160
 13
7.358120
 23
1.873520
  0
POLYLINE
  8
0
  6
CONTINUOUS
 66
     1
 40
0.000000
 41
0.000000
  0
VERTEX
  8
0
  6
CONTINUOUS
 10
7.341840
 20
1.174360
  0
VERTEX
  8
0
  6
CONTINUOUS
 10
7.347120
 20
1.908720
  0
VERTEX
  8
0
  6
CONTINUOUS
 10
7.358120
 20
1.873520
  0
VERTEX
  8
0
  6
CONTINUOUS
 10
7.352840
 20
1.139160
  0
VERTEX
  8
0
  6
CONTINUOUS
 10
7.341840
 20
1.174360
  0
SEQEND
  8
0
  0
SOLID
  8
0
 62
    15
 10
7.352840
 20
1.139160
 11
7.358120
 21
1.873520
 12
7.367360
 22
1.111880
 13
7.373080
 23
1.846240
  0
POLYLINE
  8
0
  6
CONTINUOUS
 66
     1
 40
0.000000
 41
0.000000
  0
VERTEX
  8
0
  6
CONTINUOUS
 10
7.352840
 20
1.139160
  0
VERTEX
  8
0
  6
CONTINUOUS
 10
7.358120
 20
1.873520
  0
VERTEX
  8
0
  6
CONTINUOUS
 10
7.373080
 20
1.846240
  0
VERTEX
  8
0
  6
CONTINUOUS
 10
7.367360
 20
1.111880
  0
VERTEX
  8
0
  6
CONTINUOUS
 10
7.352840
 20
1.139160
  0
SEQEND
  8
0
  0
SOLID
  8
0
 62
    15
 10
7.367360
 20
1.111880
 11
7.373080
 21
1.846240
 12
7.385400
 22
1.090760
 13
7.391120
 23
1.825120
  0
POLYLINE
  8
0
  6
CONTINUOUS
 66
     1
 40
0.000000
 41
0.000000
  0
VERTEX
  8
0
  6
CONTINUOUS
 10
7.367360
 20
1.111880
  0
VERTEX
  8
0
  6
CONTINUOUS
 10
7.373080
 20
1.846240
  0
VERTEX
  8
0
  6
CONTINUOUS
 10
7.391120
 20
1.825120
  0
VERTEX
  8
0
  6
CONTINUOUS
 10
7.385400
 20
1.090760
  0
VERTEX
  8
0
  6
CONTINUOUS
 10
7.367360
 20
1.111880
  0
SEQEND
  8
0
  0
SOLID
  8
0
 62
    15
 10
7.385400
 20
1.090760
 11
7.391120
 21
1.825120
 12
7.406080
 22
1.075360
 13
7.411800
 23
1.809720
  0
POLYLINE
  8
0
  6
CONTINUOUS
 66
     1
 40
0.000000
 41
0.000000
  0
VERTEX
  8
0
  6
CONTINUOUS
 10
7.385400
 20
1.090760
  0
VERTEX
  8
0
  6
CONTINUOUS
 10
7.391120
 20
1.825120
  0
VERTEX
  8
0
  6
CONTINUOUS
 10
7.411800
 20
1.809720
  0
VERTEX
  8
0
  6
CONTINUOUS
 10
7.406080
 20
1.075360
  0
VERTEX
  8
0
  6
CONTINUOUS
 10
7.385400
 20
1.090760
  0
SEQEND
  8
0
  0
SOLID
  8
0
 62
    15
 10
7.406080
 20
1.075360
 11
7.411800
 21
1.809720
 12
7.453600
 22
1.057320
 13
7.458880
 23
1.791680
  0
POLYLINE
  8
0
  6
CONTINUOUS
 66
     1
 40
0.000000
 41
0.000000
  0
VERTEX
  8
0
  6
CONTINUOUS
 10
7.406080
 20
1.075360
  0
VERTEX
  8
0
  6
CONTINUOUS
 10
7.411800
 20
1.809720
  0
VERTEX
  8
0
  6
CONTINUOUS
 10
7.458880
 20
1.791680
  0
VERTEX
  8
0
  6
CONTINUOUS
 10
7.453600
 20
1.057320
  0
VERTEX
  8
0
  6
CONTINUOUS
 10
7.406080
 20
1.075360
  0
SEQEND
  8
0
  0
SOLID
  8
0
 62
    15
 10
7.453600
 20
1.057320
 11
7.458880
 21
1.791680
 12
7.505080
 22
1.048520
 13
7.510360
 23
1.782880
  0
POLYLINE
  8
0
  6
CONTINUOUS
 66
     1
 40
0.000000
 41
0.000000
  0
VERTEX
  8
0
  6
CONTINUOUS
 10
7.453600
 20
1.057320
  0
VERTEX
  8
0
  6
CONTINUOUS
 10
7.458880
 20
1.791680
  0
VERTEX
  8
0
  6
CONTINUOUS
 10
7.510360
 20
1.782880
  0
VERTEX
  8
0
  6
CONTINUOUS
 10
7.505080
 20
1.048520
  0
VERTEX
  8
0
  6
CONTINUOUS
 10
7.453600
 20
1.057320
  0
SEQEND
  8
0
  0
SOLID
  8
0
 62
    15
 10
7.505080
 20
1.048520
 11
7.510360
 21
1.782880
 12
7.559200
 22
1.032680
 13
7.564480
 23
1.767040
  0
POLYLINE
  8
0
  6
CONTINUOUS
 66
     1
 40
0.000000
 41
0.000000
  0
VERTEX
  8
0
  6
CONTINUOUS
 10
7.505080
 20
1.048520
  0
VERTEX
  8
0
  6
CONTINUOUS
 10
7.510360
 20
1.782880
  0
VERTEX
  8
0
  6
CONTINUOUS
 10
7.564480
 20
1.767040
  0
VERTEX
  8
0
  6
CONTINUOUS
 10
7.559200
 20
1.032680
  0
VERTEX
  8
0
  6
CONTINUOUS
 10
7.505080
 20
1.048520
  0
SEQEND
  8
0
  0
SOLID
  8
0
 62
    15
 10
7.559200
 20
1.032680
 11
7.564480
 21
1.767040
 12
7.611120
 22
0.999240
 13
7.616400
 23
1.733160
  0
POLYLINE
  8
0
  6
CONTINUOUS
 66
     1
 40
0.000000
 41
0.000000
  0
VERTEX
  8
0
  6
CONTINUOUS
 10
7.559200
 20
1.032680
  0
VERTEX
  8
0
  6
CONTINUOUS
 10
7.564480
 20
1.767040
  0
VERTEX
  8
0
  6
CONTINUOUS
 10
7.616400
 20
1.733160
  0
VERTEX
  8
0
  6
CONTINUOUS
 10
7.611120
 20
0.999240
  0
VERTEX
  8
0
  6
CONTINUOUS
 10
7.559200
 20
1.032680
  0
SEQEND
  8
0
  0
SOLID
  8
0
 62
    15
 10
7.611120
 20
0.999240
 11
7.616400
 21
1.733160
 12
7.632240
 22
0.975920
 13
7.637960
 23
1.710280
  0
POLYLINE
  8
0
  6
CONTINUOUS
 66
     1
 40
0.000000
 41
0.000000
  0
VERTEX
  8
0
  6
CONTINUOUS
 10
7.611120
 20
0.999240
  0
VERTEX
  8
0
  6
CONTINUOUS
 10
7.616400
 20
1.733160
  0
VERTEX
  8
0
  6
CONTINUOUS
 10
7.637960
 20
1.710280
  0
VERTEX
  8
0
  6
CONTINUOUS
 10
7.632240
 20
0.975920
  0
VERTEX
  8
0
  6
CONTINUOUS
 10
7.611120
 20
0.999240
  0
SEQEND
  8
0
  0
SOLID
  8
0
 62
    15
 10
7.632240
 20
0.975920
 11
7.637960
 21
1.710280
 12
7.648960
 22
0.949080
 13
7.654240
 23
1.683000
  0
POLYLINE
  8
0
  6
CONTINUOUS
 66
     1
 40
0.000000
 41
0.000000
  0
VERTEX
  8
0
  6
CONTINUOUS
 10
7.632240
 20
0.975920
  0
VERTEX
  8
0
  6
CONTINUOUS
 10
7.637960
 20
1.710280
  0
VERTEX
  8
0
  6
CONTINUOUS
 10
7.654240
 20
1.683000
  0
VERTEX
  8
0
  6
CONTINUOUS
 10
7.648960
 20
0.949080
  0
VERTEX
  8
0
  6
CONTINUOUS
 10
7.632240
 20
0.975920
  0
SEQEND
  8
0
  0
SOLID
  8
0
 62
    15
 10
7.659080
 20
0.918280
 11
7.664360
 21
1.652640
 12
7.661280
 22
0.883960
 13
7.666560
 23
1.618320
  0
POLYLINE
  8
0
  6
CONTINUOUS
 66
     1
 40
0.000000
 41
0.000000
  0
VERTEX
  8
0
  6
CONTINUOUS
 10
7.659080
 20
0.918280
  0
VERTEX
  8
0
  6
CONTINUOUS
 10
7.664360
 20
1.652640
  0
VERTEX
  8
0
  6
CONTINUOUS
 10
7.666560
 20
1.618320
  0
VERTEX
  8
0
  6
CONTINUOUS
 10
7.661280
 20
0.883960
  0
VERTEX
  8
0
  6
CONTINUOUS
 10
7.659080
 20
0.918280
  0
SEQEND
  8
0
  0
SOLID
  8
0
 62
    15
 10
7.648960
 20
0.949080
 11
7.654240
 21
1.683000
 12
7.659080
 22
0.918280
 13
7.664360
 23
1.652640
  0
POLYLINE
  8
0
  6
CONTINUOUS
 66
     1
 40
0.000000
 41
0.000000
  0
VERTEX
  8
0
  6
CONTINUOUS
 10
7.648960
 20
0.949080
  0
VERTEX
  8
0
  6
CONTINUOUS
 10
7.654240
 20
1.683000
  0
VERTEX
  8
0
  6
CONTINUOUS
 10
7.664360
 20
1.652640
  0
VERTEX
  8
0
  6
CONTINUOUS
 10
7.659080
 20
0.918280
  0
VERTEX
  8
0
  6
CONTINUOUS
 10
7.648960
 20
0.949080
  0
SEQEND
  8
0
  0
SOLID
  8
0
 62
    15
 10
3.851760
 20
1.960640
 11
3.857040
 21
2.695000
 12
4.433880
 22
1.913120
 13
4.439160
 23
2.647480
  0
POLYLINE
  8
0
  6
CONTINUOUS
 66
     1
 40
0.000000
 41
0.000000
  0
VERTEX
  8
0
  6
CONTINUOUS
 10
3.851760
 20
1.960640
  0
VERTEX
  8
0
  6
CONTINUOUS
 10
3.857040
 20
2.695000
  0
VERTEX
  8
0
  6
CONTINUOUS
 10
4.439160
 20
2.647480
  0
VERTEX
  8
0
  6
CONTINUOUS
 10
4.433880
 20
1.913120
  0
VERTEX
  8
0
  6
CONTINUOUS
 10
3.851760
 20
1.960640
  0
SEQEND
  8
0
  0
POLYLINE
  8
0
  6
CONTINUOUS
 66
     1
 40
0.000000
 41
0.000000
  0
VERTEX
  8
0
  6
CONTINUOUS
 10
4.433880
 20
1.913120
  0
VERTEX
  8
0
  6
CONTINUOUS
 10
4.442240
 20
1.846680
  0
VERTEX
  8
0
  6
CONTINUOUS
 10
4.537720
 20
1.817200
  0
VERTEX
  8
0
  6
CONTINUOUS
 10
4.550480
 20
1.708960
  0
VERTEX
  8
0
  6
CONTINUOUS
 10
4.608560
 20
1.708960
  0
VERTEX
  8
0
  6
CONTINUOUS
 10
4.656080
 20
1.773640
  0
VERTEX
  8
0
  6
CONTINUOUS
 10
4.707560
 20
1.819840
  0
VERTEX
  8
0
  6
CONTINUOUS
 10
4.762560
 20
1.847560
  0
VERTEX
  8
0
  6
CONTINUOUS
 10
4.820200
 20
1.855920
  0
VERTEX
  8
0
  6
CONTINUOUS
 10
4.880040
 20
1.844480
  0
VERTEX
  8
0
  6
CONTINUOUS
 10
4.941640
 20
1.812360
  0
VERTEX
  8
0
  6
CONTINUOUS
 10
4.972880
 20
1.788160
  0
VERTEX
  8
0
  6
CONTINUOUS
 10
5.003680
 20
1.759120
  0
VERTEX
  8
0
  6
CONTINUOUS
 10
5.035360
 20
1.724360
  0
VERTEX
  8
0
  6
CONTINUOUS
 10
5.136120
 20
1.597640
  0
VERTEX
  8
0
  6
CONTINUOUS
 10
5.220600
 20
1.513160
  0
VERTEX
  8
0
  6
CONTINUOUS
 10
5.320040
 20
1.436160
  0
VERTEX
  8
0
  6
CONTINUOUS
 10
5.375480
 20
1.402280
  0
VERTEX
  8
0
  6
CONTINUOUS
 10
5.434880
 20
1.371920
  0
VERTEX
  8
0
  6
CONTINUOUS
 10
5.498680
 20
1.346400
  0
VERTEX
  8
0
  6
CONTINUOUS
 10
5.566000
 20
1.326160
  0
VERTEX
  8
0
  6
CONTINUOUS
 10
5.637720
 20
1.312080
  0
VERTEX
  8
0
  6
CONTINUOUS
 10
5.713840
 20
1.304160
  0
VERTEX
  8
0
  6
CONTINUOUS
 10
5.793920
 20
1.303720
  0
VERTEX
  8
0
  6
CONTINUOUS
 10
5.877960
 20
1.311640
  0
VERTEX
  8
0
  6
CONTINUOUS
 10
5.966840
 20
1.327920
  0
VERTEX
  8
0
  6
CONTINUOUS
 10
6.059680
 20
1.353440
  0
VERTEX
  8
0
  6
CONTINUOUS
 10
6.075080
 20
1.299760
  0
VERTEX
  8
0
  6
CONTINUOUS
 10
6.087840
 20
1.263680
  0
VERTEX
  8
0
  6
CONTINUOUS
 10
6.093120
 20
1.252680
  0
VERTEX
  8
0
  6
CONTINUOUS
 10
6.097080
 20
1.249160
  0
VERTEX
  8
0
  6
CONTINUOUS
 10
6.321920
 20
1.249160
  0
VERTEX
  8
0
  6
CONTINUOUS
 10
6.342600
 20
1.174360
  0
VERTEX
  8
0
  6
CONTINUOUS
 10
7.341840
 20
1.174360
  0
VERTEX
  8
0
  6
CONTINUOUS
 10
7.352840
 20
1.139160
  0
VERTEX
  8
0
  6
CONTINUOUS
 10
7.367360
 20
1.111880
  0
VERTEX
  8
0
  6
CONTINUOUS
 10
7.385400
 20
1.090760
  0
VERTEX
  8
0
  6
CONTINUOUS
 10
7.406080
 20
1.075360
  0
VERTEX
  8
0
  6
CONTINUOUS
 10
7.453600
 20
1.057320
  0
VERTEX
  8
0
  6
CONTINUOUS
 10
7.505080
 20
1.048520
  0
VERTEX
  8
0
  6
CONTINUOUS
 10
7.559200
 20
1.032680
  0
VERTEX
  8
0
  6
CONTINUOUS
 10
7.611120
 20
0.999240
  0
VERTEX
  8
0
  6
CONTINUOUS
 10
7.632240
 20
0.975920
  0
VERTEX
  8
0
  6
CONTINUOUS
 10
7.648960
 20
0.949080
  0
VERTEX
  8
0
  6
CONTINUOUS
 10
7.659080
 20
0.918280
  0
VERTEX
  8
0
  6
CONTINUOUS
 10
7.661280
 20
0.883960
  0
VERTEX
  8
0
  6
CONTINUOUS
 10
3.851760
 20
0.883960
  0
VERTEX
  8
0
  6
CONTINUOUS
 10
3.851760
 20
1.960640
  0
VERTEX
  8
0
  6
CONTINUOUS
 10
4.433880
 20
1.913120
  0
SEQEND
  8
0
  0
TEXT
  8
0
 10
5.464360
 20
0.629200
 40
0.138148
  1
BA  675
 41
1.000000
  7
SN0
 71
     0
 72
     5
 11
6.054163
 21
0.629200
  0
TEXT
  8
0
 10
5.142280
 20
0.437800
 40
0.138148
  1
1-1/8" x 3-13/16"
 41
1.000000
  7
SN0
 71
     0
 72
     5
 11
6.374095
 21
0.437800
  0
ENDSEC
  0
EOF
