  0
SECTION
  2
HEADER
  9
$ACADVER
  1
AC1006
  9
$EXTMIN
 10
5.551480
 20
0.612920
  9
$EXTMAX
 10
7.381000
 20
2.367200
  9
$LTSCALE
 40
0.044000
  9
$PDMODE
 70
    35
  9
$PDSIZE
 40
0.035200
  0
ENDSEC
  0
SECTION
  2
TABLES
  0
TABLE
  2
LTYPE
 70
     9
  0
LTYPE
  2
CONTINUOUS
 70
    64
  3
Solid line
 72
    65
 73
     0
 40
0.000000
  0
LTYPE
  2
DASHED
 70
    64
  3
__ __ __ __ __ __ __ __ __ __ __ __ __ __ __
 72
    65
 73
     2
 40
0.000330
 49
0.000220
 49
-0.000110
  0
LTYPE
  2
HIDDEN
 70
    64
  3
 _ _ _ _ _ _ _ _ _ _ _ _ _ _ _ _ _ _ _ _ _ _
 72
    65
 73
     2
 40
0.000165
 49
0.000110
 49
-0.000055
  0
LTYPE
  2
CENTER
 70
    64
  3
____ _ ____ _ ____ _ ____ _ ____ _ ____ _ ____
 72
    65
 73
     4
 40
0.000880
 49
0.000550
 49
-0.000110
 49
0.000110
 49
-0.000110
  0
LTYPE
  2
PHANTOM
 70
    64
  3
_____ _ _ _____ _ _ _____ _ _ _____ _ _ ____
 72
    65
 73
     6
 40
0.001100
 49
0.000550
 49
-0.000110
 49
0.000110
 49
-0.000110
 49
0.000110
 49
-0.000110
  0
LTYPE
  2
DOT
 70
    64
  3
...............................................
 72
    65
 73
     2
 40
0.000110
 49
0.000000
 49
-0.000110
  0
LTYPE
  2
DASHDOT
 70
    64
  3
__ . __ . __ . __ . __ . __ . __ . __ . __ . __
 72
    65
 73
     4
 40
0.000440
 49
0.000220
 49
-0.000110
 49
0.000000
 49
-0.000110
  0
LTYPE
  2
BORDER
 70
    64
  3
__ __ . __ __ . __ __ . __ __ . __ __ . __ __
 72
    65
 73
     6
 40
0.000770
 49
0.000220
 49
-0.000110
 49
0.000220
 49
-0.000110
 49
0.000000
 49
-0.000110
  0
LTYPE
  2
DIVIDE
 70
    64
  3
__ . . __ . . __ . . __ . . __ . . __ . . __
 72
    65
 73
     6
 40
0.000550
 49
0.000220
 49
-0.000110
 49
0.000000
 49
-0.000110
 49
0.000000
 49
-0.000110
  0
LTYPE
  2
DOTDOT
 70
    64
  3
 . .  . .  . .  . .  . .  . . 
 72
    65
 73
     5
 40
0.000242
 49
-0.000110
 49
0.000000
 49
-0.000110
 49
0.000000
 49
-0.000110
  0
ENDTAB
  0
TABLE
  2
STYLE
 70
     2
  0
STYLE
 70
     0
  2
SN0
 40
0.000000
 41
0.000440
 50
0.000000
 71
     0
 42
0.000000
  3
ROMAND
  0
STYLE
 70
    68
  2
SV0
 40
0.000000
 41
0.000440
 50
0.000000
 71
     0
 42
0.000000
  3
ROMAND
  0
ENDTAB
  0
TABLE
  2
LAYER
 70
     3
  0
LAYER
  2
FOREGROUND
 70
    64
 62
     7
  6
CONTINUOUS
  0
LAYER
  2
BACKGROUND
 70
    65
 62
    -7
  6
CONTINUOUS
  0
LAYER
  2
0
 70
    64
 62
     7
  6
CONTINUOUS
  0
ENDTAB
  0
ENDSEC
  0
SECTION
  2
ENTITIES
  0
POLYLINE
  8
FOREGROUND
  6
CONTINUOUS
 66
     1
 40
0.000000
 41
0.000000
  0
VERTEX
  8
FOREGROUND
  6
CONTINUOUS
 10
0.000000
 20
2.980120
  0
VERTEX
  8
FOREGROUND
  6
CONTINUOUS
 10
8.499920
 20
2.980120
  0
VERTEX
  8
FOREGROUND
  6
CONTINUOUS
 10
8.499920
 20
-8.019880
  0
VERTEX
  8
FOREGROUND
  6
CONTINUOUS
 10
0.000000
 20
-8.019880
  0
VERTEX
  8
FOREGROUND
  6
CONTINUOUS
 10
0.000000
 20
2.980120
  0
SEQEND
  8
0
  0
POLYLINE
  8
FOREGROUND
  6
CONTINUOUS
 66
     1
 40
0.000000
 41
0.000000
  0
VERTEX
  8
FOREGROUND
  6
CONTINUOUS
 10
0.000000
 20
2.980120
  0
VERTEX
  8
FOREGROUND
  6
CONTINUOUS
 10
8.499920
 20
2.980120
  0
VERTEX
  8
FOREGROUND
  6
CONTINUOUS
 10
8.499920
 20
-8.019880
  0
VERTEX
  8
FOREGROUND
  6
CONTINUOUS
 10
0.000000
 20
-8.019880
  0
VERTEX
  8
FOREGROUND
  6
CONTINUOUS
 10
0.000000
 20
2.980120
  0
SEQEND
  8
0
  0
POLYLINE
  8
0
  6
CONTINUOUS
 66
     1
 40
0.014080
 41
0.014080
  0
VERTEX
  8
0
  6
CONTINUOUS
 10
7.371760
 20
1.670240
  0
VERTEX
  8
0
  6
CONTINUOUS
 10
6.921640
 20
1.670240
  0
VERTEX
  8
0
  6
CONTINUOUS
 10
6.921640
 20
2.028400
  0
VERTEX
  8
0
  6
CONTINUOUS
 10
6.744760
 20
2.028400
  0
VERTEX
  8
0
  6
CONTINUOUS
 10
6.744760
 20
2.103640
  0
VERTEX
  8
0
  6
CONTINUOUS
 10
6.747400
 20
2.127400
  0
VERTEX
  8
0
  6
CONTINUOUS
 10
6.755760
 20
2.150280
  0
VERTEX
  8
0
  6
CONTINUOUS
 10
6.768520
 20
2.170960
  0
VERTEX
  8
0
  6
CONTINUOUS
 10
6.785240
 20
2.189440
  0
VERTEX
  8
0
  6
CONTINUOUS
 10
6.805040
 20
2.204400
  0
VERTEX
  8
0
  6
CONTINUOUS
 10
6.827480
 20
2.216280
  0
VERTEX
  8
0
  6
CONTINUOUS
 10
6.852120
 20
2.223760
  0
VERTEX
  8
0
  6
CONTINUOUS
 10
6.878080
 20
2.226400
  0
VERTEX
  8
0
  6
CONTINUOUS
 10
6.904040
 20
2.223760
  0
VERTEX
  8
0
  6
CONTINUOUS
 10
6.928240
 20
2.216280
  0
VERTEX
  8
0
  6
CONTINUOUS
 10
6.951120
 20
2.204400
  0
VERTEX
  8
0
  6
CONTINUOUS
 10
6.970920
 20
2.189440
  0
VERTEX
  8
0
  6
CONTINUOUS
 10
6.987640
 20
2.170960
  0
VERTEX
  8
0
  6
CONTINUOUS
 10
7.000400
 20
2.150280
  0
VERTEX
  8
0
  6
CONTINUOUS
 10
7.008760
 20
2.127400
  0
VERTEX
  8
0
  6
CONTINUOUS
 10
7.011400
 20
2.103640
  0
VERTEX
  8
0
  6
CONTINUOUS
 10
7.102920
 20
2.103640
  0
VERTEX
  8
0
  6
CONTINUOUS
 10
7.105120
 20
2.069320
  0
VERTEX
  8
0
  6
CONTINUOUS
 10
7.110400
 20
2.035880
  0
VERTEX
  8
0
  6
CONTINUOUS
 10
7.124040
 20
1.987920
  0
VERTEX
  8
0
  6
CONTINUOUS
 10
7.143400
 20
1.942600
  0
VERTEX
  8
0
  6
CONTINUOUS
 10
7.159240
 20
1.914000
  0
VERTEX
  8
0
  6
CONTINUOUS
 10
7.186080
 20
1.874840
  0
VERTEX
  8
0
  6
CONTINUOUS
 10
7.216000
 20
1.840520
  0
VERTEX
  8
0
  6
CONTINUOUS
 10
7.248560
 20
1.811040
  0
VERTEX
  8
0
  6
CONTINUOUS
 10
7.282880
 20
1.787720
  0
VERTEX
  8
0
  6
CONTINUOUS
 10
7.317640
 20
1.771000
  0
VERTEX
  8
0
  6
CONTINUOUS
 10
7.351520
 20
1.761760
  0
VERTEX
  8
0
  6
CONTINUOUS
 10
7.373960
 20
1.760000
  0
VERTEX
  8
0
  6
CONTINUOUS
 10
7.373960
 20
1.670240
  0
VERTEX
  8
0
  6
CONTINUOUS
 10
7.371760
 20
1.670240
  0
SEQEND
  8
0
  0
SOLID
  8
0
 62
    15
 10
6.056160
 20
1.518000
 11
6.054840
 21
2.267760
 12
6.058800
 22
1.494240
 13
6.057480
 23
2.244000
  0
POLYLINE
  8
0
  6
CONTINUOUS
 66
     1
 40
0.000000
 41
0.000000
  0
VERTEX
  8
0
  6
CONTINUOUS
 10
6.056160
 20
1.518000
  0
VERTEX
  8
0
  6
CONTINUOUS
 10
6.054840
 20
2.267760
  0
VERTEX
  8
0
  6
CONTINUOUS
 10
6.057480
 20
2.244000
  0
VERTEX
  8
0
  6
CONTINUOUS
 10
6.058800
 20
1.494240
  0
VERTEX
  8
0
  6
CONTINUOUS
 10
6.056160
 20
1.518000
  0
SEQEND
  8
0
  0
SOLID
  8
0
 62
    15
 10
5.792160
 20
1.419000
 11
5.790840
 21
2.168760
 12
5.792600
 22
1.494240
 13
5.790840
 23
2.244000
  0
POLYLINE
  8
0
  6
CONTINUOUS
 66
     1
 40
0.000000
 41
0.000000
  0
VERTEX
  8
0
  6
CONTINUOUS
 10
5.792160
 20
1.419000
  0
VERTEX
  8
0
  6
CONTINUOUS
 10
5.790840
 20
2.168760
  0
VERTEX
  8
0
  6
CONTINUOUS
 10
5.790840
 20
2.244000
  0
VERTEX
  8
0
  6
CONTINUOUS
 10
5.792600
 20
1.494240
  0
VERTEX
  8
0
  6
CONTINUOUS
 10
5.792160
 20
1.419000
  0
SEQEND
  8
0
  0
SOLID
  8
0
 62
    15
 10
5.792600
 20
1.494240
 11
5.790840
 21
2.244000
 12
5.795240
 22
1.518000
 13
5.793920
 23
2.267760
  0
POLYLINE
  8
0
  6
CONTINUOUS
 66
     1
 40
0.000000
 41
0.000000
  0
VERTEX
  8
0
  6
CONTINUOUS
 10
5.792600
 20
1.494240
  0
VERTEX
  8
0
  6
CONTINUOUS
 10
5.790840
 20
2.244000
  0
VERTEX
  8
0
  6
CONTINUOUS
 10
5.793920
 20
2.267760
  0
VERTEX
  8
0
  6
CONTINUOUS
 10
5.795240
 20
1.518000
  0
VERTEX
  8
0
  6
CONTINUOUS
 10
5.792600
 20
1.494240
  0
SEQEND
  8
0
  0
SOLID
  8
0
 62
    15
 10
5.795240
 20
1.518000
 11
5.793920
 21
2.267760
 12
5.803160
 22
1.540880
 13
5.801840
 23
2.290200
  0
POLYLINE
  8
0
  6
CONTINUOUS
 66
     1
 40
0.000000
 41
0.000000
  0
VERTEX
  8
0
  6
CONTINUOUS
 10
5.795240
 20
1.518000
  0
VERTEX
  8
0
  6
CONTINUOUS
 10
5.793920
 20
2.267760
  0
VERTEX
  8
0
  6
CONTINUOUS
 10
5.801840
 20
2.290200
  0
VERTEX
  8
0
  6
CONTINUOUS
 10
5.803160
 20
1.540880
  0
VERTEX
  8
0
  6
CONTINUOUS
 10
5.795240
 20
1.518000
  0
SEQEND
  8
0
  0
SOLID
  8
0
 62
     7
 10
5.803160
 20
1.540880
 11
5.801840
 21
2.290200
 12
5.815920
 22
1.561560
 13
5.814600
 23
2.311320
  0
POLYLINE
  8
0
  6
CONTINUOUS
 66
     1
 40
0.000000
 41
0.000000
  0
VERTEX
  8
0
  6
CONTINUOUS
 10
5.803160
 20
1.540880
  0
VERTEX
  8
0
  6
CONTINUOUS
 10
5.801840
 20
2.290200
  0
VERTEX
  8
0
  6
CONTINUOUS
 10
5.814600
 20
2.311320
  0
VERTEX
  8
0
  6
CONTINUOUS
 10
5.815920
 20
1.561560
  0
VERTEX
  8
0
  6
CONTINUOUS
 10
5.803160
 20
1.540880
  0
SEQEND
  8
0
  0
SOLID
  8
0
 62
     7
 10
5.815920
 20
1.561560
 11
5.814600
 21
2.311320
 12
5.832640
 22
1.580040
 13
5.831320
 23
2.329360
  0
POLYLINE
  8
0
  6
CONTINUOUS
 66
     1
 40
0.000000
 41
0.000000
  0
VERTEX
  8
0
  6
CONTINUOUS
 10
5.815920
 20
1.561560
  0
VERTEX
  8
0
  6
CONTINUOUS
 10
5.814600
 20
2.311320
  0
VERTEX
  8
0
  6
CONTINUOUS
 10
5.831320
 20
2.329360
  0
VERTEX
  8
0
  6
CONTINUOUS
 10
5.832640
 20
1.580040
  0
VERTEX
  8
0
  6
CONTINUOUS
 10
5.815920
 20
1.561560
  0
SEQEND
  8
0
  0
SOLID
  8
0
 62
     7
 10
5.832640
 20
1.580040
 11
5.831320
 21
2.329360
 12
5.852880
 22
1.595440
 13
5.851120
 23
2.344760
  0
POLYLINE
  8
0
  6
CONTINUOUS
 66
     1
 40
0.000000
 41
0.000000
  0
VERTEX
  8
0
  6
CONTINUOUS
 10
5.832640
 20
1.580040
  0
VERTEX
  8
0
  6
CONTINUOUS
 10
5.831320
 20
2.329360
  0
VERTEX
  8
0
  6
CONTINUOUS
 10
5.851120
 20
2.344760
  0
VERTEX
  8
0
  6
CONTINUOUS
 10
5.852880
 20
1.595440
  0
VERTEX
  8
0
  6
CONTINUOUS
 10
5.832640
 20
1.580040
  0
SEQEND
  8
0
  0
SOLID
  8
0
 62
     7
 10
5.852880
 20
1.595440
 11
5.851120
 21
2.344760
 12
5.875320
 22
1.606880
 13
5.873560
 23
2.356640
  0
POLYLINE
  8
0
  6
CONTINUOUS
 66
     1
 40
0.000000
 41
0.000000
  0
VERTEX
  8
0
  6
CONTINUOUS
 10
5.852880
 20
1.595440
  0
VERTEX
  8
0
  6
CONTINUOUS
 10
5.851120
 20
2.344760
  0
VERTEX
  8
0
  6
CONTINUOUS
 10
5.873560
 20
2.356640
  0
VERTEX
  8
0
  6
CONTINUOUS
 10
5.875320
 20
1.606880
  0
VERTEX
  8
0
  6
CONTINUOUS
 10
5.852880
 20
1.595440
  0
SEQEND
  8
0
  0
SOLID
  8
0
 62
     7
 10
5.875320
 20
1.606880
 11
5.873560
 21
2.356640
 12
5.899960
 22
1.614360
 13
5.898200
 23
2.364120
  0
POLYLINE
  8
0
  6
CONTINUOUS
 66
     1
 40
0.000000
 41
0.000000
  0
VERTEX
  8
0
  6
CONTINUOUS
 10
5.875320
 20
1.606880
  0
VERTEX
  8
0
  6
CONTINUOUS
 10
5.873560
 20
2.356640
  0
VERTEX
  8
0
  6
CONTINUOUS
 10
5.898200
 20
2.364120
  0
VERTEX
  8
0
  6
CONTINUOUS
 10
5.899960
 20
1.614360
  0
VERTEX
  8
0
  6
CONTINUOUS
 10
5.875320
 20
1.606880
  0
SEQEND
  8
0
  0
SOLID
  8
0
 62
     7
 10
5.899960
 20
1.614360
 11
5.898200
 21
2.364120
 12
5.925920
 22
1.617000
 13
5.924160
 23
2.366760
  0
POLYLINE
  8
0
  6
CONTINUOUS
 66
     1
 40
0.000000
 41
0.000000
  0
VERTEX
  8
0
  6
CONTINUOUS
 10
5.899960
 20
1.614360
  0
VERTEX
  8
0
  6
CONTINUOUS
 10
5.898200
 20
2.364120
  0
VERTEX
  8
0
  6
CONTINUOUS
 10
5.924160
 20
2.366760
  0
VERTEX
  8
0
  6
CONTINUOUS
 10
5.925920
 20
1.617000
  0
VERTEX
  8
0
  6
CONTINUOUS
 10
5.899960
 20
1.614360
  0
SEQEND
  8
0
  0
SOLID
  8
0
 62
    15
 10
5.925920
 20
1.617000
 11
5.924160
 21
2.366760
 12
5.951440
 22
1.614360
 13
5.950120
 23
2.364120
  0
POLYLINE
  8
0
  6
CONTINUOUS
 66
     1
 40
0.000000
 41
0.000000
  0
VERTEX
  8
0
  6
CONTINUOUS
 10
5.925920
 20
1.617000
  0
VERTEX
  8
0
  6
CONTINUOUS
 10
5.924160
 20
2.366760
  0
VERTEX
  8
0
  6
CONTINUOUS
 10
5.950120
 20
2.364120
  0
VERTEX
  8
0
  6
CONTINUOUS
 10
5.951440
 20
1.614360
  0
VERTEX
  8
0
  6
CONTINUOUS
 10
5.925920
 20
1.617000
  0
SEQEND
  8
0
  0
SOLID
  8
0
 62
    15
 10
5.969480
 20
1.060840
 11
5.967720
 21
1.810600
 12
5.969480
 22
1.419000
 13
5.967720
 23
2.168760
  0
POLYLINE
  8
0
  6
CONTINUOUS
 66
     1
 40
0.000000
 41
0.000000
  0
VERTEX
  8
0
  6
CONTINUOUS
 10
5.969480
 20
1.060840
  0
VERTEX
  8
0
  6
CONTINUOUS
 10
5.967720
 20
1.810600
  0
VERTEX
  8
0
  6
CONTINUOUS
 10
5.967720
 20
2.168760
  0
VERTEX
  8
0
  6
CONTINUOUS
 10
5.969480
 20
1.419000
  0
VERTEX
  8
0
  6
CONTINUOUS
 10
5.969480
 20
1.060840
  0
SEQEND
  8
0
  0
SOLID
  8
0
 62
    15
 10
5.976080
 20
1.606880
 11
5.974760
 21
2.356640
 12
5.998960
 22
1.595440
 13
5.997200
 23
2.344760
  0
POLYLINE
  8
0
  6
CONTINUOUS
 66
     1
 40
0.000000
 41
0.000000
  0
VERTEX
  8
0
  6
CONTINUOUS
 10
5.976080
 20
1.606880
  0
VERTEX
  8
0
  6
CONTINUOUS
 10
5.974760
 20
2.356640
  0
VERTEX
  8
0
  6
CONTINUOUS
 10
5.997200
 20
2.344760
  0
VERTEX
  8
0
  6
CONTINUOUS
 10
5.998960
 20
1.595440
  0
VERTEX
  8
0
  6
CONTINUOUS
 10
5.976080
 20
1.606880
  0
SEQEND
  8
0
  0
SOLID
  8
0
 62
    15
 10
5.998960
 20
1.595440
 11
5.997200
 21
2.344760
 12
6.018760
 22
1.580040
 13
6.017000
 23
2.329360
  0
POLYLINE
  8
0
  6
CONTINUOUS
 66
     1
 40
0.000000
 41
0.000000
  0
VERTEX
  8
0
  6
CONTINUOUS
 10
5.998960
 20
1.595440
  0
VERTEX
  8
0
  6
CONTINUOUS
 10
5.997200
 20
2.344760
  0
VERTEX
  8
0
  6
CONTINUOUS
 10
6.017000
 20
2.329360
  0
VERTEX
  8
0
  6
CONTINUOUS
 10
6.018760
 20
1.580040
  0
VERTEX
  8
0
  6
CONTINUOUS
 10
5.998960
 20
1.595440
  0
SEQEND
  8
0
  0
SOLID
  8
0
 62
    15
 10
6.018760
 20
1.580040
 11
6.017000
 21
2.329360
 12
6.035480
 22
1.561560
 13
6.033720
 23
2.311320
  0
POLYLINE
  8
0
  6
CONTINUOUS
 66
     1
 40
0.000000
 41
0.000000
  0
VERTEX
  8
0
  6
CONTINUOUS
 10
6.018760
 20
1.580040
  0
VERTEX
  8
0
  6
CONTINUOUS
 10
6.017000
 20
2.329360
  0
VERTEX
  8
0
  6
CONTINUOUS
 10
6.033720
 20
2.311320
  0
VERTEX
  8
0
  6
CONTINUOUS
 10
6.035480
 20
1.561560
  0
VERTEX
  8
0
  6
CONTINUOUS
 10
6.018760
 20
1.580040
  0
SEQEND
  8
0
  0
SOLID
  8
0
 62
    15
 10
6.035480
 20
1.561560
 11
6.033720
 21
2.311320
 12
6.048240
 22
1.540880
 13
6.046480
 23
2.290200
  0
POLYLINE
  8
0
  6
CONTINUOUS
 66
     1
 40
0.000000
 41
0.000000
  0
VERTEX
  8
0
  6
CONTINUOUS
 10
6.035480
 20
1.561560
  0
VERTEX
  8
0
  6
CONTINUOUS
 10
6.033720
 20
2.311320
  0
VERTEX
  8
0
  6
CONTINUOUS
 10
6.046480
 20
2.290200
  0
VERTEX
  8
0
  6
CONTINUOUS
 10
6.048240
 20
1.540880
  0
VERTEX
  8
0
  6
CONTINUOUS
 10
6.035480
 20
1.561560
  0
SEQEND
  8
0
  0
SOLID
  8
0
 62
    15
 10
6.048240
 20
1.540880
 11
6.046480
 21
2.290200
 12
6.056160
 22
1.518000
 13
6.054840
 23
2.267760
  0
POLYLINE
  8
0
  6
CONTINUOUS
 66
     1
 40
0.000000
 41
0.000000
  0
VERTEX
  8
0
  6
CONTINUOUS
 10
6.048240
 20
1.540880
  0
VERTEX
  8
0
  6
CONTINUOUS
 10
6.046480
 20
2.290200
  0
VERTEX
  8
0
  6
CONTINUOUS
 10
6.054840
 20
2.267760
  0
VERTEX
  8
0
  6
CONTINUOUS
 10
6.056160
 20
1.518000
  0
VERTEX
  8
0
  6
CONTINUOUS
 10
6.048240
 20
1.540880
  0
SEQEND
  8
0
  0
SOLID
  8
0
 62
    15
 10
5.951440
 20
1.614360
 11
5.950120
 21
2.364120
 12
5.976080
 22
1.606880
 13
5.974760
 23
2.356640
  0
POLYLINE
  8
0
  6
CONTINUOUS
 66
     1
 40
0.000000
 41
0.000000
  0
VERTEX
  8
0
  6
CONTINUOUS
 10
5.951440
 20
1.614360
  0
VERTEX
  8
0
  6
CONTINUOUS
 10
5.950120
 20
2.364120
  0
VERTEX
  8
0
  6
CONTINUOUS
 10
5.974760
 20
2.356640
  0
VERTEX
  8
0
  6
CONTINUOUS
 10
5.976080
 20
1.606880
  0
VERTEX
  8
0
  6
CONTINUOUS
 10
5.951440
 20
1.614360
  0
SEQEND
  8
0
  0
SOLID
  8
0
 62
     7
 10
6.058800
 20
1.494240
 11
6.057480
 21
2.244000
 12
6.150760
 22
1.494240
 13
6.149000
 23
2.244000
  0
POLYLINE
  8
0
  6
CONTINUOUS
 66
     1
 40
0.000000
 41
0.000000
  0
VERTEX
  8
0
  6
CONTINUOUS
 10
6.058800
 20
1.494240
  0
VERTEX
  8
0
  6
CONTINUOUS
 10
6.057480
 20
2.244000
  0
VERTEX
  8
0
  6
CONTINUOUS
 10
6.149000
 20
2.244000
  0
VERTEX
  8
0
  6
CONTINUOUS
 10
6.150760
 20
1.494240
  0
VERTEX
  8
0
  6
CONTINUOUS
 10
6.058800
 20
1.494240
  0
SEQEND
  8
0
  0
SOLID
  8
0
 62
    15
 10
6.150760
 20
1.494240
 11
6.149000
 21
2.244000
 12
6.152960
 22
1.459920
 13
6.151200
 23
2.209680
  0
POLYLINE
  8
0
  6
CONTINUOUS
 66
     1
 40
0.000000
 41
0.000000
  0
VERTEX
  8
0
  6
CONTINUOUS
 10
6.150760
 20
1.494240
  0
VERTEX
  8
0
  6
CONTINUOUS
 10
6.149000
 20
2.244000
  0
VERTEX
  8
0
  6
CONTINUOUS
 10
6.151200
 20
2.209680
  0
VERTEX
  8
0
  6
CONTINUOUS
 10
6.152960
 20
1.459920
  0
VERTEX
  8
0
  6
CONTINUOUS
 10
6.150760
 20
1.494240
  0
SEQEND
  8
0
  0
SOLID
  8
0
 62
    15
 10
6.152960
 20
1.459920
 11
6.151200
 21
2.209680
 12
6.158240
 22
1.426480
 13
6.156480
 23
2.176240
  0
POLYLINE
  8
0
  6
CONTINUOUS
 66
     1
 40
0.000000
 41
0.000000
  0
VERTEX
  8
0
  6
CONTINUOUS
 10
6.152960
 20
1.459920
  0
VERTEX
  8
0
  6
CONTINUOUS
 10
6.151200
 20
2.209680
  0
VERTEX
  8
0
  6
CONTINUOUS
 10
6.156480
 20
2.176240
  0
VERTEX
  8
0
  6
CONTINUOUS
 10
6.158240
 20
1.426480
  0
VERTEX
  8
0
  6
CONTINUOUS
 10
6.152960
 20
1.459920
  0
SEQEND
  8
0
  0
SOLID
  8
0
 62
    15
 10
6.158240
 20
1.426480
 11
6.156480
 21
2.176240
 12
6.166600
 22
1.394360
 13
6.164840
 23
2.143680
  0
POLYLINE
  8
0
  6
CONTINUOUS
 66
     1
 40
0.000000
 41
0.000000
  0
VERTEX
  8
0
  6
CONTINUOUS
 10
6.158240
 20
1.426480
  0
VERTEX
  8
0
  6
CONTINUOUS
 10
6.156480
 20
2.176240
  0
VERTEX
  8
0
  6
CONTINUOUS
 10
6.164840
 20
2.143680
  0
VERTEX
  8
0
  6
CONTINUOUS
 10
6.166600
 20
1.394360
  0
VERTEX
  8
0
  6
CONTINUOUS
 10
6.158240
 20
1.426480
  0
SEQEND
  8
0
  0
SOLID
  8
0
 62
    15
 10
6.166600
 20
1.394360
 11
6.164840
 21
2.143680
 12
6.177600
 22
1.363120
 13
6.176280
 23
2.112440
  0
POLYLINE
  8
0
  6
CONTINUOUS
 66
     1
 40
0.000000
 41
0.000000
  0
VERTEX
  8
0
  6
CONTINUOUS
 10
6.166600
 20
1.394360
  0
VERTEX
  8
0
  6
CONTINUOUS
 10
6.164840
 20
2.143680
  0
VERTEX
  8
0
  6
CONTINUOUS
 10
6.176280
 20
2.112440
  0
VERTEX
  8
0
  6
CONTINUOUS
 10
6.177600
 20
1.363120
  0
VERTEX
  8
0
  6
CONTINUOUS
 10
6.166600
 20
1.394360
  0
SEQEND
  8
0
  0
SOLID
  8
0
 62
    15
 10
6.177600
 20
1.363120
 11
6.176280
 21
2.112440
 12
6.191240
 22
1.333200
 13
6.189480
 23
2.082520
  0
POLYLINE
  8
0
  6
CONTINUOUS
 66
     1
 40
0.000000
 41
0.000000
  0
VERTEX
  8
0
  6
CONTINUOUS
 10
6.177600
 20
1.363120
  0
VERTEX
  8
0
  6
CONTINUOUS
 10
6.176280
 20
2.112440
  0
VERTEX
  8
0
  6
CONTINUOUS
 10
6.189480
 20
2.082520
  0
VERTEX
  8
0
  6
CONTINUOUS
 10
6.191240
 20
1.333200
  0
VERTEX
  8
0
  6
CONTINUOUS
 10
6.177600
 20
1.363120
  0
SEQEND
  8
0
  0
SOLID
  8
0
 62
    15
 10
6.191240
 20
1.333200
 11
6.189480
 21
2.082520
 12
6.206640
 22
1.304600
 13
6.205320
 23
2.054360
  0
POLYLINE
  8
0
  6
CONTINUOUS
 66
     1
 40
0.000000
 41
0.000000
  0
VERTEX
  8
0
  6
CONTINUOUS
 10
6.191240
 20
1.333200
  0
VERTEX
  8
0
  6
CONTINUOUS
 10
6.189480
 20
2.082520
  0
VERTEX
  8
0
  6
CONTINUOUS
 10
6.205320
 20
2.054360
  0
VERTEX
  8
0
  6
CONTINUOUS
 10
6.206640
 20
1.304600
  0
VERTEX
  8
0
  6
CONTINUOUS
 10
6.191240
 20
1.333200
  0
SEQEND
  8
0
  0
SOLID
  8
0
 62
    15
 10
6.206640
 20
1.304600
 11
6.205320
 21
2.054360
 12
6.243160
 22
1.253560
 13
6.241840
 23
2.002880
  0
POLYLINE
  8
0
  6
CONTINUOUS
 66
     1
 40
0.000000
 41
0.000000
  0
VERTEX
  8
0
  6
CONTINUOUS
 10
6.206640
 20
1.304600
  0
VERTEX
  8
0
  6
CONTINUOUS
 10
6.205320
 20
2.054360
  0
VERTEX
  8
0
  6
CONTINUOUS
 10
6.241840
 20
2.002880
  0
VERTEX
  8
0
  6
CONTINUOUS
 10
6.243160
 20
1.253560
  0
VERTEX
  8
0
  6
CONTINUOUS
 10
6.206640
 20
1.304600
  0
SEQEND
  8
0
  0
SOLID
  8
0
 62
    15
 10
6.243160
 20
1.253560
 11
6.241840
 21
2.002880
 12
6.263840
 22
1.231120
 13
6.262080
 23
1.980440
  0
POLYLINE
  8
0
  6
CONTINUOUS
 66
     1
 40
0.000000
 41
0.000000
  0
VERTEX
  8
0
  6
CONTINUOUS
 10
6.243160
 20
1.253560
  0
VERTEX
  8
0
  6
CONTINUOUS
 10
6.241840
 20
2.002880
  0
VERTEX
  8
0
  6
CONTINUOUS
 10
6.262080
 20
1.980440
  0
VERTEX
  8
0
  6
CONTINUOUS
 10
6.263840
 20
1.231120
  0
VERTEX
  8
0
  6
CONTINUOUS
 10
6.243160
 20
1.253560
  0
SEQEND
  8
0
  0
SOLID
  8
0
 62
    15
 10
6.263840
 20
1.231120
 11
6.262080
 21
1.980440
 12
6.284960
 22
1.210880
 13
6.283640
 23
1.960200
  0
POLYLINE
  8
0
  6
CONTINUOUS
 66
     1
 40
0.000000
 41
0.000000
  0
VERTEX
  8
0
  6
CONTINUOUS
 10
6.263840
 20
1.231120
  0
VERTEX
  8
0
  6
CONTINUOUS
 10
6.262080
 20
1.980440
  0
VERTEX
  8
0
  6
CONTINUOUS
 10
6.283640
 20
1.960200
  0
VERTEX
  8
0
  6
CONTINUOUS
 10
6.284960
 20
1.210880
  0
VERTEX
  8
0
  6
CONTINUOUS
 10
6.263840
 20
1.231120
  0
SEQEND
  8
0
  0
SOLID
  8
0
 62
    15
 10
6.284960
 20
1.210880
 11
6.283640
 21
1.960200
 12
6.307400
 22
1.193280
 13
6.306080
 23
1.942600
  0
POLYLINE
  8
0
  6
CONTINUOUS
 66
     1
 40
0.000000
 41
0.000000
  0
VERTEX
  8
0
  6
CONTINUOUS
 10
6.284960
 20
1.210880
  0
VERTEX
  8
0
  6
CONTINUOUS
 10
6.283640
 20
1.960200
  0
VERTEX
  8
0
  6
CONTINUOUS
 10
6.306080
 20
1.942600
  0
VERTEX
  8
0
  6
CONTINUOUS
 10
6.307400
 20
1.193280
  0
VERTEX
  8
0
  6
CONTINUOUS
 10
6.284960
 20
1.210880
  0
SEQEND
  8
0
  0
SOLID
  8
0
 62
    15
 10
6.307400
 20
1.193280
 11
6.306080
 21
1.942600
 12
6.330280
 22
1.178320
 13
6.328960
 23
1.928080
  0
POLYLINE
  8
0
  6
CONTINUOUS
 66
     1
 40
0.000000
 41
0.000000
  0
VERTEX
  8
0
  6
CONTINUOUS
 10
6.307400
 20
1.193280
  0
VERTEX
  8
0
  6
CONTINUOUS
 10
6.306080
 20
1.942600
  0
VERTEX
  8
0
  6
CONTINUOUS
 10
6.328960
 20
1.928080
  0
VERTEX
  8
0
  6
CONTINUOUS
 10
6.330280
 20
1.178320
  0
VERTEX
  8
0
  6
CONTINUOUS
 10
6.307400
 20
1.193280
  0
SEQEND
  8
0
  0
SOLID
  8
0
 62
    15
 10
6.330280
 20
1.178320
 11
6.328960
 21
1.928080
 12
6.353600
 22
1.166440
 13
6.351840
 23
1.916200
  0
POLYLINE
  8
0
  6
CONTINUOUS
 66
     1
 40
0.000000
 41
0.000000
  0
VERTEX
  8
0
  6
CONTINUOUS
 10
6.330280
 20
1.178320
  0
VERTEX
  8
0
  6
CONTINUOUS
 10
6.328960
 20
1.928080
  0
VERTEX
  8
0
  6
CONTINUOUS
 10
6.351840
 20
1.916200
  0
VERTEX
  8
0
  6
CONTINUOUS
 10
6.353600
 20
1.166440
  0
VERTEX
  8
0
  6
CONTINUOUS
 10
6.330280
 20
1.178320
  0
SEQEND
  8
0
  0
SOLID
  8
0
 62
    15
 10
6.353600
 20
1.166440
 11
6.351840
 21
1.916200
 12
6.376480
 22
1.157640
 13
6.375160
 23
1.907400
  0
POLYLINE
  8
0
  6
CONTINUOUS
 66
     1
 40
0.000000
 41
0.000000
  0
VERTEX
  8
0
  6
CONTINUOUS
 10
6.353600
 20
1.166440
  0
VERTEX
  8
0
  6
CONTINUOUS
 10
6.351840
 20
1.916200
  0
VERTEX
  8
0
  6
CONTINUOUS
 10
6.375160
 20
1.907400
  0
VERTEX
  8
0
  6
CONTINUOUS
 10
6.376480
 20
1.157640
  0
VERTEX
  8
0
  6
CONTINUOUS
 10
6.353600
 20
1.166440
  0
SEQEND
  8
0
  0
SOLID
  8
0
 62
    15
 10
6.376480
 20
1.157640
 11
6.375160
 21
1.907400
 12
6.399360
 22
1.152360
 13
6.397600
 23
1.901680
  0
POLYLINE
  8
0
  6
CONTINUOUS
 66
     1
 40
0.000000
 41
0.000000
  0
VERTEX
  8
0
  6
CONTINUOUS
 10
6.376480
 20
1.157640
  0
VERTEX
  8
0
  6
CONTINUOUS
 10
6.375160
 20
1.907400
  0
VERTEX
  8
0
  6
CONTINUOUS
 10
6.397600
 20
1.901680
  0
VERTEX
  8
0
  6
CONTINUOUS
 10
6.399360
 20
1.152360
  0
VERTEX
  8
0
  6
CONTINUOUS
 10
6.376480
 20
1.157640
  0
SEQEND
  8
0
  0
SOLID
  8
0
 62
     7
 10
6.399360
 20
1.152360
 11
6.397600
 21
1.901680
 12
6.421360
 22
1.150600
 13
6.420040
 23
1.899920
  0
POLYLINE
  8
0
  6
CONTINUOUS
 66
     1
 40
0.000000
 41
0.000000
  0
VERTEX
  8
0
  6
CONTINUOUS
 10
6.399360
 20
1.152360
  0
VERTEX
  8
0
  6
CONTINUOUS
 10
6.397600
 20
1.901680
  0
VERTEX
  8
0
  6
CONTINUOUS
 10
6.420040
 20
1.899920
  0
VERTEX
  8
0
  6
CONTINUOUS
 10
6.421360
 20
1.150600
  0
VERTEX
  8
0
  6
CONTINUOUS
 10
6.399360
 20
1.152360
  0
SEQEND
  8
0
  0
POLYLINE
  8
0
  6
CONTINUOUS
 66
     1
 40
0.000000
 41
0.000000
  0
VERTEX
  8
0
  6
CONTINUOUS
 10
6.419600
 20
1.060840
  0
VERTEX
  8
0
  6
CONTINUOUS
 10
5.969480
 20
1.060840
  0
VERTEX
  8
0
  6
CONTINUOUS
 10
5.969480
 20
1.419000
  0
VERTEX
  8
0
  6
CONTINUOUS
 10
5.792160
 20
1.419000
  0
VERTEX
  8
0
  6
CONTINUOUS
 10
5.792600
 20
1.494240
  0
VERTEX
  8
0
  6
CONTINUOUS
 10
5.795240
 20
1.518000
  0
VERTEX
  8
0
  6
CONTINUOUS
 10
5.803160
 20
1.540880
  0
VERTEX
  8
0
  6
CONTINUOUS
 10
5.815920
 20
1.561560
  0
VERTEX
  8
0
  6
CONTINUOUS
 10
5.832640
 20
1.580040
  0
VERTEX
  8
0
  6
CONTINUOUS
 10
5.852880
 20
1.595440
  0
VERTEX
  8
0
  6
CONTINUOUS
 10
5.875320
 20
1.606880
  0
VERTEX
  8
0
  6
CONTINUOUS
 10
5.899960
 20
1.614360
  0
VERTEX
  8
0
  6
CONTINUOUS
 10
5.925920
 20
1.617000
  0
VERTEX
  8
0
  6
CONTINUOUS
 10
5.951440
 20
1.614360
  0
VERTEX
  8
0
  6
CONTINUOUS
 10
5.976080
 20
1.606880
  0
VERTEX
  8
0
  6
CONTINUOUS
 10
5.998960
 20
1.595440
  0
VERTEX
  8
0
  6
CONTINUOUS
 10
6.018760
 20
1.580040
  0
VERTEX
  8
0
  6
CONTINUOUS
 10
6.035480
 20
1.561560
  0
VERTEX
  8
0
  6
CONTINUOUS
 10
6.048240
 20
1.540880
  0
VERTEX
  8
0
  6
CONTINUOUS
 10
6.056160
 20
1.518000
  0
VERTEX
  8
0
  6
CONTINUOUS
 10
6.058800
 20
1.494240
  0
VERTEX
  8
0
  6
CONTINUOUS
 10
6.150760
 20
1.494240
  0
VERTEX
  8
0
  6
CONTINUOUS
 10
6.152960
 20
1.459920
  0
VERTEX
  8
0
  6
CONTINUOUS
 10
6.158240
 20
1.426480
  0
VERTEX
  8
0
  6
CONTINUOUS
 10
6.166600
 20
1.394360
  0
VERTEX
  8
0
  6
CONTINUOUS
 10
6.177600
 20
1.363120
  0
VERTEX
  8
0
  6
CONTINUOUS
 10
6.191240
 20
1.333200
  0
VERTEX
  8
0
  6
CONTINUOUS
 10
6.206640
 20
1.304600
  0
VERTEX
  8
0
  6
CONTINUOUS
 10
6.243160
 20
1.253560
  0
VERTEX
  8
0
  6
CONTINUOUS
 10
6.263840
 20
1.231120
  0
VERTEX
  8
0
  6
CONTINUOUS
 10
6.284960
 20
1.210880
  0
VERTEX
  8
0
  6
CONTINUOUS
 10
6.307400
 20
1.193280
  0
VERTEX
  8
0
  6
CONTINUOUS
 10
6.330280
 20
1.178320
  0
VERTEX
  8
0
  6
CONTINUOUS
 10
6.353600
 20
1.166440
  0
VERTEX
  8
0
  6
CONTINUOUS
 10
6.376480
 20
1.157640
  0
VERTEX
  8
0
  6
CONTINUOUS
 10
6.399360
 20
1.152360
  0
VERTEX
  8
0
  6
CONTINUOUS
 10
6.421360
 20
1.150600
  0
VERTEX
  8
0
  6
CONTINUOUS
 10
6.421360
 20
1.060840
  0
VERTEX
  8
0
  6
CONTINUOUS
 10
6.419600
 20
1.060840
  0
SEQEND
  8
0
  0
TEXT
  8
0
 10
5.809760
 20
0.847440
 40
0.138111
  1
BA  674
 41
1.000000
  7
SN0
 71
     0
 72
     5
 11
6.399597
 21
0.847440
  0
TEXT
  8
0
 10
5.654000
 20
0.656040
 40
0.138111
  1
5/8" x 1-5/8"
 41
1.000000
  7
SN0
 71
     0
 72
     5
 11
6.554124
 21
0.656040
  0
ENDSEC
  0
EOF
