  0
SECTION
  2
HEADER
  9
$ACADVER
  1
AC1006
  9
$EXTMIN
 10
5.215760
 20
0.665280
  9
$EXTMAX
 10
7.605400
 20
2.922480
  9
$LTSCALE
 40
0.044000
  9
$PDMODE
 70
    35
  9
$PDSIZE
 40
0.035200
  0
ENDSEC
  0
SECTION
  2
TABLES
  0
TABLE
  2
LTYPE
 70
     9
  0
LTYPE
  2
CONTINUOUS
 70
    64
  3
Solid line
 72
    65
 73
     0
 40
0.000000
  0
LTYPE
  2
DASHED
 70
    64
  3
__ __ __ __ __ __ __ __ __ __ __ __ __ __ __
 72
    65
 73
     2
 40
0.000330
 49
0.000220
 49
-0.000110
  0
LTYPE
  2
HIDDEN
 70
    64
  3
 _ _ _ _ _ _ _ _ _ _ _ _ _ _ _ _ _ _ _ _ _ _
 72
    65
 73
     2
 40
0.000165
 49
0.000110
 49
-0.000055
  0
LTYPE
  2
CENTER
 70
    64
  3
____ _ ____ _ ____ _ ____ _ ____ _ ____ _ ____
 72
    65
 73
     4
 40
0.000880
 49
0.000550
 49
-0.000110
 49
0.000110
 49
-0.000110
  0
LTYPE
  2
PHANTOM
 70
    64
  3
_____ _ _ _____ _ _ _____ _ _ _____ _ _ ____
 72
    65
 73
     6
 40
0.001100
 49
0.000550
 49
-0.000110
 49
0.000110
 49
-0.000110
 49
0.000110
 49
-0.000110
  0
LTYPE
  2
DOT
 70
    64
  3
...............................................
 72
    65
 73
     2
 40
0.000110
 49
0.000000
 49
-0.000110
  0
LTYPE
  2
DASHDOT
 70
    64
  3
__ . __ . __ . __ . __ . __ . __ . __ . __ . __
 72
    65
 73
     4
 40
0.000440
 49
0.000220
 49
-0.000110
 49
0.000000
 49
-0.000110
  0
LTYPE
  2
BORDER
 70
    64
  3
__ __ . __ __ . __ __ . __ __ . __ __ . __ __
 72
    65
 73
     6
 40
0.000770
 49
0.000220
 49
-0.000110
 49
0.000220
 49
-0.000110
 49
0.000000
 49
-0.000110
  0
LTYPE
  2
DIVIDE
 70
    64
  3
__ . . __ . . __ . . __ . . __ . . __ . . __
 72
    65
 73
     6
 40
0.000550
 49
0.000220
 49
-0.000110
 49
0.000000
 49
-0.000110
 49
0.000000
 49
-0.000110
  0
LTYPE
  2
DOTDOT
 70
    64
  3
 . .  . .  . .  . .  . .  . . 
 72
    65
 73
     5
 40
0.000242
 49
-0.000110
 49
0.000000
 49
-0.000110
 49
0.000000
 49
-0.000110
  0
ENDTAB
  0
TABLE
  2
STYLE
 70
     2
  0
STYLE
 70
     0
  2
SN0
 40
0.000000
 41
0.000440
 50
0.000000
 71
     0
 42
0.000000
  3
ROMAND
  0
STYLE
 70
    68
  2
SV0
 40
0.000000
 41
0.000440
 50
0.000000
 71
     0
 42
0.000000
  3
ROMAND
  0
ENDTAB
  0
TABLE
  2
LAYER
 70
     3
  0
LAYER
  2
FOREGROUND
 70
    64
 62
     7
  6
CONTINUOUS
  0
LAYER
  2
BACKGROUND
 70
    65
 62
    -7
  6
CONTINUOUS
  0
LAYER
  2
0
 70
    64
 62
     7
  6
CONTINUOUS
  0
ENDTAB
  0
ENDSEC
  0
SECTION
  2
ENTITIES
  0
POLYLINE
  8
FOREGROUND
  6
CONTINUOUS
 66
     1
 40
0.000000
 41
0.000000
  0
VERTEX
  8
FOREGROUND
  6
CONTINUOUS
 10
0.000000
 20
3.587760
  0
VERTEX
  8
FOREGROUND
  6
CONTINUOUS
 10
8.499920
 20
3.587760
  0
VERTEX
  8
FOREGROUND
  6
CONTINUOUS
 10
8.499920
 20
-7.412240
  0
VERTEX
  8
FOREGROUND
  6
CONTINUOUS
 10
0.000000
 20
-7.412240
  0
VERTEX
  8
FOREGROUND
  6
CONTINUOUS
 10
0.000000
 20
3.587760
  0
SEQEND
  8
0
  0
POLYLINE
  8
FOREGROUND
  6
CONTINUOUS
 66
     1
 40
0.000000
 41
0.000000
  0
VERTEX
  8
FOREGROUND
  6
CONTINUOUS
 10
0.000000
 20
3.587760
  0
VERTEX
  8
FOREGROUND
  6
CONTINUOUS
 10
8.499920
 20
3.587760
  0
VERTEX
  8
FOREGROUND
  6
CONTINUOUS
 10
8.499920
 20
-7.412240
  0
VERTEX
  8
FOREGROUND
  6
CONTINUOUS
 10
0.000000
 20
-7.412240
  0
VERTEX
  8
FOREGROUND
  6
CONTINUOUS
 10
0.000000
 20
3.587760
  0
SEQEND
  8
0
  0
POLYLINE
  8
0
  6
CONTINUOUS
 66
     1
 40
0.014080
 41
0.014080
  0
VERTEX
  8
0
  6
CONTINUOUS
 10
7.286400
 20
2.279640
  0
VERTEX
  8
0
  6
CONTINUOUS
 10
5.547080
 20
2.279640
  0
VERTEX
  8
0
  6
CONTINUOUS
 10
5.548840
 20
2.354000
  0
VERTEX
  8
0
  6
CONTINUOUS
 10
5.555000
 20
2.415600
  0
VERTEX
  8
0
  6
CONTINUOUS
 10
5.564680
 20
2.475440
  0
VERTEX
  8
0
  6
CONTINUOUS
 10
5.578320
 20
2.532640
  0
VERTEX
  8
0
  6
CONTINUOUS
 10
5.595920
 20
2.587200
  0
VERTEX
  8
0
  6
CONTINUOUS
 10
5.617480
 20
2.639120
  0
VERTEX
  8
0
  6
CONTINUOUS
 10
5.642560
 20
2.687080
  0
VERTEX
  8
0
  6
CONTINUOUS
 10
5.672040
 20
2.731520
  0
VERTEX
  8
0
  6
CONTINUOUS
 10
5.705040
 20
2.772000
  0
VERTEX
  8
0
  6
CONTINUOUS
 10
5.742000
 20
2.808080
  0
VERTEX
  8
0
  6
CONTINUOUS
 10
5.783360
 20
2.839320
  0
VERTEX
  8
0
  6
CONTINUOUS
 10
5.828240
 20
2.865720
  0
VERTEX
  8
0
  6
CONTINUOUS
 10
5.877080
 20
2.886840
  0
VERTEX
  8
0
  6
CONTINUOUS
 10
5.929880
 20
2.902240
  0
VERTEX
  8
0
  6
CONTINUOUS
 10
5.957600
 20
2.907960
  0
VERTEX
  8
0
  6
CONTINUOUS
 10
5.986200
 20
2.911920
  0
VERTEX
  8
0
  6
CONTINUOUS
 10
6.046920
 20
2.915000
  0
VERTEX
  8
0
  6
CONTINUOUS
 10
6.048680
 20
2.877160
  0
VERTEX
  8
0
  6
CONTINUOUS
 10
6.058800
 20
2.822160
  0
VERTEX
  8
0
  6
CONTINUOUS
 10
6.069800
 20
2.787400
  0
VERTEX
  8
0
  6
CONTINUOUS
 10
6.084320
 20
2.753520
  0
VERTEX
  8
0
  6
CONTINUOUS
 10
6.111600
 20
2.706880
  0
VERTEX
  8
0
  6
CONTINUOUS
 10
6.133600
 20
2.677840
  0
VERTEX
  8
0
  6
CONTINUOUS
 10
6.157800
 20
2.651000
  0
VERTEX
  8
0
  6
CONTINUOUS
 10
6.198720
 20
2.615360
  0
VERTEX
  8
0
  6
CONTINUOUS
 10
6.244480
 20
2.585880
  0
VERTEX
  8
0
  6
CONTINUOUS
 10
6.277040
 20
2.570040
  0
VERTEX
  8
0
  6
CONTINUOUS
 10
6.311360
 20
2.557280
  0
VERTEX
  8
0
  6
CONTINUOUS
 10
6.347000
 20
2.548040
  0
VERTEX
  8
0
  6
CONTINUOUS
 10
6.383960
 20
2.541880
  0
VERTEX
  8
0
  6
CONTINUOUS
 10
6.421800
 20
2.540120
  0
VERTEX
  8
0
  6
CONTINUOUS
 10
6.459640
 20
2.541880
  0
VERTEX
  8
0
  6
CONTINUOUS
 10
6.514640
 20
2.552000
  0
VERTEX
  8
0
  6
CONTINUOUS
 10
6.549400
 20
2.563000
  0
VERTEX
  8
0
  6
CONTINUOUS
 10
6.583280
 20
2.577520
  0
VERTEX
  8
0
  6
CONTINUOUS
 10
6.630360
 20
2.604800
  0
VERTEX
  8
0
  6
CONTINUOUS
 10
6.673040
 20
2.638680
  0
VERTEX
  8
0
  6
CONTINUOUS
 10
6.698560
 20
2.664200
  0
VERTEX
  8
0
  6
CONTINUOUS
 10
6.721440
 20
2.691920
  0
VERTEX
  8
0
  6
CONTINUOUS
 10
6.742120
 20
2.721840
  0
VERTEX
  8
0
  6
CONTINUOUS
 10
6.759720
 20
2.753520
  0
VERTEX
  8
0
  6
CONTINUOUS
 10
6.779960
 20
2.804560
  0
VERTEX
  8
0
  6
CONTINUOUS
 10
6.789200
 20
2.840200
  0
VERTEX
  8
0
  6
CONTINUOUS
 10
6.795360
 20
2.877160
  0
VERTEX
  8
0
  6
CONTINUOUS
 10
6.797120
 20
2.915000
  0
VERTEX
  8
0
  6
CONTINUOUS
 10
6.857840
 20
2.911920
  0
VERTEX
  8
0
  6
CONTINUOUS
 10
6.886440
 20
2.907960
  0
VERTEX
  8
0
  6
CONTINUOUS
 10
6.941000
 20
2.895200
  0
VERTEX
  8
0
  6
CONTINUOUS
 10
6.966960
 20
2.886840
  0
VERTEX
  8
0
  6
CONTINUOUS
 10
7.015800
 20
2.865720
  0
VERTEX
  8
0
  6
CONTINUOUS
 10
7.060680
 20
2.839320
  0
VERTEX
  8
0
  6
CONTINUOUS
 10
7.081800
 20
2.824360
  0
VERTEX
  8
0
  6
CONTINUOUS
 10
7.120520
 20
2.790480
  0
VERTEX
  8
0
  6
CONTINUOUS
 10
7.155720
 20
2.752200
  0
VERTEX
  8
0
  6
CONTINUOUS
 10
7.172000
 20
2.731520
  0
VERTEX
  8
0
  6
CONTINUOUS
 10
7.201040
 20
2.687080
  0
VERTEX
  8
0
  6
CONTINUOUS
 10
7.226560
 20
2.639120
  0
VERTEX
  8
0
  6
CONTINUOUS
 10
7.248120
 20
2.587200
  0
VERTEX
  8
0
  6
CONTINUOUS
 10
7.265720
 20
2.532640
  0
VERTEX
  8
0
  6
CONTINUOUS
 10
7.279360
 20
2.475440
  0
VERTEX
  8
0
  6
CONTINUOUS
 10
7.289040
 20
2.415600
  0
VERTEX
  8
0
  6
CONTINUOUS
 10
7.295200
 20
2.354000
  0
VERTEX
  8
0
  6
CONTINUOUS
 10
7.296960
 20
2.290200
  0
VERTEX
  8
0
  6
CONTINUOUS
 10
7.286400
 20
2.279640
  0
SEQEND
  8
0
  0
SOLID
  8
0
 62
    15
 10
6.129200
 20
1.382480
 11
6.768080
 21
1.751640
 12
6.166160
 22
1.388200
 13
6.805040
 23
1.757360
  0
POLYLINE
  8
0
  6
CONTINUOUS
 66
     1
 40
0.000000
 41
0.000000
  0
VERTEX
  8
0
  6
CONTINUOUS
 10
6.129200
 20
1.382480
  0
VERTEX
  8
0
  6
CONTINUOUS
 10
6.768080
 20
1.751640
  0
VERTEX
  8
0
  6
CONTINUOUS
 10
6.805040
 20
1.757360
  0
VERTEX
  8
0
  6
CONTINUOUS
 10
6.166160
 20
1.388200
  0
VERTEX
  8
0
  6
CONTINUOUS
 10
6.129200
 20
1.382480
  0
SEQEND
  8
0
  0
SOLID
  8
0
 62
    15
 10
5.546640
 20
1.727000
 11
6.185520
 21
2.096600
 12
5.599000
 22
1.742840
 13
6.238320
 23
2.112000
  0
POLYLINE
  8
0
  6
CONTINUOUS
 66
     1
 40
0.000000
 41
0.000000
  0
VERTEX
  8
0
  6
CONTINUOUS
 10
5.546640
 20
1.727000
  0
VERTEX
  8
0
  6
CONTINUOUS
 10
6.185520
 20
2.096600
  0
VERTEX
  8
0
  6
CONTINUOUS
 10
6.238320
 20
2.112000
  0
VERTEX
  8
0
  6
CONTINUOUS
 10
5.599000
 20
1.742840
  0
VERTEX
  8
0
  6
CONTINUOUS
 10
5.546640
 20
1.727000
  0
SEQEND
  8
0
  0
SOLID
  8
0
 62
    15
 10
5.599000
 20
1.742840
 11
6.238320
 21
2.112000
 12
5.655760
 22
1.752080
 13
6.294640
 23
2.121680
  0
POLYLINE
  8
0
  6
CONTINUOUS
 66
     1
 40
0.000000
 41
0.000000
  0
VERTEX
  8
0
  6
CONTINUOUS
 10
5.599000
 20
1.742840
  0
VERTEX
  8
0
  6
CONTINUOUS
 10
6.238320
 20
2.112000
  0
VERTEX
  8
0
  6
CONTINUOUS
 10
6.294640
 20
2.121680
  0
VERTEX
  8
0
  6
CONTINUOUS
 10
5.655760
 20
1.752080
  0
VERTEX
  8
0
  6
CONTINUOUS
 10
5.599000
 20
1.742840
  0
SEQEND
  8
0
  0
SOLID
  8
0
 62
    15
 10
5.655760
 20
1.752080
 11
6.294640
 21
2.121680
 12
5.716480
 22
1.755600
 13
6.355360
 23
2.124760
  0
POLYLINE
  8
0
  6
CONTINUOUS
 66
     1
 40
0.000000
 41
0.000000
  0
VERTEX
  8
0
  6
CONTINUOUS
 10
5.655760
 20
1.752080
  0
VERTEX
  8
0
  6
CONTINUOUS
 10
6.294640
 20
2.121680
  0
VERTEX
  8
0
  6
CONTINUOUS
 10
6.355360
 20
2.124760
  0
VERTEX
  8
0
  6
CONTINUOUS
 10
5.716480
 20
1.755600
  0
VERTEX
  8
0
  6
CONTINUOUS
 10
5.655760
 20
1.752080
  0
SEQEND
  8
0
  0
SOLID
  8
0
 62
    15
 10
5.716480
 20
1.755600
 11
6.355360
 21
2.124760
 12
5.718240
 22
1.717760
 13
6.357560
 23
2.086920
  0
POLYLINE
  8
0
  6
CONTINUOUS
 66
     1
 40
0.000000
 41
0.000000
  0
VERTEX
  8
0
  6
CONTINUOUS
 10
5.716480
 20
1.755600
  0
VERTEX
  8
0
  6
CONTINUOUS
 10
6.355360
 20
2.124760
  0
VERTEX
  8
0
  6
CONTINUOUS
 10
6.357560
 20
2.086920
  0
VERTEX
  8
0
  6
CONTINUOUS
 10
5.718240
 20
1.717760
  0
VERTEX
  8
0
  6
CONTINUOUS
 10
5.716480
 20
1.755600
  0
SEQEND
  8
0
  0
SOLID
  8
0
 62
    15
 10
5.718240
 20
1.717760
 11
6.357560
 21
2.086920
 12
5.723960
 22
1.680800
 13
6.363280
 23
2.049960
  0
POLYLINE
  8
0
  6
CONTINUOUS
 66
     1
 40
0.000000
 41
0.000000
  0
VERTEX
  8
0
  6
CONTINUOUS
 10
5.718240
 20
1.717760
  0
VERTEX
  8
0
  6
CONTINUOUS
 10
6.357560
 20
2.086920
  0
VERTEX
  8
0
  6
CONTINUOUS
 10
6.363280
 20
2.049960
  0
VERTEX
  8
0
  6
CONTINUOUS
 10
5.723960
 20
1.680800
  0
VERTEX
  8
0
  6
CONTINUOUS
 10
5.718240
 20
1.717760
  0
SEQEND
  8
0
  0
SOLID
  8
0
 62
    15
 10
5.723960
 20
1.680800
 11
6.363280
 21
2.049960
 12
5.733640
 22
1.645160
 13
6.372520
 23
2.014320
  0
POLYLINE
  8
0
  6
CONTINUOUS
 66
     1
 40
0.000000
 41
0.000000
  0
VERTEX
  8
0
  6
CONTINUOUS
 10
5.723960
 20
1.680800
  0
VERTEX
  8
0
  6
CONTINUOUS
 10
6.363280
 20
2.049960
  0
VERTEX
  8
0
  6
CONTINUOUS
 10
6.372520
 20
2.014320
  0
VERTEX
  8
0
  6
CONTINUOUS
 10
5.733640
 20
1.645160
  0
VERTEX
  8
0
  6
CONTINUOUS
 10
5.723960
 20
1.680800
  0
SEQEND
  8
0
  0
SOLID
  8
0
 62
    15
 10
5.733640
 20
1.645160
 11
6.372520
 21
2.014320
 12
5.746400
 22
1.610840
 13
6.385280
 23
1.980000
  0
POLYLINE
  8
0
  6
CONTINUOUS
 66
     1
 40
0.000000
 41
0.000000
  0
VERTEX
  8
0
  6
CONTINUOUS
 10
5.733640
 20
1.645160
  0
VERTEX
  8
0
  6
CONTINUOUS
 10
6.372520
 20
2.014320
  0
VERTEX
  8
0
  6
CONTINUOUS
 10
6.385280
 20
1.980000
  0
VERTEX
  8
0
  6
CONTINUOUS
 10
5.746400
 20
1.610840
  0
VERTEX
  8
0
  6
CONTINUOUS
 10
5.733640
 20
1.645160
  0
SEQEND
  8
0
  0
SOLID
  8
0
 62
    15
 10
5.746400
 20
1.610840
 11
6.385280
 21
1.980000
 12
5.762240
 22
1.577840
 13
6.401120
 23
1.947440
  0
POLYLINE
  8
0
  6
CONTINUOUS
 66
     1
 40
0.000000
 41
0.000000
  0
VERTEX
  8
0
  6
CONTINUOUS
 10
5.746400
 20
1.610840
  0
VERTEX
  8
0
  6
CONTINUOUS
 10
6.385280
 20
1.980000
  0
VERTEX
  8
0
  6
CONTINUOUS
 10
6.401120
 20
1.947440
  0
VERTEX
  8
0
  6
CONTINUOUS
 10
5.762240
 20
1.577840
  0
VERTEX
  8
0
  6
CONTINUOUS
 10
5.746400
 20
1.610840
  0
SEQEND
  8
0
  0
SOLID
  8
0
 62
    15
 10
5.762240
 20
1.577840
 11
6.401120
 21
1.947440
 12
5.781160
 22
1.547040
 13
6.420040
 23
1.916640
  0
POLYLINE
  8
0
  6
CONTINUOUS
 66
     1
 40
0.000000
 41
0.000000
  0
VERTEX
  8
0
  6
CONTINUOUS
 10
5.762240
 20
1.577840
  0
VERTEX
  8
0
  6
CONTINUOUS
 10
6.401120
 20
1.947440
  0
VERTEX
  8
0
  6
CONTINUOUS
 10
6.420040
 20
1.916640
  0
VERTEX
  8
0
  6
CONTINUOUS
 10
5.781160
 20
1.547040
  0
VERTEX
  8
0
  6
CONTINUOUS
 10
5.762240
 20
1.577840
  0
SEQEND
  8
0
  0
SOLID
  8
0
 62
    15
 10
5.781160
 20
1.547040
 11
6.420040
 21
1.916640
 12
5.803160
 22
1.518000
 13
6.442040
 23
1.887600
  0
POLYLINE
  8
0
  6
CONTINUOUS
 66
     1
 40
0.000000
 41
0.000000
  0
VERTEX
  8
0
  6
CONTINUOUS
 10
5.781160
 20
1.547040
  0
VERTEX
  8
0
  6
CONTINUOUS
 10
6.420040
 20
1.916640
  0
VERTEX
  8
0
  6
CONTINUOUS
 10
6.442040
 20
1.887600
  0
VERTEX
  8
0
  6
CONTINUOUS
 10
5.803160
 20
1.518000
  0
VERTEX
  8
0
  6
CONTINUOUS
 10
5.781160
 20
1.547040
  0
SEQEND
  8
0
  0
SOLID
  8
0
 62
    15
 10
5.803160
 20
1.518000
 11
6.442040
 21
1.887600
 12
5.827360
 22
1.491600
 13
6.466240
 23
1.860760
  0
POLYLINE
  8
0
  6
CONTINUOUS
 66
     1
 40
0.000000
 41
0.000000
  0
VERTEX
  8
0
  6
CONTINUOUS
 10
5.803160
 20
1.518000
  0
VERTEX
  8
0
  6
CONTINUOUS
 10
6.442040
 20
1.887600
  0
VERTEX
  8
0
  6
CONTINUOUS
 10
6.466240
 20
1.860760
  0
VERTEX
  8
0
  6
CONTINUOUS
 10
5.827360
 20
1.491600
  0
VERTEX
  8
0
  6
CONTINUOUS
 10
5.803160
 20
1.518000
  0
SEQEND
  8
0
  0
SOLID
  8
0
 62
    15
 10
5.827360
 20
1.491600
 11
6.466240
 21
1.860760
 12
5.854200
 22
1.466960
 13
6.493080
 23
1.836560
  0
POLYLINE
  8
0
  6
CONTINUOUS
 66
     1
 40
0.000000
 41
0.000000
  0
VERTEX
  8
0
  6
CONTINUOUS
 10
5.827360
 20
1.491600
  0
VERTEX
  8
0
  6
CONTINUOUS
 10
6.466240
 20
1.860760
  0
VERTEX
  8
0
  6
CONTINUOUS
 10
6.493080
 20
1.836560
  0
VERTEX
  8
0
  6
CONTINUOUS
 10
5.854200
 20
1.466960
  0
VERTEX
  8
0
  6
CONTINUOUS
 10
5.827360
 20
1.491600
  0
SEQEND
  8
0
  0
SOLID
  8
0
 62
    15
 10
5.854200
 20
1.466960
 11
6.493080
 21
1.836560
 12
5.883240
 22
1.445400
 13
6.522120
 23
1.814560
  0
POLYLINE
  8
0
  6
CONTINUOUS
 66
     1
 40
0.000000
 41
0.000000
  0
VERTEX
  8
0
  6
CONTINUOUS
 10
5.854200
 20
1.466960
  0
VERTEX
  8
0
  6
CONTINUOUS
 10
6.493080
 20
1.836560
  0
VERTEX
  8
0
  6
CONTINUOUS
 10
6.522120
 20
1.814560
  0
VERTEX
  8
0
  6
CONTINUOUS
 10
5.883240
 20
1.445400
  0
VERTEX
  8
0
  6
CONTINUOUS
 10
5.854200
 20
1.466960
  0
SEQEND
  8
0
  0
SOLID
  8
0
 62
    15
 10
5.883240
 20
1.445400
 11
6.522120
 21
1.814560
 12
5.914040
 22
1.426480
 13
6.552920
 23
1.795640
  0
POLYLINE
  8
0
  6
CONTINUOUS
 66
     1
 40
0.000000
 41
0.000000
  0
VERTEX
  8
0
  6
CONTINUOUS
 10
5.883240
 20
1.445400
  0
VERTEX
  8
0
  6
CONTINUOUS
 10
6.522120
 20
1.814560
  0
VERTEX
  8
0
  6
CONTINUOUS
 10
6.552920
 20
1.795640
  0
VERTEX
  8
0
  6
CONTINUOUS
 10
5.914040
 20
1.426480
  0
VERTEX
  8
0
  6
CONTINUOUS
 10
5.883240
 20
1.445400
  0
SEQEND
  8
0
  0
SOLID
  8
0
 62
    15
 10
5.914040
 20
1.426480
 11
6.552920
 21
1.795640
 12
5.946600
 22
1.410200
 13
6.585480
 23
1.779800
  0
POLYLINE
  8
0
  6
CONTINUOUS
 66
     1
 40
0.000000
 41
0.000000
  0
VERTEX
  8
0
  6
CONTINUOUS
 10
5.914040
 20
1.426480
  0
VERTEX
  8
0
  6
CONTINUOUS
 10
6.552920
 20
1.795640
  0
VERTEX
  8
0
  6
CONTINUOUS
 10
6.585480
 20
1.779800
  0
VERTEX
  8
0
  6
CONTINUOUS
 10
5.946600
 20
1.410200
  0
VERTEX
  8
0
  6
CONTINUOUS
 10
5.914040
 20
1.426480
  0
SEQEND
  8
0
  0
SOLID
  8
0
 62
    15
 10
5.946600
 20
1.410200
 11
6.585480
 21
1.779800
 12
5.980920
 22
1.397440
 13
6.619800
 23
1.767040
  0
POLYLINE
  8
0
  6
CONTINUOUS
 66
     1
 40
0.000000
 41
0.000000
  0
VERTEX
  8
0
  6
CONTINUOUS
 10
5.946600
 20
1.410200
  0
VERTEX
  8
0
  6
CONTINUOUS
 10
6.585480
 20
1.779800
  0
VERTEX
  8
0
  6
CONTINUOUS
 10
6.619800
 20
1.767040
  0
VERTEX
  8
0
  6
CONTINUOUS
 10
5.980920
 20
1.397440
  0
VERTEX
  8
0
  6
CONTINUOUS
 10
5.946600
 20
1.410200
  0
SEQEND
  8
0
  0
SOLID
  8
0
 62
    15
 10
5.980920
 20
1.397440
 11
6.619800
 21
1.767040
 12
6.016560
 22
1.388200
 13
6.655880
 23
1.757360
  0
POLYLINE
  8
0
  6
CONTINUOUS
 66
     1
 40
0.000000
 41
0.000000
  0
VERTEX
  8
0
  6
CONTINUOUS
 10
5.980920
 20
1.397440
  0
VERTEX
  8
0
  6
CONTINUOUS
 10
6.619800
 20
1.767040
  0
VERTEX
  8
0
  6
CONTINUOUS
 10
6.655880
 20
1.757360
  0
VERTEX
  8
0
  6
CONTINUOUS
 10
6.016560
 20
1.388200
  0
VERTEX
  8
0
  6
CONTINUOUS
 10
5.980920
 20
1.397440
  0
SEQEND
  8
0
  0
SOLID
  8
0
 62
    15
 10
6.016560
 20
1.388200
 11
6.655880
 21
1.757360
 12
6.053520
 22
1.382480
 13
6.692400
 23
1.751640
  0
POLYLINE
  8
0
  6
CONTINUOUS
 66
     1
 40
0.000000
 41
0.000000
  0
VERTEX
  8
0
  6
CONTINUOUS
 10
6.016560
 20
1.388200
  0
VERTEX
  8
0
  6
CONTINUOUS
 10
6.655880
 20
1.757360
  0
VERTEX
  8
0
  6
CONTINUOUS
 10
6.692400
 20
1.751640
  0
VERTEX
  8
0
  6
CONTINUOUS
 10
6.053520
 20
1.382480
  0
VERTEX
  8
0
  6
CONTINUOUS
 10
6.016560
 20
1.388200
  0
SEQEND
  8
0
  0
SOLID
  8
0
 62
    15
 10
6.053520
 20
1.382480
 11
6.692400
 21
1.751640
 12
6.091360
 22
1.380280
 13
6.730240
 23
1.749880
  0
POLYLINE
  8
0
  6
CONTINUOUS
 66
     1
 40
0.000000
 41
0.000000
  0
VERTEX
  8
0
  6
CONTINUOUS
 10
6.053520
 20
1.382480
  0
VERTEX
  8
0
  6
CONTINUOUS
 10
6.692400
 20
1.751640
  0
VERTEX
  8
0
  6
CONTINUOUS
 10
6.730240
 20
1.749880
  0
VERTEX
  8
0
  6
CONTINUOUS
 10
6.091360
 20
1.380280
  0
VERTEX
  8
0
  6
CONTINUOUS
 10
6.053520
 20
1.382480
  0
SEQEND
  8
0
  0
SOLID
  8
0
 62
    15
 10
6.091360
 20
1.380280
 11
6.730240
 21
1.749880
 12
6.129200
 22
1.382480
 13
6.768080
 23
1.751640
  0
POLYLINE
  8
0
  6
CONTINUOUS
 66
     1
 40
0.000000
 41
0.000000
  0
VERTEX
  8
0
  6
CONTINUOUS
 10
6.091360
 20
1.380280
  0
VERTEX
  8
0
  6
CONTINUOUS
 10
6.730240
 20
1.749880
  0
VERTEX
  8
0
  6
CONTINUOUS
 10
6.768080
 20
1.751640
  0
VERTEX
  8
0
  6
CONTINUOUS
 10
6.129200
 20
1.382480
  0
VERTEX
  8
0
  6
CONTINUOUS
 10
6.091360
 20
1.380280
  0
SEQEND
  8
0
  0
SOLID
  8
0
 62
    15
 10
5.497800
 20
1.706320
 11
6.136680
 21
2.075480
 12
5.546640
 22
1.727000
 13
6.185520
 23
2.096600
  0
POLYLINE
  8
0
  6
CONTINUOUS
 66
     1
 40
0.000000
 41
0.000000
  0
VERTEX
  8
0
  6
CONTINUOUS
 10
5.497800
 20
1.706320
  0
VERTEX
  8
0
  6
CONTINUOUS
 10
6.136680
 20
2.075480
  0
VERTEX
  8
0
  6
CONTINUOUS
 10
6.185520
 20
2.096600
  0
VERTEX
  8
0
  6
CONTINUOUS
 10
5.546640
 20
1.727000
  0
VERTEX
  8
0
  6
CONTINUOUS
 10
5.497800
 20
1.706320
  0
SEQEND
  8
0
  0
SOLID
  8
0
 62
    15
 10
6.166160
 20
1.388200
 11
6.805040
 21
1.757360
 12
6.201800
 22
1.397440
 13
6.840680
 23
1.767040
  0
POLYLINE
  8
0
  6
CONTINUOUS
 66
     1
 40
0.000000
 41
0.000000
  0
VERTEX
  8
0
  6
CONTINUOUS
 10
6.166160
 20
1.388200
  0
VERTEX
  8
0
  6
CONTINUOUS
 10
6.805040
 20
1.757360
  0
VERTEX
  8
0
  6
CONTINUOUS
 10
6.840680
 20
1.767040
  0
VERTEX
  8
0
  6
CONTINUOUS
 10
6.201800
 20
1.397440
  0
VERTEX
  8
0
  6
CONTINUOUS
 10
6.166160
 20
1.388200
  0
SEQEND
  8
0
  0
SOLID
  8
0
 62
    15
 10
6.201800
 20
1.397440
 11
6.840680
 21
1.767040
 12
6.236120
 22
1.410200
 13
6.875000
 23
1.779800
  0
POLYLINE
  8
0
  6
CONTINUOUS
 66
     1
 40
0.000000
 41
0.000000
  0
VERTEX
  8
0
  6
CONTINUOUS
 10
6.201800
 20
1.397440
  0
VERTEX
  8
0
  6
CONTINUOUS
 10
6.840680
 20
1.767040
  0
VERTEX
  8
0
  6
CONTINUOUS
 10
6.875000
 20
1.779800
  0
VERTEX
  8
0
  6
CONTINUOUS
 10
6.236120
 20
1.410200
  0
VERTEX
  8
0
  6
CONTINUOUS
 10
6.201800
 20
1.397440
  0
SEQEND
  8
0
  0
SOLID
  8
0
 62
    15
 10
6.236120
 20
1.410200
 11
6.875000
 21
1.779800
 12
6.268680
 22
1.426480
 13
6.908000
 23
1.795640
  0
POLYLINE
  8
0
  6
CONTINUOUS
 66
     1
 40
0.000000
 41
0.000000
  0
VERTEX
  8
0
  6
CONTINUOUS
 10
6.236120
 20
1.410200
  0
VERTEX
  8
0
  6
CONTINUOUS
 10
6.875000
 20
1.779800
  0
VERTEX
  8
0
  6
CONTINUOUS
 10
6.908000
 20
1.795640
  0
VERTEX
  8
0
  6
CONTINUOUS
 10
6.268680
 20
1.426480
  0
VERTEX
  8
0
  6
CONTINUOUS
 10
6.236120
 20
1.410200
  0
SEQEND
  8
0
  0
SOLID
  8
0
 62
    15
 10
6.466240
 20
1.755600
 11
7.105560
 21
2.124760
 12
6.526960
 22
1.752080
 13
7.165840
 23
2.121680
  0
POLYLINE
  8
0
  6
CONTINUOUS
 66
     1
 40
0.000000
 41
0.000000
  0
VERTEX
  8
0
  6
CONTINUOUS
 10
6.466240
 20
1.755600
  0
VERTEX
  8
0
  6
CONTINUOUS
 10
7.105560
 20
2.124760
  0
VERTEX
  8
0
  6
CONTINUOUS
 10
7.165840
 20
2.121680
  0
VERTEX
  8
0
  6
CONTINUOUS
 10
6.526960
 20
1.752080
  0
VERTEX
  8
0
  6
CONTINUOUS
 10
6.466240
 20
1.755600
  0
SEQEND
  8
0
  0
SOLID
  8
0
 62
    15
 10
6.526960
 20
1.752080
 11
7.165840
 21
2.121680
 12
6.583720
 22
1.742840
 13
7.222600
 23
2.112000
  0
POLYLINE
  8
0
  6
CONTINUOUS
 66
     1
 40
0.000000
 41
0.000000
  0
VERTEX
  8
0
  6
CONTINUOUS
 10
6.526960
 20
1.752080
  0
VERTEX
  8
0
  6
CONTINUOUS
 10
7.165840
 20
2.121680
  0
VERTEX
  8
0
  6
CONTINUOUS
 10
7.222600
 20
2.112000
  0
VERTEX
  8
0
  6
CONTINUOUS
 10
6.583720
 20
1.742840
  0
VERTEX
  8
0
  6
CONTINUOUS
 10
6.526960
 20
1.752080
  0
SEQEND
  8
0
  0
SOLID
  8
0
 62
    15
 10
6.583720
 20
1.742840
 11
7.222600
 21
2.112000
 12
6.636080
 22
1.727000
 13
7.275400
 23
2.096600
  0
POLYLINE
  8
0
  6
CONTINUOUS
 66
     1
 40
0.000000
 41
0.000000
  0
VERTEX
  8
0
  6
CONTINUOUS
 10
6.583720
 20
1.742840
  0
VERTEX
  8
0
  6
CONTINUOUS
 10
7.222600
 20
2.112000
  0
VERTEX
  8
0
  6
CONTINUOUS
 10
7.275400
 20
2.096600
  0
VERTEX
  8
0
  6
CONTINUOUS
 10
6.636080
 20
1.727000
  0
VERTEX
  8
0
  6
CONTINUOUS
 10
6.583720
 20
1.742840
  0
SEQEND
  8
0
  0
SOLID
  8
0
 62
    15
 10
6.636080
 20
1.727000
 11
7.275400
 21
2.096600
 12
6.684920
 22
1.706320
 13
7.324240
 23
2.075480
  0
POLYLINE
  8
0
  6
CONTINUOUS
 66
     1
 40
0.000000
 41
0.000000
  0
VERTEX
  8
0
  6
CONTINUOUS
 10
6.636080
 20
1.727000
  0
VERTEX
  8
0
  6
CONTINUOUS
 10
7.275400
 20
2.096600
  0
VERTEX
  8
0
  6
CONTINUOUS
 10
7.324240
 20
2.075480
  0
VERTEX
  8
0
  6
CONTINUOUS
 10
6.684920
 20
1.706320
  0
VERTEX
  8
0
  6
CONTINUOUS
 10
6.636080
 20
1.727000
  0
SEQEND
  8
0
  0
SOLID
  8
0
 62
    15
 10
6.684920
 20
1.706320
 11
7.324240
 21
2.075480
 12
6.730240
 22
1.679920
 13
7.369120
 23
2.049080
  0
POLYLINE
  8
0
  6
CONTINUOUS
 66
     1
 40
0.000000
 41
0.000000
  0
VERTEX
  8
0
  6
CONTINUOUS
 10
6.684920
 20
1.706320
  0
VERTEX
  8
0
  6
CONTINUOUS
 10
7.324240
 20
2.075480
  0
VERTEX
  8
0
  6
CONTINUOUS
 10
7.369120
 20
2.049080
  0
VERTEX
  8
0
  6
CONTINUOUS
 10
6.730240
 20
1.679920
  0
VERTEX
  8
0
  6
CONTINUOUS
 10
6.684920
 20
1.706320
  0
SEQEND
  8
0
  0
SOLID
  8
0
 62
    15
 10
6.730240
 20
1.679920
 11
7.369120
 21
2.049080
 12
6.771160
 22
1.648240
 13
7.410040
 23
2.017840
  0
POLYLINE
  8
0
  6
CONTINUOUS
 66
     1
 40
0.000000
 41
0.000000
  0
VERTEX
  8
0
  6
CONTINUOUS
 10
6.730240
 20
1.679920
  0
VERTEX
  8
0
  6
CONTINUOUS
 10
7.369120
 20
2.049080
  0
VERTEX
  8
0
  6
CONTINUOUS
 10
7.410040
 20
2.017840
  0
VERTEX
  8
0
  6
CONTINUOUS
 10
6.771160
 20
1.648240
  0
VERTEX
  8
0
  6
CONTINUOUS
 10
6.730240
 20
1.679920
  0
SEQEND
  8
0
  0
SOLID
  8
0
 62
    15
 10
6.771160
 20
1.648240
 11
7.410040
 21
2.017840
 12
6.808120
 22
1.612160
 13
7.447000
 23
1.981760
  0
POLYLINE
  8
0
  6
CONTINUOUS
 66
     1
 40
0.000000
 41
0.000000
  0
VERTEX
  8
0
  6
CONTINUOUS
 10
6.771160
 20
1.648240
  0
VERTEX
  8
0
  6
CONTINUOUS
 10
7.410040
 20
2.017840
  0
VERTEX
  8
0
  6
CONTINUOUS
 10
7.447000
 20
1.981760
  0
VERTEX
  8
0
  6
CONTINUOUS
 10
6.808120
 20
1.612160
  0
VERTEX
  8
0
  6
CONTINUOUS
 10
6.771160
 20
1.648240
  0
SEQEND
  8
0
  0
SOLID
  8
0
 62
    15
 10
6.808120
 20
1.612160
 11
7.447000
 21
1.981760
 12
6.841560
 22
1.571680
 13
7.480440
 23
1.941280
  0
POLYLINE
  8
0
  6
CONTINUOUS
 66
     1
 40
0.000000
 41
0.000000
  0
VERTEX
  8
0
  6
CONTINUOUS
 10
6.808120
 20
1.612160
  0
VERTEX
  8
0
  6
CONTINUOUS
 10
7.447000
 20
1.981760
  0
VERTEX
  8
0
  6
CONTINUOUS
 10
7.480440
 20
1.941280
  0
VERTEX
  8
0
  6
CONTINUOUS
 10
6.841560
 20
1.571680
  0
VERTEX
  8
0
  6
CONTINUOUS
 10
6.808120
 20
1.612160
  0
SEQEND
  8
0
  0
SOLID
  8
0
 62
    15
 10
6.841560
 20
1.571680
 11
7.480440
 21
1.941280
 12
6.870600
 22
1.527240
 13
7.509480
 23
1.896840
  0
POLYLINE
  8
0
  6
CONTINUOUS
 66
     1
 40
0.000000
 41
0.000000
  0
VERTEX
  8
0
  6
CONTINUOUS
 10
6.841560
 20
1.571680
  0
VERTEX
  8
0
  6
CONTINUOUS
 10
7.480440
 20
1.941280
  0
VERTEX
  8
0
  6
CONTINUOUS
 10
7.509480
 20
1.896840
  0
VERTEX
  8
0
  6
CONTINUOUS
 10
6.870600
 20
1.527240
  0
VERTEX
  8
0
  6
CONTINUOUS
 10
6.841560
 20
1.571680
  0
SEQEND
  8
0
  0
SOLID
  8
0
 62
    15
 10
6.870600
 20
1.527240
 11
7.509480
 21
1.896840
 12
6.896120
 22
1.479280
 13
7.535000
 23
1.848440
  0
POLYLINE
  8
0
  6
CONTINUOUS
 66
     1
 40
0.000000
 41
0.000000
  0
VERTEX
  8
0
  6
CONTINUOUS
 10
6.870600
 20
1.527240
  0
VERTEX
  8
0
  6
CONTINUOUS
 10
7.509480
 20
1.896840
  0
VERTEX
  8
0
  6
CONTINUOUS
 10
7.535000
 20
1.848440
  0
VERTEX
  8
0
  6
CONTINUOUS
 10
6.896120
 20
1.479280
  0
VERTEX
  8
0
  6
CONTINUOUS
 10
6.870600
 20
1.527240
  0
SEQEND
  8
0
  0
SOLID
  8
0
 62
    15
 10
6.896120
 20
1.479280
 11
7.535000
 21
1.848440
 12
6.917680
 22
1.427800
 13
7.556560
 23
1.796960
  0
POLYLINE
  8
0
  6
CONTINUOUS
 66
     1
 40
0.000000
 41
0.000000
  0
VERTEX
  8
0
  6
CONTINUOUS
 10
6.896120
 20
1.479280
  0
VERTEX
  8
0
  6
CONTINUOUS
 10
7.535000
 20
1.848440
  0
VERTEX
  8
0
  6
CONTINUOUS
 10
7.556560
 20
1.796960
  0
VERTEX
  8
0
  6
CONTINUOUS
 10
6.917680
 20
1.427800
  0
VERTEX
  8
0
  6
CONTINUOUS
 10
6.896120
 20
1.479280
  0
SEQEND
  8
0
  0
SOLID
  8
0
 62
    15
 10
6.917680
 20
1.427800
 11
7.556560
 21
1.796960
 12
6.935280
 22
1.373240
 13
7.574160
 23
1.742400
  0
POLYLINE
  8
0
  6
CONTINUOUS
 66
     1
 40
0.000000
 41
0.000000
  0
VERTEX
  8
0
  6
CONTINUOUS
 10
6.917680
 20
1.427800
  0
VERTEX
  8
0
  6
CONTINUOUS
 10
7.556560
 20
1.796960
  0
VERTEX
  8
0
  6
CONTINUOUS
 10
7.574160
 20
1.742400
  0
VERTEX
  8
0
  6
CONTINUOUS
 10
6.935280
 20
1.373240
  0
VERTEX
  8
0
  6
CONTINUOUS
 10
6.917680
 20
1.427800
  0
SEQEND
  8
0
  0
SOLID
  8
0
 62
    15
 10
6.935280
 20
1.373240
 11
7.574160
 21
1.742400
 12
6.948920
 22
1.315600
 13
7.587800
 23
1.685200
  0
POLYLINE
  8
0
  6
CONTINUOUS
 66
     1
 40
0.000000
 41
0.000000
  0
VERTEX
  8
0
  6
CONTINUOUS
 10
6.935280
 20
1.373240
  0
VERTEX
  8
0
  6
CONTINUOUS
 10
7.574160
 20
1.742400
  0
VERTEX
  8
0
  6
CONTINUOUS
 10
7.587800
 20
1.685200
  0
VERTEX
  8
0
  6
CONTINUOUS
 10
6.948920
 20
1.315600
  0
VERTEX
  8
0
  6
CONTINUOUS
 10
6.935280
 20
1.373240
  0
SEQEND
  8
0
  0
SOLID
  8
0
 62
    15
 10
6.948920
 20
1.315600
 11
7.587800
 21
1.685200
 12
6.958600
 22
1.256200
 13
7.597480
 23
1.625360
  0
POLYLINE
  8
0
  6
CONTINUOUS
 66
     1
 40
0.000000
 41
0.000000
  0
VERTEX
  8
0
  6
CONTINUOUS
 10
6.948920
 20
1.315600
  0
VERTEX
  8
0
  6
CONTINUOUS
 10
7.587800
 20
1.685200
  0
VERTEX
  8
0
  6
CONTINUOUS
 10
7.597480
 20
1.625360
  0
VERTEX
  8
0
  6
CONTINUOUS
 10
6.958600
 20
1.256200
  0
VERTEX
  8
0
  6
CONTINUOUS
 10
6.948920
 20
1.315600
  0
SEQEND
  8
0
  0
SOLID
  8
0
 62
    15
 10
6.958600
 20
1.256200
 11
7.597480
 21
1.625360
 12
6.964320
 22
1.194160
 13
7.603640
 23
1.563320
  0
POLYLINE
  8
0
  6
CONTINUOUS
 66
     1
 40
0.000000
 41
0.000000
  0
VERTEX
  8
0
  6
CONTINUOUS
 10
6.958600
 20
1.256200
  0
VERTEX
  8
0
  6
CONTINUOUS
 10
7.597480
 20
1.625360
  0
VERTEX
  8
0
  6
CONTINUOUS
 10
7.603640
 20
1.563320
  0
VERTEX
  8
0
  6
CONTINUOUS
 10
6.964320
 20
1.194160
  0
VERTEX
  8
0
  6
CONTINUOUS
 10
6.958600
 20
1.256200
  0
SEQEND
  8
0
  0
SOLID
  8
0
 62
    15
 10
6.964320
 20
1.194160
 11
7.603640
 21
1.563320
 12
6.966520
 22
1.130360
 13
7.605400
 23
1.499960
  0
POLYLINE
  8
0
  6
CONTINUOUS
 66
     1
 40
0.000000
 41
0.000000
  0
VERTEX
  8
0
  6
CONTINUOUS
 10
6.964320
 20
1.194160
  0
VERTEX
  8
0
  6
CONTINUOUS
 10
7.603640
 20
1.563320
  0
VERTEX
  8
0
  6
CONTINUOUS
 10
7.605400
 20
1.499960
  0
VERTEX
  8
0
  6
CONTINUOUS
 10
6.966520
 20
1.130360
  0
VERTEX
  8
0
  6
CONTINUOUS
 10
6.964320
 20
1.194160
  0
SEQEND
  8
0
  0
SOLID
  8
0
 62
    15
 10
6.966520
 20
1.130360
 11
7.605400
 21
1.499960
 12
6.955960
 22
1.119800
 13
7.594840
 23
1.489400
  0
POLYLINE
  8
0
  6
CONTINUOUS
 66
     1
 40
0.000000
 41
0.000000
  0
VERTEX
  8
0
  6
CONTINUOUS
 10
6.966520
 20
1.130360
  0
VERTEX
  8
0
  6
CONTINUOUS
 10
7.605400
 20
1.499960
  0
VERTEX
  8
0
  6
CONTINUOUS
 10
7.594840
 20
1.489400
  0
VERTEX
  8
0
  6
CONTINUOUS
 10
6.955960
 20
1.119800
  0
VERTEX
  8
0
  6
CONTINUOUS
 10
6.966520
 20
1.130360
  0
SEQEND
  8
0
  0
POLYLINE
  8
0
  6
CONTINUOUS
 66
     1
 40
0.000000
 41
0.000000
  0
VERTEX
  8
0
  6
CONTINUOUS
 10
6.955960
 20
1.119800
  0
VERTEX
  8
0
  6
CONTINUOUS
 10
5.216200
 20
1.119800
  0
VERTEX
  8
0
  6
CONTINUOUS
 10
5.218400
 20
1.194160
  0
VERTEX
  8
0
  6
CONTINUOUS
 10
5.224120
 20
1.256200
  0
VERTEX
  8
0
  6
CONTINUOUS
 10
5.233800
 20
1.315600
  0
VERTEX
  8
0
  6
CONTINUOUS
 10
5.247440
 20
1.373240
  0
VERTEX
  8
0
  6
CONTINUOUS
 10
5.265040
 20
1.427800
  0
VERTEX
  8
0
  6
CONTINUOUS
 10
5.286600
 20
1.479280
  0
VERTEX
  8
0
  6
CONTINUOUS
 10
5.312120
 20
1.527240
  0
VERTEX
  8
0
  6
CONTINUOUS
 10
5.341160
 20
1.571680
  0
VERTEX
  8
0
  6
CONTINUOUS
 10
5.374600
 20
1.612160
  0
VERTEX
  8
0
  6
CONTINUOUS
 10
5.411560
 20
1.648240
  0
VERTEX
  8
0
  6
CONTINUOUS
 10
5.452920
 20
1.679920
  0
VERTEX
  8
0
  6
CONTINUOUS
 10
5.497800
 20
1.706320
  0
VERTEX
  8
0
  6
CONTINUOUS
 10
5.546640
 20
1.727000
  0
VERTEX
  8
0
  6
CONTINUOUS
 10
5.599000
 20
1.742840
  0
VERTEX
  8
0
  6
CONTINUOUS
 10
5.655760
 20
1.752080
  0
VERTEX
  8
0
  6
CONTINUOUS
 10
5.716480
 20
1.755600
  0
VERTEX
  8
0
  6
CONTINUOUS
 10
5.718240
 20
1.717760
  0
VERTEX
  8
0
  6
CONTINUOUS
 10
5.723960
 20
1.680800
  0
VERTEX
  8
0
  6
CONTINUOUS
 10
5.733640
 20
1.645160
  0
VERTEX
  8
0
  6
CONTINUOUS
 10
5.746400
 20
1.610840
  0
VERTEX
  8
0
  6
CONTINUOUS
 10
5.762240
 20
1.577840
  0
VERTEX
  8
0
  6
CONTINUOUS
 10
5.781160
 20
1.547040
  0
VERTEX
  8
0
  6
CONTINUOUS
 10
5.803160
 20
1.518000
  0
VERTEX
  8
0
  6
CONTINUOUS
 10
5.827360
 20
1.491600
  0
VERTEX
  8
0
  6
CONTINUOUS
 10
5.854200
 20
1.466960
  0
VERTEX
  8
0
  6
CONTINUOUS
 10
5.883240
 20
1.445400
  0
VERTEX
  8
0
  6
CONTINUOUS
 10
5.914040
 20
1.426480
  0
VERTEX
  8
0
  6
CONTINUOUS
 10
5.946600
 20
1.410200
  0
VERTEX
  8
0
  6
CONTINUOUS
 10
5.980920
 20
1.397440
  0
VERTEX
  8
0
  6
CONTINUOUS
 10
6.016560
 20
1.388200
  0
VERTEX
  8
0
  6
CONTINUOUS
 10
6.053520
 20
1.382480
  0
VERTEX
  8
0
  6
CONTINUOUS
 10
6.091360
 20
1.380280
  0
VERTEX
  8
0
  6
CONTINUOUS
 10
6.129200
 20
1.382480
  0
VERTEX
  8
0
  6
CONTINUOUS
 10
6.166160
 20
1.388200
  0
VERTEX
  8
0
  6
CONTINUOUS
 10
6.201800
 20
1.397440
  0
VERTEX
  8
0
  6
CONTINUOUS
 10
6.236120
 20
1.410200
  0
VERTEX
  8
0
  6
CONTINUOUS
 10
6.268680
 20
1.426480
  0
VERTEX
  8
0
  6
CONTINUOUS
 10
6.299920
 20
1.445400
  0
VERTEX
  8
0
  6
CONTINUOUS
 10
6.328520
 20
1.466960
  0
VERTEX
  8
0
  6
CONTINUOUS
 10
6.355360
 20
1.491600
  0
VERTEX
  8
0
  6
CONTINUOUS
 10
6.380000
 20
1.518000
  0
VERTEX
  8
0
  6
CONTINUOUS
 10
6.401560
 20
1.547040
  0
VERTEX
  8
0
  6
CONTINUOUS
 10
6.420480
 20
1.577840
  0
VERTEX
  8
0
  6
CONTINUOUS
 10
6.436320
 20
1.610840
  0
VERTEX
  8
0
  6
CONTINUOUS
 10
6.449080
 20
1.645160
  0
VERTEX
  8
0
  6
CONTINUOUS
 10
6.458760
 20
1.680800
  0
VERTEX
  8
0
  6
CONTINUOUS
 10
6.464480
 20
1.717760
  0
VERTEX
  8
0
  6
CONTINUOUS
 10
6.466240
 20
1.755600
  0
VERTEX
  8
0
  6
CONTINUOUS
 10
6.526960
 20
1.752080
  0
VERTEX
  8
0
  6
CONTINUOUS
 10
6.583720
 20
1.742840
  0
VERTEX
  8
0
  6
CONTINUOUS
 10
6.636080
 20
1.727000
  0
VERTEX
  8
0
  6
CONTINUOUS
 10
6.684920
 20
1.706320
  0
VERTEX
  8
0
  6
CONTINUOUS
 10
6.730240
 20
1.679920
  0
VERTEX
  8
0
  6
CONTINUOUS
 10
6.771160
 20
1.648240
  0
VERTEX
  8
0
  6
CONTINUOUS
 10
6.808120
 20
1.612160
  0
VERTEX
  8
0
  6
CONTINUOUS
 10
6.841560
 20
1.571680
  0
VERTEX
  8
0
  6
CONTINUOUS
 10
6.870600
 20
1.527240
  0
VERTEX
  8
0
  6
CONTINUOUS
 10
6.896120
 20
1.479280
  0
VERTEX
  8
0
  6
CONTINUOUS
 10
6.917680
 20
1.427800
  0
VERTEX
  8
0
  6
CONTINUOUS
 10
6.935280
 20
1.373240
  0
VERTEX
  8
0
  6
CONTINUOUS
 10
6.948920
 20
1.315600
  0
VERTEX
  8
0
  6
CONTINUOUS
 10
6.958600
 20
1.256200
  0
VERTEX
  8
0
  6
CONTINUOUS
 10
6.964320
 20
1.194160
  0
VERTEX
  8
0
  6
CONTINUOUS
 10
6.966520
 20
1.130360
  0
VERTEX
  8
0
  6
CONTINUOUS
 10
6.955960
 20
1.119800
  0
SEQEND
  8
0
  0
TEXT
  8
0
 10
6.115560
 20
0.900240
 40
0.138116
  1
BA  673
 41
1.000000
  7
SN0
 71
     0
 72
     5
 11
6.705682
 21
0.900240
  0
TEXT
  8
0
 10
5.959800
 20
0.708400
 40
0.138116
  1
5/8" x 1-3/4"
 41
1.000000
  7
SN0
 71
     0
 72
     5
 11
6.860216
 21
0.708400
  0
ENDSEC
  0
EOF
