  0
SECTION
  2
HEADER
  9
$ACADVER
  1
AC1006
  9
$EXTMIN
 10
4.254800
 20
0.992640
  9
$EXTMAX
 10
7.531480
 20
3.467640
  9
$LTSCALE
 40
0.044000
  9
$PDMODE
 70
    35
  9
$PDSIZE
 40
0.035200
  0
ENDSEC
  0
SECTION
  2
TABLES
  0
TABLE
  2
LTYPE
 70
     9
  0
LTYPE
  2
CONTINUOUS
 70
    64
  3
Solid line
 72
    65
 73
     0
 40
0.000000
  0
LTYPE
  2
DASHED
 70
    64
  3
__ __ __ __ __ __ __ __ __ __ __ __ __ __ __
 72
    65
 73
     2
 40
0.000330
 49
0.000220
 49
-0.000110
  0
LTYPE
  2
HIDDEN
 70
    64
  3
 _ _ _ _ _ _ _ _ _ _ _ _ _ _ _ _ _ _ _ _ _ _
 72
    65
 73
     2
 40
0.000165
 49
0.000110
 49
-0.000055
  0
LTYPE
  2
CENTER
 70
    64
  3
____ _ ____ _ ____ _ ____ _ ____ _ ____ _ ____
 72
    65
 73
     4
 40
0.000880
 49
0.000550
 49
-0.000110
 49
0.000110
 49
-0.000110
  0
LTYPE
  2
PHANTOM
 70
    64
  3
_____ _ _ _____ _ _ _____ _ _ _____ _ _ ____
 72
    65
 73
     6
 40
0.001100
 49
0.000550
 49
-0.000110
 49
0.000110
 49
-0.000110
 49
0.000110
 49
-0.000110
  0
LTYPE
  2
DOT
 70
    64
  3
...............................................
 72
    65
 73
     2
 40
0.000110
 49
0.000000
 49
-0.000110
  0
LTYPE
  2
DASHDOT
 70
    64
  3
__ . __ . __ . __ . __ . __ . __ . __ . __ . __
 72
    65
 73
     4
 40
0.000440
 49
0.000220
 49
-0.000110
 49
0.000000
 49
-0.000110
  0
LTYPE
  2
BORDER
 70
    64
  3
__ __ . __ __ . __ __ . __ __ . __ __ . __ __
 72
    65
 73
     6
 40
0.000770
 49
0.000220
 49
-0.000110
 49
0.000220
 49
-0.000110
 49
0.000000
 49
-0.000110
  0
LTYPE
  2
DIVIDE
 70
    64
  3
__ . . __ . . __ . . __ . . __ . . __ . . __
 72
    65
 73
     6
 40
0.000550
 49
0.000220
 49
-0.000110
 49
0.000000
 49
-0.000110
 49
0.000000
 49
-0.000110
  0
LTYPE
  2
DOTDOT
 70
    64
  3
 . .  . .  . .  . .  . .  . . 
 72
    65
 73
     5
 40
0.000242
 49
-0.000110
 49
0.000000
 49
-0.000110
 49
0.000000
 49
-0.000110
  0
ENDTAB
  0
TABLE
  2
STYLE
 70
     2
  0
STYLE
 70
     0
  2
SN0
 40
0.000000
 41
0.000440
 50
0.000000
 71
     0
 42
0.000000
  3
ROMAND
  0
STYLE
 70
    68
  2
SV0
 40
0.000000
 41
0.000440
 50
0.000000
 71
     0
 42
0.000000
  3
ROMAND
  0
ENDTAB
  0
TABLE
  2
LAYER
 70
     3
  0
LAYER
  2
FOREGROUND
 70
    64
 62
     7
  6
CONTINUOUS
  0
LAYER
  2
BACKGROUND
 70
    65
 62
    -7
  6
CONTINUOUS
  0
LAYER
  2
0
 70
    64
 62
     7
  6
CONTINUOUS
  0
ENDTAB
  0
ENDSEC
  0
SECTION
  2
ENTITIES
  0
POLYLINE
  8
FOREGROUND
  6
CONTINUOUS
 66
     1
 40
0.000000
 41
0.000000
  0
VERTEX
  8
FOREGROUND
  6
CONTINUOUS
 10
0.000000
 20
4.460280
  0
VERTEX
  8
FOREGROUND
  6
CONTINUOUS
 10
8.499920
 20
4.460280
  0
VERTEX
  8
FOREGROUND
  6
CONTINUOUS
 10
8.499920
 20
-6.539720
  0
VERTEX
  8
FOREGROUND
  6
CONTINUOUS
 10
0.000000
 20
-6.539720
  0
VERTEX
  8
FOREGROUND
  6
CONTINUOUS
 10
0.000000
 20
4.460280
  0
SEQEND
  8
0
  0
POLYLINE
  8
FOREGROUND
  6
CONTINUOUS
 66
     1
 40
0.000000
 41
0.000000
  0
VERTEX
  8
FOREGROUND
  6
CONTINUOUS
 10
0.000000
 20
4.460280
  0
VERTEX
  8
FOREGROUND
  6
CONTINUOUS
 10
8.499920
 20
4.460280
  0
VERTEX
  8
FOREGROUND
  6
CONTINUOUS
 10
8.499920
 20
-6.539720
  0
VERTEX
  8
FOREGROUND
  6
CONTINUOUS
 10
0.000000
 20
-6.539720
  0
VERTEX
  8
FOREGROUND
  6
CONTINUOUS
 10
0.000000
 20
4.460280
  0
SEQEND
  8
0
  0
POLYLINE
  8
0
  6
CONTINUOUS
 66
     1
 40
0.014080
 41
0.014080
  0
VERTEX
  8
0
  6
CONTINUOUS
 10
6.561720
 20
3.460160
  0
VERTEX
  8
0
  6
CONTINUOUS
 10
6.562160
 20
3.432440
  0
VERTEX
  8
0
  6
CONTINUOUS
 10
6.566560
 20
3.412640
  0
VERTEX
  8
0
  6
CONTINUOUS
 10
6.574920
 20
3.392400
  0
VERTEX
  8
0
  6
CONTINUOUS
 10
6.581520
 20
3.382280
  0
VERTEX
  8
0
  6
CONTINUOUS
 10
6.600000
 20
3.363800
  0
VERTEX
  8
0
  6
CONTINUOUS
 10
6.626400
 20
3.347960
  0
VERTEX
  8
0
  6
CONTINUOUS
 10
6.662040
 20
3.335640
  0
VERTEX
  8
0
  6
CONTINUOUS
 10
6.696360
 20
3.329480
  0
VERTEX
  8
0
  6
CONTINUOUS
 10
6.709120
 20
3.328160
  0
VERTEX
  8
0
  6
CONTINUOUS
 10
6.706920
 20
3.311000
  0
VERTEX
  8
0
  6
CONTINUOUS
 10
6.708240
 20
3.292080
  0
VERTEX
  8
0
  6
CONTINUOUS
 10
6.713080
 20
3.273160
  0
VERTEX
  8
0
  6
CONTINUOUS
 10
6.726280
 20
3.245880
  0
VERTEX
  8
0
  6
CONTINUOUS
 10
6.738600
 20
3.230480
  0
VERTEX
  8
0
  6
CONTINUOUS
 10
6.753120
 20
3.218160
  0
VERTEX
  8
0
  6
CONTINUOUS
 10
6.761040
 20
3.213760
  0
VERTEX
  8
0
  6
CONTINUOUS
 10
6.794480
 20
3.205840
  0
VERTEX
  8
0
  6
CONTINUOUS
 10
6.805040
 20
3.199680
  0
VERTEX
  8
0
  6
CONTINUOUS
 10
6.813840
 20
3.186480
  0
VERTEX
  8
0
  6
CONTINUOUS
 10
6.816920
 20
3.170640
  0
VERTEX
  8
0
  6
CONTINUOUS
 10
6.819120
 20
3.140280
  0
VERTEX
  8
0
  6
CONTINUOUS
 10
6.842000
 20
3.138520
  0
VERTEX
  8
0
  6
CONTINUOUS
 10
6.863560
 20
3.134560
  0
VERTEX
  8
0
  6
CONTINUOUS
 10
6.891720
 20
3.124000
  0
VERTEX
  8
0
  6
CONTINUOUS
 10
6.915040
 20
3.109480
  0
VERTEX
  8
0
  6
CONTINUOUS
 10
6.933520
 20
3.091880
  0
VERTEX
  8
0
  6
CONTINUOUS
 10
6.946280
 20
3.071640
  0
VERTEX
  8
0
  6
CONTINUOUS
 10
6.951560
 20
3.057120
  0
VERTEX
  8
0
  6
CONTINUOUS
 10
6.953760
 20
3.042600
  0
VERTEX
  8
0
  6
CONTINUOUS
 10
6.952880
 20
3.027640
  0
VERTEX
  8
0
  6
CONTINUOUS
 10
6.948920
 20
3.013120
  0
VERTEX
  8
0
  6
CONTINUOUS
 10
6.937040
 20
2.992000
  0
VERTEX
  8
0
  6
CONTINUOUS
 10
6.917240
 20
2.973080
  0
VERTEX
  8
0
  6
CONTINUOUS
 10
6.861800
 20
2.940960
  0
VERTEX
  8
0
  6
CONTINUOUS
 10
6.842440
 20
2.926000
  0
VERTEX
  8
0
  6
CONTINUOUS
 10
6.829680
 20
2.911480
  0
VERTEX
  8
0
  6
CONTINUOUS
 10
6.824400
 20
2.898280
  0
VERTEX
  8
0
  6
CONTINUOUS
 10
6.826600
 20
2.889040
  0
VERTEX
  8
0
  6
CONTINUOUS
 10
6.834520
 20
2.881560
  0
VERTEX
  8
0
  6
CONTINUOUS
 10
6.854760
 20
2.874080
  0
VERTEX
  8
0
  6
CONTINUOUS
 10
6.888200
 20
2.870560
  0
VERTEX
  8
0
  6
CONTINUOUS
 10
6.982360
 20
2.863960
  0
VERTEX
  8
0
  6
CONTINUOUS
 10
6.995560
 20
2.804120
  0
VERTEX
  8
0
  6
CONTINUOUS
 10
7.008760
 20
2.767600
  0
VERTEX
  8
0
  6
CONTINUOUS
 10
7.017560
 20
2.750440
  0
VERTEX
  8
0
  6
CONTINUOUS
 10
7.028560
 20
2.733280
  0
VERTEX
  8
0
  6
CONTINUOUS
 10
7.048800
 20
2.709080
  0
VERTEX
  8
0
  6
CONTINUOUS
 10
7.075200
 20
2.685760
  0
VERTEX
  8
0
  6
CONTINUOUS
 10
7.108640
 20
2.662880
  0
VERTEX
  8
0
  6
CONTINUOUS
 10
7.150440
 20
2.641320
  0
VERTEX
  8
0
  6
CONTINUOUS
 10
7.201480
 20
2.620200
  0
VERTEX
  8
0
  6
CONTINUOUS
 10
7.284640
 20
2.592920
  0
VERTEX
  8
0
  6
CONTINUOUS
 10
7.325560
 20
2.576640
  0
VERTEX
  8
0
  6
CONTINUOUS
 10
7.380560
 20
2.547600
  0
VERTEX
  8
0
  6
CONTINUOUS
 10
7.411800
 20
2.525160
  0
VERTEX
  8
0
  6
CONTINUOUS
 10
7.439080
 20
2.500520
  0
VERTEX
  8
0
  6
CONTINUOUS
 10
7.461520
 20
2.474120
  0
VERTEX
  8
0
  6
CONTINUOUS
 10
7.479560
 20
2.446400
  0
VERTEX
  8
0
  6
CONTINUOUS
 10
7.486600
 20
2.431880
  0
VERTEX
  8
0
  6
CONTINUOUS
 10
7.496280
 20
2.401960
  0
VERTEX
  8
0
  6
CONTINUOUS
 10
7.500680
 20
2.370720
  0
VERTEX
  8
0
  6
CONTINUOUS
 10
7.498920
 20
2.339040
  0
VERTEX
  8
0
  6
CONTINUOUS
 10
7.495840
 20
2.322760
  0
VERTEX
  8
0
  6
CONTINUOUS
 10
7.484840
 20
2.289760
  0
VERTEX
  8
0
  6
CONTINUOUS
 10
7.467240
 20
2.256320
  0
VERTEX
  8
0
  6
CONTINUOUS
 10
7.442600
 20
2.223320
  0
VERTEX
  8
0
  6
CONTINUOUS
 10
7.411360
 20
2.189880
  0
VERTEX
  8
0
  6
CONTINUOUS
 10
7.372200
 20
2.156880
  0
VERTEX
  8
0
  6
CONTINUOUS
 10
7.372200
 20
2.135760
  0
VERTEX
  8
0
  6
CONTINUOUS
 10
7.524440
 20
2.128720
  0
VERTEX
  8
0
  6
CONTINUOUS
 10
7.524440
 20
1.918400
  0
VERTEX
  8
0
  6
CONTINUOUS
 10
7.493200
 20
1.915760
  0
VERTEX
  8
0
  6
CONTINUOUS
 10
7.465480
 20
1.908720
  0
VERTEX
  8
0
  6
CONTINUOUS
 10
7.441280
 20
1.897720
  0
VERTEX
  8
0
  6
CONTINUOUS
 10
7.421040
 20
1.884520
  0
VERTEX
  8
0
  6
CONTINUOUS
 10
7.404760
 20
1.869120
  0
VERTEX
  8
0
  6
CONTINUOUS
 10
7.392880
 20
1.853280
  0
VERTEX
  8
0
  6
CONTINUOUS
 10
7.383640
 20
1.830400
  0
VERTEX
  8
0
  6
CONTINUOUS
 10
7.383200
 20
1.823360
  0
VERTEX
  8
0
  6
CONTINUOUS
 10
6.280120
 20
1.823360
  0
VERTEX
  8
0
  6
CONTINUOUS
 10
6.280120
 20
3.459720
  0
VERTEX
  8
0
  6
CONTINUOUS
 10
6.561720
 20
3.460160
  0
SEQEND
  8
0
  0
SOLID
  8
0
 62
     7
 10
4.800840
 20
2.519440
 11
5.448960
 21
2.893000
 12
4.810080
 22
2.508880
 13
5.458200
 23
2.882440
  0
POLYLINE
  8
0
  6
CONTINUOUS
 66
     1
 40
0.000000
 41
0.000000
  0
VERTEX
  8
0
  6
CONTINUOUS
 10
4.800840
 20
2.519440
  0
VERTEX
  8
0
  6
CONTINUOUS
 10
5.448960
 20
2.893000
  0
VERTEX
  8
0
  6
CONTINUOUS
 10
5.458200
 20
2.882440
  0
VERTEX
  8
0
  6
CONTINUOUS
 10
4.810080
 20
2.508880
  0
VERTEX
  8
0
  6
CONTINUOUS
 10
4.800840
 20
2.519440
  0
SEQEND
  8
0
  0
SOLID
  8
0
 62
     7
 10
4.539480
 20
3.050080
 11
5.187600
 21
3.423200
 12
4.557080
 22
3.009600
 13
5.205640
 23
3.383160
  0
POLYLINE
  8
0
  6
CONTINUOUS
 66
     1
 40
0.000000
 41
0.000000
  0
VERTEX
  8
0
  6
CONTINUOUS
 10
4.539480
 20
3.050080
  0
VERTEX
  8
0
  6
CONTINUOUS
 10
5.187600
 20
3.423200
  0
VERTEX
  8
0
  6
CONTINUOUS
 10
5.205640
 20
3.383160
  0
VERTEX
  8
0
  6
CONTINUOUS
 10
4.557080
 20
3.009600
  0
VERTEX
  8
0
  6
CONTINUOUS
 10
4.539480
 20
3.050080
  0
SEQEND
  8
0
  0
SOLID
  8
0
 62
     7
 10
4.557080
 20
3.009600
 11
5.205640
 21
3.383160
 12
4.575560
 22
2.991120
 13
5.223680
 23
3.364680
  0
POLYLINE
  8
0
  6
CONTINUOUS
 66
     1
 40
0.000000
 41
0.000000
  0
VERTEX
  8
0
  6
CONTINUOUS
 10
4.557080
 20
3.009600
  0
VERTEX
  8
0
  6
CONTINUOUS
 10
5.205640
 20
3.383160
  0
VERTEX
  8
0
  6
CONTINUOUS
 10
5.223680
 20
3.364680
  0
VERTEX
  8
0
  6
CONTINUOUS
 10
4.575560
 20
2.991120
  0
VERTEX
  8
0
  6
CONTINUOUS
 10
4.557080
 20
3.009600
  0
SEQEND
  8
0
  0
SOLID
  8
0
 62
    15
 10
4.575560
 20
2.991120
 11
5.223680
 21
3.364680
 12
4.601960
 22
2.975280
 13
5.250080
 23
3.348840
  0
POLYLINE
  8
0
  6
CONTINUOUS
 66
     1
 40
0.000000
 41
0.000000
  0
VERTEX
  8
0
  6
CONTINUOUS
 10
4.575560
 20
2.991120
  0
VERTEX
  8
0
  6
CONTINUOUS
 10
5.223680
 20
3.364680
  0
VERTEX
  8
0
  6
CONTINUOUS
 10
5.250080
 20
3.348840
  0
VERTEX
  8
0
  6
CONTINUOUS
 10
4.601960
 20
2.975280
  0
VERTEX
  8
0
  6
CONTINUOUS
 10
4.575560
 20
2.991120
  0
SEQEND
  8
0
  0
SOLID
  8
0
 62
    15
 10
4.601960
 20
2.975280
 11
5.250080
 21
3.348840
 12
4.638040
 22
2.962960
 13
5.286160
 23
3.336520
  0
POLYLINE
  8
0
  6
CONTINUOUS
 66
     1
 40
0.000000
 41
0.000000
  0
VERTEX
  8
0
  6
CONTINUOUS
 10
4.601960
 20
2.975280
  0
VERTEX
  8
0
  6
CONTINUOUS
 10
5.250080
 20
3.348840
  0
VERTEX
  8
0
  6
CONTINUOUS
 10
5.286160
 20
3.336520
  0
VERTEX
  8
0
  6
CONTINUOUS
 10
4.638040
 20
2.962960
  0
VERTEX
  8
0
  6
CONTINUOUS
 10
4.601960
 20
2.975280
  0
SEQEND
  8
0
  0
SOLID
  8
0
 62
    15
 10
4.638040
 20
2.962960
 11
5.286160
 21
3.336520
 12
4.684680
 22
2.955480
 13
5.333240
 23
3.329040
  0
POLYLINE
  8
0
  6
CONTINUOUS
 66
     1
 40
0.000000
 41
0.000000
  0
VERTEX
  8
0
  6
CONTINUOUS
 10
4.638040
 20
2.962960
  0
VERTEX
  8
0
  6
CONTINUOUS
 10
5.286160
 20
3.336520
  0
VERTEX
  8
0
  6
CONTINUOUS
 10
5.333240
 20
3.329040
  0
VERTEX
  8
0
  6
CONTINUOUS
 10
4.684680
 20
2.955480
  0
VERTEX
  8
0
  6
CONTINUOUS
 10
4.638040
 20
2.962960
  0
SEQEND
  8
0
  0
SOLID
  8
0
 62
     7
 10
4.684680
 20
2.955480
 11
5.333240
 21
3.329040
 12
4.684240
 22
2.919400
 13
5.332360
 23
3.292960
  0
POLYLINE
  8
0
  6
CONTINUOUS
 66
     1
 40
0.000000
 41
0.000000
  0
VERTEX
  8
0
  6
CONTINUOUS
 10
4.684680
 20
2.955480
  0
VERTEX
  8
0
  6
CONTINUOUS
 10
5.333240
 20
3.329040
  0
VERTEX
  8
0
  6
CONTINUOUS
 10
5.332360
 20
3.292960
  0
VERTEX
  8
0
  6
CONTINUOUS
 10
4.684240
 20
2.919400
  0
VERTEX
  8
0
  6
CONTINUOUS
 10
4.684680
 20
2.955480
  0
SEQEND
  8
0
  0
SOLID
  8
0
 62
     7
 10
4.684240
 20
2.919400
 11
5.332360
 21
3.292960
 12
4.697000
 22
2.881560
 13
5.345120
 23
3.255120
  0
POLYLINE
  8
0
  6
CONTINUOUS
 66
     1
 40
0.000000
 41
0.000000
  0
VERTEX
  8
0
  6
CONTINUOUS
 10
4.684240
 20
2.919400
  0
VERTEX
  8
0
  6
CONTINUOUS
 10
5.332360
 20
3.292960
  0
VERTEX
  8
0
  6
CONTINUOUS
 10
5.345120
 20
3.255120
  0
VERTEX
  8
0
  6
CONTINUOUS
 10
4.697000
 20
2.881560
  0
VERTEX
  8
0
  6
CONTINUOUS
 10
4.684240
 20
2.919400
  0
SEQEND
  8
0
  0
SOLID
  8
0
 62
     7
 10
4.697000
 20
2.881560
 11
5.345120
 21
3.255120
 12
4.721200
 22
2.851200
 13
5.369320
 23
3.224760
  0
POLYLINE
  8
0
  6
CONTINUOUS
 66
     1
 40
0.000000
 41
0.000000
  0
VERTEX
  8
0
  6
CONTINUOUS
 10
4.697000
 20
2.881560
  0
VERTEX
  8
0
  6
CONTINUOUS
 10
5.345120
 20
3.255120
  0
VERTEX
  8
0
  6
CONTINUOUS
 10
5.369320
 20
3.224760
  0
VERTEX
  8
0
  6
CONTINUOUS
 10
4.721200
 20
2.851200
  0
VERTEX
  8
0
  6
CONTINUOUS
 10
4.697000
 20
2.881560
  0
SEQEND
  8
0
  0
SOLID
  8
0
 62
    15
 10
4.721200
 20
2.851200
 11
5.369320
 21
3.224760
 12
4.754200
 22
2.836680
 13
5.402320
 23
3.210240
  0
POLYLINE
  8
0
  6
CONTINUOUS
 66
     1
 40
0.000000
 41
0.000000
  0
VERTEX
  8
0
  6
CONTINUOUS
 10
4.721200
 20
2.851200
  0
VERTEX
  8
0
  6
CONTINUOUS
 10
5.369320
 20
3.224760
  0
VERTEX
  8
0
  6
CONTINUOUS
 10
5.402320
 20
3.210240
  0
VERTEX
  8
0
  6
CONTINUOUS
 10
4.754200
 20
2.836680
  0
VERTEX
  8
0
  6
CONTINUOUS
 10
4.721200
 20
2.851200
  0
SEQEND
  8
0
  0
SOLID
  8
0
 62
    15
 10
4.754200
 20
2.836680
 11
5.402320
 21
3.210240
 12
4.770040
 22
2.833160
 13
5.418160
 23
3.206720
  0
POLYLINE
  8
0
  6
CONTINUOUS
 66
     1
 40
0.000000
 41
0.000000
  0
VERTEX
  8
0
  6
CONTINUOUS
 10
4.754200
 20
2.836680
  0
VERTEX
  8
0
  6
CONTINUOUS
 10
5.402320
 20
3.210240
  0
VERTEX
  8
0
  6
CONTINUOUS
 10
5.418160
 20
3.206720
  0
VERTEX
  8
0
  6
CONTINUOUS
 10
4.770040
 20
2.833160
  0
VERTEX
  8
0
  6
CONTINUOUS
 10
4.754200
 20
2.836680
  0
SEQEND
  8
0
  0
SOLID
  8
0
 62
    15
 10
4.770040
 20
2.833160
 11
5.418160
 21
3.206720
 12
4.780600
 22
2.827000
 13
5.428720
 23
3.200560
  0
POLYLINE
  8
0
  6
CONTINUOUS
 66
     1
 40
0.000000
 41
0.000000
  0
VERTEX
  8
0
  6
CONTINUOUS
 10
4.770040
 20
2.833160
  0
VERTEX
  8
0
  6
CONTINUOUS
 10
5.418160
 20
3.206720
  0
VERTEX
  8
0
  6
CONTINUOUS
 10
5.428720
 20
3.200560
  0
VERTEX
  8
0
  6
CONTINUOUS
 10
4.780600
 20
2.827000
  0
VERTEX
  8
0
  6
CONTINUOUS
 10
4.770040
 20
2.833160
  0
SEQEND
  8
0
  0
SOLID
  8
0
 62
     7
 10
4.780600
 20
2.827000
 11
5.428720
 21
3.200560
 12
4.790720
 22
2.808520
 13
5.438840
 23
3.182080
  0
POLYLINE
  8
0
  6
CONTINUOUS
 66
     1
 40
0.000000
 41
0.000000
  0
VERTEX
  8
0
  6
CONTINUOUS
 10
4.780600
 20
2.827000
  0
VERTEX
  8
0
  6
CONTINUOUS
 10
5.428720
 20
3.200560
  0
VERTEX
  8
0
  6
CONTINUOUS
 10
5.438840
 20
3.182080
  0
VERTEX
  8
0
  6
CONTINUOUS
 10
4.790720
 20
2.808520
  0
VERTEX
  8
0
  6
CONTINUOUS
 10
4.780600
 20
2.827000
  0
SEQEND
  8
0
  0
SOLID
  8
0
 62
     7
 10
4.790720
 20
2.808520
 11
5.438840
 21
3.182080
 12
4.792920
 22
2.786520
 13
5.441040
 23
3.160080
  0
POLYLINE
  8
0
  6
CONTINUOUS
 66
     1
 40
0.000000
 41
0.000000
  0
VERTEX
  8
0
  6
CONTINUOUS
 10
4.790720
 20
2.808520
  0
VERTEX
  8
0
  6
CONTINUOUS
 10
5.438840
 20
3.182080
  0
VERTEX
  8
0
  6
CONTINUOUS
 10
5.441040
 20
3.160080
  0
VERTEX
  8
0
  6
CONTINUOUS
 10
4.792920
 20
2.786520
  0
VERTEX
  8
0
  6
CONTINUOUS
 10
4.790720
 20
2.808520
  0
SEQEND
  8
0
  0
SOLID
  8
0
 62
     7
 10
4.792920
 20
2.786520
 11
5.441040
 21
3.160080
 12
4.793360
 22
2.776400
 13
5.441480
 23
3.149960
  0
POLYLINE
  8
0
  6
CONTINUOUS
 66
     1
 40
0.000000
 41
0.000000
  0
VERTEX
  8
0
  6
CONTINUOUS
 10
4.792920
 20
2.786520
  0
VERTEX
  8
0
  6
CONTINUOUS
 10
5.441040
 20
3.160080
  0
VERTEX
  8
0
  6
CONTINUOUS
 10
5.441480
 20
3.149960
  0
VERTEX
  8
0
  6
CONTINUOUS
 10
4.793360
 20
2.776400
  0
VERTEX
  8
0
  6
CONTINUOUS
 10
4.792920
 20
2.786520
  0
SEQEND
  8
0
  0
SOLID
  8
0
 62
     7
 10
4.793360
 20
2.776400
 11
5.441480
 21
3.149960
 12
4.794680
 22
2.767160
 13
5.442800
 23
3.140720
  0
POLYLINE
  8
0
  6
CONTINUOUS
 66
     1
 40
0.000000
 41
0.000000
  0
VERTEX
  8
0
  6
CONTINUOUS
 10
4.793360
 20
2.776400
  0
VERTEX
  8
0
  6
CONTINUOUS
 10
5.441480
 20
3.149960
  0
VERTEX
  8
0
  6
CONTINUOUS
 10
5.442800
 20
3.140720
  0
VERTEX
  8
0
  6
CONTINUOUS
 10
4.794680
 20
2.767160
  0
VERTEX
  8
0
  6
CONTINUOUS
 10
4.793360
 20
2.776400
  0
SEQEND
  8
0
  0
SOLID
  8
0
 62
    15
 10
4.794680
 20
2.767160
 11
5.442800
 21
3.140720
 12
4.838680
 22
2.761440
 13
5.487240
 23
3.135000
  0
POLYLINE
  8
0
  6
CONTINUOUS
 66
     1
 40
0.000000
 41
0.000000
  0
VERTEX
  8
0
  6
CONTINUOUS
 10
4.794680
 20
2.767160
  0
VERTEX
  8
0
  6
CONTINUOUS
 10
5.442800
 20
3.140720
  0
VERTEX
  8
0
  6
CONTINUOUS
 10
5.487240
 20
3.135000
  0
VERTEX
  8
0
  6
CONTINUOUS
 10
4.838680
 20
2.761440
  0
VERTEX
  8
0
  6
CONTINUOUS
 10
4.794680
 20
2.767160
  0
SEQEND
  8
0
  0
SOLID
  8
0
 62
    15
 10
4.838680
 20
2.761440
 11
5.487240
 21
3.135000
 12
4.875640
 22
2.746920
 13
5.523760
 23
3.120480
  0
POLYLINE
  8
0
  6
CONTINUOUS
 66
     1
 40
0.000000
 41
0.000000
  0
VERTEX
  8
0
  6
CONTINUOUS
 10
4.838680
 20
2.761440
  0
VERTEX
  8
0
  6
CONTINUOUS
 10
5.487240
 20
3.135000
  0
VERTEX
  8
0
  6
CONTINUOUS
 10
5.523760
 20
3.120480
  0
VERTEX
  8
0
  6
CONTINUOUS
 10
4.875640
 20
2.746920
  0
VERTEX
  8
0
  6
CONTINUOUS
 10
4.838680
 20
2.761440
  0
SEQEND
  8
0
  0
SOLID
  8
0
 62
     7
 10
4.875640
 20
2.746920
 11
5.523760
 21
3.120480
 12
4.903800
 22
2.725360
 13
5.551920
 23
3.098920
  0
POLYLINE
  8
0
  6
CONTINUOUS
 66
     1
 40
0.000000
 41
0.000000
  0
VERTEX
  8
0
  6
CONTINUOUS
 10
4.875640
 20
2.746920
  0
VERTEX
  8
0
  6
CONTINUOUS
 10
5.523760
 20
3.120480
  0
VERTEX
  8
0
  6
CONTINUOUS
 10
5.551920
 20
3.098920
  0
VERTEX
  8
0
  6
CONTINUOUS
 10
4.903800
 20
2.725360
  0
VERTEX
  8
0
  6
CONTINUOUS
 10
4.875640
 20
2.746920
  0
SEQEND
  8
0
  0
SOLID
  8
0
 62
     7
 10
4.903800
 20
2.725360
 11
5.551920
 21
3.098920
 12
4.921840
 22
2.698960
 13
5.570400
 23
3.072080
  0
POLYLINE
  8
0
  6
CONTINUOUS
 66
     1
 40
0.000000
 41
0.000000
  0
VERTEX
  8
0
  6
CONTINUOUS
 10
4.903800
 20
2.725360
  0
VERTEX
  8
0
  6
CONTINUOUS
 10
5.551920
 20
3.098920
  0
VERTEX
  8
0
  6
CONTINUOUS
 10
5.570400
 20
3.072080
  0
VERTEX
  8
0
  6
CONTINUOUS
 10
4.921840
 20
2.698960
  0
VERTEX
  8
0
  6
CONTINUOUS
 10
4.903800
 20
2.725360
  0
SEQEND
  8
0
  0
SOLID
  8
0
 62
     7
 10
4.921840
 20
2.698960
 11
5.570400
 21
3.072080
 12
4.929320
 22
2.669920
 13
5.577440
 23
3.043480
  0
POLYLINE
  8
0
  6
CONTINUOUS
 66
     1
 40
0.000000
 41
0.000000
  0
VERTEX
  8
0
  6
CONTINUOUS
 10
4.921840
 20
2.698960
  0
VERTEX
  8
0
  6
CONTINUOUS
 10
5.570400
 20
3.072080
  0
VERTEX
  8
0
  6
CONTINUOUS
 10
5.577440
 20
3.043480
  0
VERTEX
  8
0
  6
CONTINUOUS
 10
4.929320
 20
2.669920
  0
VERTEX
  8
0
  6
CONTINUOUS
 10
4.921840
 20
2.698960
  0
SEQEND
  8
0
  0
SOLID
  8
0
 62
    15
 10
4.929320
 20
2.669920
 11
5.577440
 21
3.043480
 12
4.924920
 22
2.640440
 13
5.573040
 23
3.014000
  0
POLYLINE
  8
0
  6
CONTINUOUS
 66
     1
 40
0.000000
 41
0.000000
  0
VERTEX
  8
0
  6
CONTINUOUS
 10
4.929320
 20
2.669920
  0
VERTEX
  8
0
  6
CONTINUOUS
 10
5.577440
 20
3.043480
  0
VERTEX
  8
0
  6
CONTINUOUS
 10
5.573040
 20
3.014000
  0
VERTEX
  8
0
  6
CONTINUOUS
 10
4.924920
 20
2.640440
  0
VERTEX
  8
0
  6
CONTINUOUS
 10
4.929320
 20
2.669920
  0
SEQEND
  8
0
  0
SOLID
  8
0
 62
    15
 10
4.924920
 20
2.640440
 11
5.573040
 21
3.014000
 12
4.906880
 22
2.613160
 13
5.555000
 23
2.986720
  0
POLYLINE
  8
0
  6
CONTINUOUS
 66
     1
 40
0.000000
 41
0.000000
  0
VERTEX
  8
0
  6
CONTINUOUS
 10
4.924920
 20
2.640440
  0
VERTEX
  8
0
  6
CONTINUOUS
 10
5.573040
 20
3.014000
  0
VERTEX
  8
0
  6
CONTINUOUS
 10
5.555000
 20
2.986720
  0
VERTEX
  8
0
  6
CONTINUOUS
 10
4.906880
 20
2.613160
  0
VERTEX
  8
0
  6
CONTINUOUS
 10
4.924920
 20
2.640440
  0
SEQEND
  8
0
  0
SOLID
  8
0
 62
    15
 10
4.906880
 20
2.613160
 11
5.555000
 21
2.986720
 12
4.875200
 22
2.589400
 13
5.523320
 23
2.962960
  0
POLYLINE
  8
0
  6
CONTINUOUS
 66
     1
 40
0.000000
 41
0.000000
  0
VERTEX
  8
0
  6
CONTINUOUS
 10
4.906880
 20
2.613160
  0
VERTEX
  8
0
  6
CONTINUOUS
 10
5.555000
 20
2.986720
  0
VERTEX
  8
0
  6
CONTINUOUS
 10
5.523320
 20
2.962960
  0
VERTEX
  8
0
  6
CONTINUOUS
 10
4.875200
 20
2.589400
  0
VERTEX
  8
0
  6
CONTINUOUS
 10
4.906880
 20
2.613160
  0
SEQEND
  8
0
  0
SOLID
  8
0
 62
    15
 10
4.875200
 20
2.589400
 11
5.523320
 21
2.962960
 12
4.827240
 22
2.560800
 13
5.475360
 23
2.934360
  0
POLYLINE
  8
0
  6
CONTINUOUS
 66
     1
 40
0.000000
 41
0.000000
  0
VERTEX
  8
0
  6
CONTINUOUS
 10
4.875200
 20
2.589400
  0
VERTEX
  8
0
  6
CONTINUOUS
 10
5.523320
 20
2.962960
  0
VERTEX
  8
0
  6
CONTINUOUS
 10
5.475360
 20
2.934360
  0
VERTEX
  8
0
  6
CONTINUOUS
 10
4.827240
 20
2.560800
  0
VERTEX
  8
0
  6
CONTINUOUS
 10
4.875200
 20
2.589400
  0
SEQEND
  8
0
  0
SOLID
  8
0
 62
    15
 10
4.827240
 20
2.560800
 11
5.475360
 21
2.934360
 12
4.810960
 22
2.545840
 13
5.459080
 23
2.919400
  0
POLYLINE
  8
0
  6
CONTINUOUS
 66
     1
 40
0.000000
 41
0.000000
  0
VERTEX
  8
0
  6
CONTINUOUS
 10
4.827240
 20
2.560800
  0
VERTEX
  8
0
  6
CONTINUOUS
 10
5.475360
 20
2.934360
  0
VERTEX
  8
0
  6
CONTINUOUS
 10
5.459080
 20
2.919400
  0
VERTEX
  8
0
  6
CONTINUOUS
 10
4.810960
 20
2.545840
  0
VERTEX
  8
0
  6
CONTINUOUS
 10
4.827240
 20
2.560800
  0
SEQEND
  8
0
  0
SOLID
  8
0
 62
    15
 10
4.810960
 20
2.545840
 11
5.459080
 21
2.919400
 12
4.801720
 22
2.531760
 13
5.449840
 23
2.905320
  0
POLYLINE
  8
0
  6
CONTINUOUS
 66
     1
 40
0.000000
 41
0.000000
  0
VERTEX
  8
0
  6
CONTINUOUS
 10
4.810960
 20
2.545840
  0
VERTEX
  8
0
  6
CONTINUOUS
 10
5.459080
 20
2.919400
  0
VERTEX
  8
0
  6
CONTINUOUS
 10
5.449840
 20
2.905320
  0
VERTEX
  8
0
  6
CONTINUOUS
 10
4.801720
 20
2.531760
  0
VERTEX
  8
0
  6
CONTINUOUS
 10
4.810960
 20
2.545840
  0
SEQEND
  8
0
  0
SOLID
  8
0
 62
    15
 10
4.801720
 20
2.531760
 11
5.449840
 21
2.905320
 12
4.800840
 22
2.519440
 13
5.448960
 23
2.893000
  0
POLYLINE
  8
0
  6
CONTINUOUS
 66
     1
 40
0.000000
 41
0.000000
  0
VERTEX
  8
0
  6
CONTINUOUS
 10
4.801720
 20
2.531760
  0
VERTEX
  8
0
  6
CONTINUOUS
 10
5.449840
 20
2.905320
  0
VERTEX
  8
0
  6
CONTINUOUS
 10
5.448960
 20
2.893000
  0
VERTEX
  8
0
  6
CONTINUOUS
 10
4.800840
 20
2.519440
  0
VERTEX
  8
0
  6
CONTINUOUS
 10
4.801720
 20
2.531760
  0
SEQEND
  8
0
  0
SOLID
  8
0
 62
    15
 10
4.255680
 20
3.087040
 11
4.903800
 21
3.460600
 12
4.536840
 22
3.087040
 13
5.184960
 23
3.460600
  0
POLYLINE
  8
0
  6
CONTINUOUS
 66
     1
 40
0.000000
 41
0.000000
  0
VERTEX
  8
0
  6
CONTINUOUS
 10
4.255680
 20
3.087040
  0
VERTEX
  8
0
  6
CONTINUOUS
 10
4.903800
 20
3.460600
  0
VERTEX
  8
0
  6
CONTINUOUS
 10
5.184960
 20
3.460600
  0
VERTEX
  8
0
  6
CONTINUOUS
 10
4.536840
 20
3.087040
  0
VERTEX
  8
0
  6
CONTINUOUS
 10
4.255680
 20
3.087040
  0
SEQEND
  8
0
  0
SOLID
  8
0
 62
    15
 10
4.810080
 20
2.508880
 11
5.458200
 21
2.882440
 12
4.830320
 22
2.501400
 13
5.478880
 23
2.874960
  0
POLYLINE
  8
0
  6
CONTINUOUS
 66
     1
 40
0.000000
 41
0.000000
  0
VERTEX
  8
0
  6
CONTINUOUS
 10
4.810080
 20
2.508880
  0
VERTEX
  8
0
  6
CONTINUOUS
 10
5.458200
 20
2.882440
  0
VERTEX
  8
0
  6
CONTINUOUS
 10
5.478880
 20
2.874960
  0
VERTEX
  8
0
  6
CONTINUOUS
 10
4.830320
 20
2.501400
  0
VERTEX
  8
0
  6
CONTINUOUS
 10
4.810080
 20
2.508880
  0
SEQEND
  8
0
  0
SOLID
  8
0
 62
    15
 10
4.830320
 20
2.501400
 11
5.478880
 21
2.874960
 12
4.863760
 22
2.497880
 13
5.511880
 23
2.871440
  0
POLYLINE
  8
0
  6
CONTINUOUS
 66
     1
 40
0.000000
 41
0.000000
  0
VERTEX
  8
0
  6
CONTINUOUS
 10
4.830320
 20
2.501400
  0
VERTEX
  8
0
  6
CONTINUOUS
 10
5.478880
 20
2.874960
  0
VERTEX
  8
0
  6
CONTINUOUS
 10
5.511880
 20
2.871440
  0
VERTEX
  8
0
  6
CONTINUOUS
 10
4.863760
 20
2.497880
  0
VERTEX
  8
0
  6
CONTINUOUS
 10
4.830320
 20
2.501400
  0
SEQEND
  8
0
  0
SOLID
  8
0
 62
    15
 10
4.863760
 20
2.497880
 11
5.511880
 21
2.871440
 12
4.957920
 22
2.491280
 13
5.606040
 23
2.864400
  0
POLYLINE
  8
0
  6
CONTINUOUS
 66
     1
 40
0.000000
 41
0.000000
  0
VERTEX
  8
0
  6
CONTINUOUS
 10
4.863760
 20
2.497880
  0
VERTEX
  8
0
  6
CONTINUOUS
 10
5.511880
 20
2.871440
  0
VERTEX
  8
0
  6
CONTINUOUS
 10
5.606040
 20
2.864400
  0
VERTEX
  8
0
  6
CONTINUOUS
 10
4.957920
 20
2.491280
  0
VERTEX
  8
0
  6
CONTINUOUS
 10
4.863760
 20
2.497880
  0
SEQEND
  8
0
  0
SOLID
  8
0
 62
     7
 10
4.957920
 20
2.491280
 11
5.606040
 21
2.864400
 12
4.976840
 22
2.412520
 13
5.625400
 23
2.786080
  0
POLYLINE
  8
0
  6
CONTINUOUS
 66
     1
 40
0.000000
 41
0.000000
  0
VERTEX
  8
0
  6
CONTINUOUS
 10
4.957920
 20
2.491280
  0
VERTEX
  8
0
  6
CONTINUOUS
 10
5.606040
 20
2.864400
  0
VERTEX
  8
0
  6
CONTINUOUS
 10
5.625400
 20
2.786080
  0
VERTEX
  8
0
  6
CONTINUOUS
 10
4.976840
 20
2.412520
  0
VERTEX
  8
0
  6
CONTINUOUS
 10
4.957920
 20
2.491280
  0
SEQEND
  8
0
  0
SOLID
  8
0
 62
     7
 10
4.976840
 20
2.412520
 11
5.625400
 21
2.786080
 12
4.993120
 22
2.377320
 13
5.641240
 23
2.750880
  0
POLYLINE
  8
0
  6
CONTINUOUS
 66
     1
 40
0.000000
 41
0.000000
  0
VERTEX
  8
0
  6
CONTINUOUS
 10
4.976840
 20
2.412520
  0
VERTEX
  8
0
  6
CONTINUOUS
 10
5.625400
 20
2.786080
  0
VERTEX
  8
0
  6
CONTINUOUS
 10
5.641240
 20
2.750880
  0
VERTEX
  8
0
  6
CONTINUOUS
 10
4.993120
 20
2.377320
  0
VERTEX
  8
0
  6
CONTINUOUS
 10
4.976840
 20
2.412520
  0
SEQEND
  8
0
  0
SOLID
  8
0
 62
     7
 10
4.993120
 20
2.377320
 11
5.641240
 21
2.750880
 12
5.016880
 22
2.343880
 13
5.665000
 23
2.717440
  0
POLYLINE
  8
0
  6
CONTINUOUS
 66
     1
 40
0.000000
 41
0.000000
  0
VERTEX
  8
0
  6
CONTINUOUS
 10
4.993120
 20
2.377320
  0
VERTEX
  8
0
  6
CONTINUOUS
 10
5.641240
 20
2.750880
  0
VERTEX
  8
0
  6
CONTINUOUS
 10
5.665000
 20
2.717440
  0
VERTEX
  8
0
  6
CONTINUOUS
 10
5.016880
 20
2.343880
  0
VERTEX
  8
0
  6
CONTINUOUS
 10
4.993120
 20
2.377320
  0
SEQEND
  8
0
  0
SOLID
  8
0
 62
     7
 10
5.016880
 20
2.343880
 11
5.665000
 21
2.717440
 12
5.050760
 22
2.312640
 13
5.698880
 23
2.686200
  0
POLYLINE
  8
0
  6
CONTINUOUS
 66
     1
 40
0.000000
 41
0.000000
  0
VERTEX
  8
0
  6
CONTINUOUS
 10
5.016880
 20
2.343880
  0
VERTEX
  8
0
  6
CONTINUOUS
 10
5.665000
 20
2.717440
  0
VERTEX
  8
0
  6
CONTINUOUS
 10
5.698880
 20
2.686200
  0
VERTEX
  8
0
  6
CONTINUOUS
 10
5.050760
 20
2.312640
  0
VERTEX
  8
0
  6
CONTINUOUS
 10
5.016880
 20
2.343880
  0
SEQEND
  8
0
  0
SOLID
  8
0
 62
    15
 10
5.050760
 20
2.312640
 11
5.698880
 21
2.686200
 12
5.096960
 22
2.282720
 13
5.745520
 23
2.656280
  0
POLYLINE
  8
0
  6
CONTINUOUS
 66
     1
 40
0.000000
 41
0.000000
  0
VERTEX
  8
0
  6
CONTINUOUS
 10
5.050760
 20
2.312640
  0
VERTEX
  8
0
  6
CONTINUOUS
 10
5.698880
 20
2.686200
  0
VERTEX
  8
0
  6
CONTINUOUS
 10
5.745520
 20
2.656280
  0
VERTEX
  8
0
  6
CONTINUOUS
 10
5.096960
 20
2.282720
  0
VERTEX
  8
0
  6
CONTINUOUS
 10
5.050760
 20
2.312640
  0
SEQEND
  8
0
  0
SOLID
  8
0
 62
    15
 10
5.096960
 20
2.282720
 11
5.745520
 21
2.656280
 12
5.159000
 22
2.254560
 13
5.807120
 23
2.628120
  0
POLYLINE
  8
0
  6
CONTINUOUS
 66
     1
 40
0.000000
 41
0.000000
  0
VERTEX
  8
0
  6
CONTINUOUS
 10
5.096960
 20
2.282720
  0
VERTEX
  8
0
  6
CONTINUOUS
 10
5.745520
 20
2.656280
  0
VERTEX
  8
0
  6
CONTINUOUS
 10
5.807120
 20
2.628120
  0
VERTEX
  8
0
  6
CONTINUOUS
 10
5.159000
 20
2.254560
  0
VERTEX
  8
0
  6
CONTINUOUS
 10
5.096960
 20
2.282720
  0
SEQEND
  8
0
  0
SOLID
  8
0
 62
    15
 10
5.159000
 20
2.254560
 11
5.807120
 21
2.628120
 12
5.238200
 22
2.227280
 13
5.886320
 23
2.600840
  0
POLYLINE
  8
0
  6
CONTINUOUS
 66
     1
 40
0.000000
 41
0.000000
  0
VERTEX
  8
0
  6
CONTINUOUS
 10
5.159000
 20
2.254560
  0
VERTEX
  8
0
  6
CONTINUOUS
 10
5.807120
 20
2.628120
  0
VERTEX
  8
0
  6
CONTINUOUS
 10
5.886320
 20
2.600840
  0
VERTEX
  8
0
  6
CONTINUOUS
 10
5.238200
 20
2.227280
  0
VERTEX
  8
0
  6
CONTINUOUS
 10
5.159000
 20
2.254560
  0
SEQEND
  8
0
  0
SOLID
  8
0
 62
    15
 10
5.238200
 20
2.227280
 11
5.886320
 21
2.600840
 12
5.320480
 22
2.194720
 13
5.968600
 23
2.568280
  0
POLYLINE
  8
0
  6
CONTINUOUS
 66
     1
 40
0.000000
 41
0.000000
  0
VERTEX
  8
0
  6
CONTINUOUS
 10
5.238200
 20
2.227280
  0
VERTEX
  8
0
  6
CONTINUOUS
 10
5.886320
 20
2.600840
  0
VERTEX
  8
0
  6
CONTINUOUS
 10
5.968600
 20
2.568280
  0
VERTEX
  8
0
  6
CONTINUOUS
 10
5.320480
 20
2.194720
  0
VERTEX
  8
0
  6
CONTINUOUS
 10
5.238200
 20
2.227280
  0
SEQEND
  8
0
  0
SOLID
  8
0
 62
    15
 10
5.320480
 20
2.194720
 11
5.968600
 21
2.568280
 12
5.387360
 22
2.152040
 13
6.035480
 23
2.525600
  0
POLYLINE
  8
0
  6
CONTINUOUS
 66
     1
 40
0.000000
 41
0.000000
  0
VERTEX
  8
0
  6
CONTINUOUS
 10
5.320480
 20
2.194720
  0
VERTEX
  8
0
  6
CONTINUOUS
 10
5.968600
 20
2.568280
  0
VERTEX
  8
0
  6
CONTINUOUS
 10
6.035480
 20
2.525600
  0
VERTEX
  8
0
  6
CONTINUOUS
 10
5.387360
 20
2.152040
  0
VERTEX
  8
0
  6
CONTINUOUS
 10
5.320480
 20
2.194720
  0
SEQEND
  8
0
  0
SOLID
  8
0
 62
     7
 10
5.387360
 20
2.152040
 11
6.035480
 21
2.525600
 12
5.437080
 22
2.101440
 13
6.085200
 23
2.475000
  0
POLYLINE
  8
0
  6
CONTINUOUS
 66
     1
 40
0.000000
 41
0.000000
  0
VERTEX
  8
0
  6
CONTINUOUS
 10
5.387360
 20
2.152040
  0
VERTEX
  8
0
  6
CONTINUOUS
 10
6.035480
 20
2.525600
  0
VERTEX
  8
0
  6
CONTINUOUS
 10
6.085200
 20
2.475000
  0
VERTEX
  8
0
  6
CONTINUOUS
 10
5.437080
 20
2.101440
  0
VERTEX
  8
0
  6
CONTINUOUS
 10
5.387360
 20
2.152040
  0
SEQEND
  8
0
  0
SOLID
  8
0
 62
     7
 10
5.437080
 20
2.101440
 11
6.085200
 21
2.475000
 12
5.467440
 22
2.044240
 13
6.115560
 23
2.417800
  0
POLYLINE
  8
0
  6
CONTINUOUS
 66
     1
 40
0.000000
 41
0.000000
  0
VERTEX
  8
0
  6
CONTINUOUS
 10
5.437080
 20
2.101440
  0
VERTEX
  8
0
  6
CONTINUOUS
 10
6.085200
 20
2.475000
  0
VERTEX
  8
0
  6
CONTINUOUS
 10
6.115560
 20
2.417800
  0
VERTEX
  8
0
  6
CONTINUOUS
 10
5.467440
 20
2.044240
  0
VERTEX
  8
0
  6
CONTINUOUS
 10
5.437080
 20
2.101440
  0
SEQEND
  8
0
  0
SOLID
  8
0
 62
    15
 10
5.467440
 20
2.044240
 11
6.115560
 21
2.417800
 12
5.475800
 22
1.982200
 13
6.123920
 23
2.355760
  0
POLYLINE
  8
0
  6
CONTINUOUS
 66
     1
 40
0.000000
 41
0.000000
  0
VERTEX
  8
0
  6
CONTINUOUS
 10
5.467440
 20
2.044240
  0
VERTEX
  8
0
  6
CONTINUOUS
 10
6.115560
 20
2.417800
  0
VERTEX
  8
0
  6
CONTINUOUS
 10
6.123920
 20
2.355760
  0
VERTEX
  8
0
  6
CONTINUOUS
 10
5.475800
 20
1.982200
  0
VERTEX
  8
0
  6
CONTINUOUS
 10
5.467440
 20
2.044240
  0
SEQEND
  8
0
  0
SOLID
  8
0
 62
    15
 10
5.475800
 20
1.982200
 11
6.123920
 21
2.355760
 12
5.471400
 22
1.949640
 13
6.119520
 23
2.323200
  0
POLYLINE
  8
0
  6
CONTINUOUS
 66
     1
 40
0.000000
 41
0.000000
  0
VERTEX
  8
0
  6
CONTINUOUS
 10
5.475800
 20
1.982200
  0
VERTEX
  8
0
  6
CONTINUOUS
 10
6.123920
 20
2.355760
  0
VERTEX
  8
0
  6
CONTINUOUS
 10
6.119520
 20
2.323200
  0
VERTEX
  8
0
  6
CONTINUOUS
 10
5.471400
 20
1.949640
  0
VERTEX
  8
0
  6
CONTINUOUS
 10
5.475800
 20
1.982200
  0
SEQEND
  8
0
  0
SOLID
  8
0
 62
    15
 10
5.471400
 20
1.949640
 11
6.119520
 21
2.323200
 12
5.460400
 22
1.916640
 13
6.108520
 23
2.290200
  0
POLYLINE
  8
0
  6
CONTINUOUS
 66
     1
 40
0.000000
 41
0.000000
  0
VERTEX
  8
0
  6
CONTINUOUS
 10
5.471400
 20
1.949640
  0
VERTEX
  8
0
  6
CONTINUOUS
 10
6.119520
 20
2.323200
  0
VERTEX
  8
0
  6
CONTINUOUS
 10
6.108520
 20
2.290200
  0
VERTEX
  8
0
  6
CONTINUOUS
 10
5.460400
 20
1.916640
  0
VERTEX
  8
0
  6
CONTINUOUS
 10
5.471400
 20
1.949640
  0
SEQEND
  8
0
  0
SOLID
  8
0
 62
    15
 10
5.460400
 20
1.916640
 11
6.108520
 21
2.290200
 12
5.442800
 22
1.883640
 13
6.090920
 23
2.257200
  0
POLYLINE
  8
0
  6
CONTINUOUS
 66
     1
 40
0.000000
 41
0.000000
  0
VERTEX
  8
0
  6
CONTINUOUS
 10
5.460400
 20
1.916640
  0
VERTEX
  8
0
  6
CONTINUOUS
 10
6.108520
 20
2.290200
  0
VERTEX
  8
0
  6
CONTINUOUS
 10
6.090920
 20
2.257200
  0
VERTEX
  8
0
  6
CONTINUOUS
 10
5.442800
 20
1.883640
  0
VERTEX
  8
0
  6
CONTINUOUS
 10
5.460400
 20
1.916640
  0
SEQEND
  8
0
  0
SOLID
  8
0
 62
    15
 10
5.442800
 20
1.883640
 11
6.090920
 21
2.257200
 12
5.418160
 22
1.850200
 13
6.066280
 23
2.223760
  0
POLYLINE
  8
0
  6
CONTINUOUS
 66
     1
 40
0.000000
 41
0.000000
  0
VERTEX
  8
0
  6
CONTINUOUS
 10
5.442800
 20
1.883640
  0
VERTEX
  8
0
  6
CONTINUOUS
 10
6.090920
 20
2.257200
  0
VERTEX
  8
0
  6
CONTINUOUS
 10
6.066280
 20
2.223760
  0
VERTEX
  8
0
  6
CONTINUOUS
 10
5.418160
 20
1.850200
  0
VERTEX
  8
0
  6
CONTINUOUS
 10
5.442800
 20
1.883640
  0
SEQEND
  8
0
  0
SOLID
  8
0
 62
    15
 10
5.418160
 20
1.850200
 11
6.066280
 21
2.223760
 12
5.386920
 22
1.817200
 13
6.035040
 23
2.190320
  0
POLYLINE
  8
0
  6
CONTINUOUS
 66
     1
 40
0.000000
 41
0.000000
  0
VERTEX
  8
0
  6
CONTINUOUS
 10
5.418160
 20
1.850200
  0
VERTEX
  8
0
  6
CONTINUOUS
 10
6.066280
 20
2.223760
  0
VERTEX
  8
0
  6
CONTINUOUS
 10
6.035040
 20
2.190320
  0
VERTEX
  8
0
  6
CONTINUOUS
 10
5.386920
 20
1.817200
  0
VERTEX
  8
0
  6
CONTINUOUS
 10
5.418160
 20
1.850200
  0
SEQEND
  8
0
  0
SOLID
  8
0
 62
    15
 10
5.386920
 20
1.817200
 11
6.035040
 21
2.190320
 12
5.347760
 22
1.784200
 13
5.995880
 23
2.157760
  0
POLYLINE
  8
0
  6
CONTINUOUS
 66
     1
 40
0.000000
 41
0.000000
  0
VERTEX
  8
0
  6
CONTINUOUS
 10
5.386920
 20
1.817200
  0
VERTEX
  8
0
  6
CONTINUOUS
 10
6.035040
 20
2.190320
  0
VERTEX
  8
0
  6
CONTINUOUS
 10
5.995880
 20
2.157760
  0
VERTEX
  8
0
  6
CONTINUOUS
 10
5.347760
 20
1.784200
  0
VERTEX
  8
0
  6
CONTINUOUS
 10
5.386920
 20
1.817200
  0
SEQEND
  8
0
  0
SOLID
  8
0
 62
    15
 10
5.347760
 20
1.784200
 11
5.995880
 21
2.157760
 12
5.347760
 22
1.763080
 13
5.995880
 23
2.136200
  0
POLYLINE
  8
0
  6
CONTINUOUS
 66
     1
 40
0.000000
 41
0.000000
  0
VERTEX
  8
0
  6
CONTINUOUS
 10
5.347760
 20
1.784200
  0
VERTEX
  8
0
  6
CONTINUOUS
 10
5.995880
 20
2.157760
  0
VERTEX
  8
0
  6
CONTINUOUS
 10
5.995880
 20
2.136200
  0
VERTEX
  8
0
  6
CONTINUOUS
 10
5.347760
 20
1.763080
  0
VERTEX
  8
0
  6
CONTINUOUS
 10
5.347760
 20
1.784200
  0
SEQEND
  8
0
  0
SOLID
  8
0
 62
    15
 10
5.347760
 20
1.763080
 11
5.995880
 21
2.136200
 12
5.500000
 22
1.756040
 13
6.148120
 23
2.129600
  0
POLYLINE
  8
0
  6
CONTINUOUS
 66
     1
 40
0.000000
 41
0.000000
  0
VERTEX
  8
0
  6
CONTINUOUS
 10
5.347760
 20
1.763080
  0
VERTEX
  8
0
  6
CONTINUOUS
 10
5.995880
 20
2.136200
  0
VERTEX
  8
0
  6
CONTINUOUS
 10
6.148120
 20
2.129600
  0
VERTEX
  8
0
  6
CONTINUOUS
 10
5.500000
 20
1.756040
  0
VERTEX
  8
0
  6
CONTINUOUS
 10
5.347760
 20
1.763080
  0
SEQEND
  8
0
  0
SOLID
  8
0
 62
    15
 10
5.396600
 20
1.511840
 11
6.044720
 21
1.885400
 12
5.368880
 22
1.480600
 13
6.017000
 23
1.854160
  0
POLYLINE
  8
0
  6
CONTINUOUS
 66
     1
 40
0.000000
 41
0.000000
  0
VERTEX
  8
0
  6
CONTINUOUS
 10
5.396600
 20
1.511840
  0
VERTEX
  8
0
  6
CONTINUOUS
 10
6.044720
 20
1.885400
  0
VERTEX
  8
0
  6
CONTINUOUS
 10
6.017000
 20
1.854160
  0
VERTEX
  8
0
  6
CONTINUOUS
 10
5.368880
 20
1.480600
  0
VERTEX
  8
0
  6
CONTINUOUS
 10
5.396600
 20
1.511840
  0
SEQEND
  8
0
  0
SOLID
  8
0
 62
    15
 10
5.368880
 20
1.480600
 11
6.017000
 21
1.854160
 12
5.358760
 22
1.450680
 13
6.007320
 23
1.824240
  0
POLYLINE
  8
0
  6
CONTINUOUS
 66
     1
 40
0.000000
 41
0.000000
  0
VERTEX
  8
0
  6
CONTINUOUS
 10
5.368880
 20
1.480600
  0
VERTEX
  8
0
  6
CONTINUOUS
 10
6.017000
 20
1.854160
  0
VERTEX
  8
0
  6
CONTINUOUS
 10
6.007320
 20
1.824240
  0
VERTEX
  8
0
  6
CONTINUOUS
 10
5.358760
 20
1.450680
  0
VERTEX
  8
0
  6
CONTINUOUS
 10
5.368880
 20
1.480600
  0
SEQEND
  8
0
  0
SOLID
  8
0
 62
    15
 10
5.500000
 20
1.756040
 11
6.148120
 21
2.129600
 12
5.500000
 22
1.545720
 13
6.148120
 23
1.919280
  0
POLYLINE
  8
0
  6
CONTINUOUS
 66
     1
 40
0.000000
 41
0.000000
  0
VERTEX
  8
0
  6
CONTINUOUS
 10
5.500000
 20
1.756040
  0
VERTEX
  8
0
  6
CONTINUOUS
 10
6.148120
 20
2.129600
  0
VERTEX
  8
0
  6
CONTINUOUS
 10
6.148120
 20
1.919280
  0
VERTEX
  8
0
  6
CONTINUOUS
 10
5.500000
 20
1.545720
  0
VERTEX
  8
0
  6
CONTINUOUS
 10
5.500000
 20
1.756040
  0
SEQEND
  8
0
  0
SOLID
  8
0
 62
     7
 10
4.537280
 20
3.087480
 11
5.185400
 21
3.461040
 12
4.539480
 22
3.050080
 13
5.187600
 23
3.423200
  0
POLYLINE
  8
0
  6
CONTINUOUS
 66
     1
 40
0.000000
 41
0.000000
  0
VERTEX
  8
0
  6
CONTINUOUS
 10
4.537280
 20
3.087480
  0
VERTEX
  8
0
  6
CONTINUOUS
 10
5.185400
 20
3.461040
  0
VERTEX
  8
0
  6
CONTINUOUS
 10
5.187600
 20
3.423200
  0
VERTEX
  8
0
  6
CONTINUOUS
 10
4.539480
 20
3.050080
  0
VERTEX
  8
0
  6
CONTINUOUS
 10
4.537280
 20
3.087480
  0
SEQEND
  8
0
  0
POLYLINE
  8
0
  6
CONTINUOUS
 66
     1
 40
0.000000
 41
0.000000
  0
VERTEX
  8
0
  6
CONTINUOUS
 10
4.537280
 20
3.087480
  0
VERTEX
  8
0
  6
CONTINUOUS
 10
4.539480
 20
3.050080
  0
VERTEX
  8
0
  6
CONTINUOUS
 10
4.557080
 20
3.009600
  0
VERTEX
  8
0
  6
CONTINUOUS
 10
4.575560
 20
2.991120
  0
VERTEX
  8
0
  6
CONTINUOUS
 10
4.601960
 20
2.975280
  0
VERTEX
  8
0
  6
CONTINUOUS
 10
4.638040
 20
2.962960
  0
VERTEX
  8
0
  6
CONTINUOUS
 10
4.684680
 20
2.955480
  0
VERTEX
  8
0
  6
CONTINUOUS
 10
4.684240
 20
2.919400
  0
VERTEX
  8
0
  6
CONTINUOUS
 10
4.697000
 20
2.881560
  0
VERTEX
  8
0
  6
CONTINUOUS
 10
4.721200
 20
2.851200
  0
VERTEX
  8
0
  6
CONTINUOUS
 10
4.754200
 20
2.836680
  0
VERTEX
  8
0
  6
CONTINUOUS
 10
4.770040
 20
2.833160
  0
VERTEX
  8
0
  6
CONTINUOUS
 10
4.780600
 20
2.827000
  0
VERTEX
  8
0
  6
CONTINUOUS
 10
4.790720
 20
2.808520
  0
VERTEX
  8
0
  6
CONTINUOUS
 10
4.794680
 20
2.767160
  0
VERTEX
  8
0
  6
CONTINUOUS
 10
4.838680
 20
2.761440
  0
VERTEX
  8
0
  6
CONTINUOUS
 10
4.875640
 20
2.746920
  0
VERTEX
  8
0
  6
CONTINUOUS
 10
4.903800
 20
2.725360
  0
VERTEX
  8
0
  6
CONTINUOUS
 10
4.921840
 20
2.698960
  0
VERTEX
  8
0
  6
CONTINUOUS
 10
4.929320
 20
2.669920
  0
VERTEX
  8
0
  6
CONTINUOUS
 10
4.924920
 20
2.640440
  0
VERTEX
  8
0
  6
CONTINUOUS
 10
4.906880
 20
2.613160
  0
VERTEX
  8
0
  6
CONTINUOUS
 10
4.875200
 20
2.589400
  0
VERTEX
  8
0
  6
CONTINUOUS
 10
4.827240
 20
2.560800
  0
VERTEX
  8
0
  6
CONTINUOUS
 10
4.810960
 20
2.545840
  0
VERTEX
  8
0
  6
CONTINUOUS
 10
4.801720
 20
2.531760
  0
VERTEX
  8
0
  6
CONTINUOUS
 10
4.800840
 20
2.519440
  0
VERTEX
  8
0
  6
CONTINUOUS
 10
4.810080
 20
2.508880
  0
VERTEX
  8
0
  6
CONTINUOUS
 10
4.830320
 20
2.501400
  0
VERTEX
  8
0
  6
CONTINUOUS
 10
4.863760
 20
2.497880
  0
VERTEX
  8
0
  6
CONTINUOUS
 10
4.957920
 20
2.491280
  0
VERTEX
  8
0
  6
CONTINUOUS
 10
4.976840
 20
2.412520
  0
VERTEX
  8
0
  6
CONTINUOUS
 10
4.993120
 20
2.377320
  0
VERTEX
  8
0
  6
CONTINUOUS
 10
5.016880
 20
2.343880
  0
VERTEX
  8
0
  6
CONTINUOUS
 10
5.050760
 20
2.312640
  0
VERTEX
  8
0
  6
CONTINUOUS
 10
5.096960
 20
2.282720
  0
VERTEX
  8
0
  6
CONTINUOUS
 10
5.159000
 20
2.254560
  0
VERTEX
  8
0
  6
CONTINUOUS
 10
5.238200
 20
2.227280
  0
VERTEX
  8
0
  6
CONTINUOUS
 10
5.320480
 20
2.194720
  0
VERTEX
  8
0
  6
CONTINUOUS
 10
5.387360
 20
2.152040
  0
VERTEX
  8
0
  6
CONTINUOUS
 10
5.437080
 20
2.101440
  0
VERTEX
  8
0
  6
CONTINUOUS
 10
5.467440
 20
2.044240
  0
VERTEX
  8
0
  6
CONTINUOUS
 10
5.475800
 20
1.982200
  0
VERTEX
  8
0
  6
CONTINUOUS
 10
5.471400
 20
1.949640
  0
VERTEX
  8
0
  6
CONTINUOUS
 10
5.460400
 20
1.916640
  0
VERTEX
  8
0
  6
CONTINUOUS
 10
5.442800
 20
1.883640
  0
VERTEX
  8
0
  6
CONTINUOUS
 10
5.418160
 20
1.850200
  0
VERTEX
  8
0
  6
CONTINUOUS
 10
5.386920
 20
1.817200
  0
VERTEX
  8
0
  6
CONTINUOUS
 10
5.347760
 20
1.784200
  0
VERTEX
  8
0
  6
CONTINUOUS
 10
5.347760
 20
1.763080
  0
VERTEX
  8
0
  6
CONTINUOUS
 10
5.500000
 20
1.756040
  0
VERTEX
  8
0
  6
CONTINUOUS
 10
5.500000
 20
1.545720
  0
VERTEX
  8
0
  6
CONTINUOUS
 10
5.441040
 20
1.536040
  0
VERTEX
  8
0
  6
CONTINUOUS
 10
5.396600
 20
1.511840
  0
VERTEX
  8
0
  6
CONTINUOUS
 10
5.368880
 20
1.480600
  0
VERTEX
  8
0
  6
CONTINUOUS
 10
5.358760
 20
1.450680
  0
VERTEX
  8
0
  6
CONTINUOUS
 10
4.255680
 20
1.450680
  0
VERTEX
  8
0
  6
CONTINUOUS
 10
4.255680
 20
3.087040
  0
VERTEX
  8
0
  6
CONTINUOUS
 10
4.537280
 20
3.087480
  0
SEQEND
  8
0
  0
TEXT
  8
0
 10
4.906440
 20
1.228480
 40
0.138172
  1
BA  672
 41
1.000000
  7
SN0
 71
     0
 72
     5
 11
5.496734
 21
1.228480
  0
TEXT
  8
0
 10
4.676760
 20
1.036640
 40
0.138172
  1
1-1/4" x 1-5/8"
 41
1.000000
  7
SN0
 71
     0
 72
     5
 11
5.724642
 21
1.036640
  0
ENDSEC
  0
EOF
