  0
SECTION
  2
HEADER
  9
$ACADVER
  1
AC1006
  9
$EXTMIN
 10
4.367880
 20
0.580360
  9
$EXTMAX
 10
7.529720
 20
3.567960
  9
$LTSCALE
 40
0.044000
  9
$PDMODE
 70
    35
  9
$PDSIZE
 40
0.035200
  0
ENDSEC
  0
SECTION
  2
TABLES
  0
TABLE
  2
LTYPE
 70
     9
  0
LTYPE
  2
CONTINUOUS
 70
    64
  3
Solid line
 72
    65
 73
     0
 40
0.000000
  0
LTYPE
  2
DASHED
 70
    64
  3
__ __ __ __ __ __ __ __ __ __ __ __ __ __ __
 72
    65
 73
     2
 40
0.000330
 49
0.000220
 49
-0.000110
  0
LTYPE
  2
HIDDEN
 70
    64
  3
 _ _ _ _ _ _ _ _ _ _ _ _ _ _ _ _ _ _ _ _ _ _
 72
    65
 73
     2
 40
0.000165
 49
0.000110
 49
-0.000055
  0
LTYPE
  2
CENTER
 70
    64
  3
____ _ ____ _ ____ _ ____ _ ____ _ ____ _ ____
 72
    65
 73
     4
 40
0.000880
 49
0.000550
 49
-0.000110
 49
0.000110
 49
-0.000110
  0
LTYPE
  2
PHANTOM
 70
    64
  3
_____ _ _ _____ _ _ _____ _ _ _____ _ _ ____
 72
    65
 73
     6
 40
0.001100
 49
0.000550
 49
-0.000110
 49
0.000110
 49
-0.000110
 49
0.000110
 49
-0.000110
  0
LTYPE
  2
DOT
 70
    64
  3
...............................................
 72
    65
 73
     2
 40
0.000110
 49
0.000000
 49
-0.000110
  0
LTYPE
  2
DASHDOT
 70
    64
  3
__ . __ . __ . __ . __ . __ . __ . __ . __ . __
 72
    65
 73
     4
 40
0.000440
 49
0.000220
 49
-0.000110
 49
0.000000
 49
-0.000110
  0
LTYPE
  2
BORDER
 70
    64
  3
__ __ . __ __ . __ __ . __ __ . __ __ . __ __
 72
    65
 73
     6
 40
0.000770
 49
0.000220
 49
-0.000110
 49
0.000220
 49
-0.000110
 49
0.000000
 49
-0.000110
  0
LTYPE
  2
DIVIDE
 70
    64
  3
__ . . __ . . __ . . __ . . __ . . __ . . __
 72
    65
 73
     6
 40
0.000550
 49
0.000220
 49
-0.000110
 49
0.000000
 49
-0.000110
 49
0.000000
 49
-0.000110
  0
LTYPE
  2
DOTDOT
 70
    64
  3
 . .  . .  . .  . .  . .  . . 
 72
    65
 73
     5
 40
0.000242
 49
-0.000110
 49
0.000000
 49
-0.000110
 49
0.000000
 49
-0.000110
  0
ENDTAB
  0
TABLE
  2
STYLE
 70
     2
  0
STYLE
 70
     0
  2
SN0
 40
0.000000
 41
0.000440
 50
0.000000
 71
     0
 42
0.000000
  3
ROMAND
  0
STYLE
 70
    68
  2
SV0
 40
0.000000
 41
0.000440
 50
0.000000
 71
     0
 42
0.000000
  3
ROMAND
  0
ENDTAB
  0
TABLE
  2
LAYER
 70
     3
  0
LAYER
  2
FOREGROUND
 70
    64
 62
     7
  6
CONTINUOUS
  0
LAYER
  2
BACKGROUND
 70
    65
 62
    -7
  6
CONTINUOUS
  0
LAYER
  2
0
 70
    64
 62
     7
  6
CONTINUOUS
  0
ENDTAB
  0
ENDSEC
  0
SECTION
  2
ENTITIES
  0
POLYLINE
  8
FOREGROUND
  6
CONTINUOUS
 66
     1
 40
0.000000
 41
0.000000
  0
VERTEX
  8
FOREGROUND
  6
CONTINUOUS
 10
0.000000
 20
4.148320
  0
VERTEX
  8
FOREGROUND
  6
CONTINUOUS
 10
8.499920
 20
4.148320
  0
VERTEX
  8
FOREGROUND
  6
CONTINUOUS
 10
8.499920
 20
-6.851680
  0
VERTEX
  8
FOREGROUND
  6
CONTINUOUS
 10
0.000000
 20
-6.851680
  0
VERTEX
  8
FOREGROUND
  6
CONTINUOUS
 10
0.000000
 20
4.148320
  0
SEQEND
  8
0
  0
POLYLINE
  8
FOREGROUND
  6
CONTINUOUS
 66
     1
 40
0.000000
 41
0.000000
  0
VERTEX
  8
FOREGROUND
  6
CONTINUOUS
 10
0.000000
 20
4.148320
  0
VERTEX
  8
FOREGROUND
  6
CONTINUOUS
 10
8.499920
 20
4.148320
  0
VERTEX
  8
FOREGROUND
  6
CONTINUOUS
 10
8.499920
 20
-6.851680
  0
VERTEX
  8
FOREGROUND
  6
CONTINUOUS
 10
0.000000
 20
-6.851680
  0
VERTEX
  8
FOREGROUND
  6
CONTINUOUS
 10
0.000000
 20
4.148320
  0
SEQEND
  8
0
  0
POLYLINE
  8
0
  6
CONTINUOUS
 66
     1
 40
0.014080
 41
0.014080
  0
VERTEX
  8
0
  6
CONTINUOUS
 10
7.054080
 20
2.797960
  0
VERTEX
  8
0
  6
CONTINUOUS
 10
7.061120
 20
2.830520
  0
VERTEX
  8
0
  6
CONTINUOUS
 10
7.072560
 20
2.857360
  0
VERTEX
  8
0
  6
CONTINUOUS
 10
7.087520
 20
2.878480
  0
VERTEX
  8
0
  6
CONTINUOUS
 10
7.105560
 20
2.894320
  0
VERTEX
  8
0
  6
CONTINUOUS
 10
7.125360
 20
2.905760
  0
VERTEX
  8
0
  6
CONTINUOUS
 10
7.146480
 20
2.913680
  0
VERTEX
  8
0
  6
CONTINUOUS
 10
7.179040
 20
2.918520
  0
VERTEX
  8
0
  6
CONTINUOUS
 10
7.200600
 20
2.918520
  0
VERTEX
  8
0
  6
CONTINUOUS
 10
7.231400
 20
2.914560
  0
VERTEX
  8
0
  6
CONTINUOUS
 10
7.249880
 20
2.908840
  0
VERTEX
  8
0
  6
CONTINUOUS
 10
7.267040
 20
2.901800
  0
VERTEX
  8
0
  6
CONTINUOUS
 10
7.296960
 20
2.882440
  0
VERTEX
  8
0
  6
CONTINUOUS
 10
7.321160
 20
2.858680
  0
VERTEX
  8
0
  6
CONTINUOUS
 10
7.331280
 20
2.845480
  0
VERTEX
  8
0
  6
CONTINUOUS
 10
7.346680
 20
2.817320
  0
VERTEX
  8
0
  6
CONTINUOUS
 10
7.356360
 20
2.788720
  0
VERTEX
  8
0
  6
CONTINUOUS
 10
7.360320
 20
2.761000
  0
VERTEX
  8
0
  6
CONTINUOUS
 10
7.359000
 20
2.720520
  0
VERTEX
  8
0
  6
CONTINUOUS
 10
7.354600
 20
2.689720
  0
VERTEX
  8
0
  6
CONTINUOUS
 10
7.344920
 20
2.658480
  0
VERTEX
  8
0
  6
CONTINUOUS
 10
7.337880
 20
2.643080
  0
VERTEX
  8
0
  6
CONTINUOUS
 10
7.329080
 20
2.628560
  0
VERTEX
  8
0
  6
CONTINUOUS
 10
7.311920
 20
2.607880
  0
VERTEX
  8
0
  6
CONTINUOUS
 10
7.289480
 20
2.589840
  0
VERTEX
  8
0
  6
CONTINUOUS
 10
7.261760
 20
2.575760
  0
VERTEX
  8
0
  6
CONTINUOUS
 10
7.239760
 20
2.568280
  0
VERTEX
  8
0
  6
CONTINUOUS
 10
7.201040
 20
2.561680
  0
VERTEX
  8
0
  6
CONTINUOUS
 10
7.164520
 20
2.560360
  0
VERTEX
  8
0
  6
CONTINUOUS
 10
4.852320
 20
2.560360
  0
VERTEX
  8
0
  6
CONTINUOUS
 10
4.852320
 20
3.560480
  0
VERTEX
  8
0
  6
CONTINUOUS
 10
5.379440
 20
3.560480
  0
VERTEX
  8
0
  6
CONTINUOUS
 10
5.379440
 20
3.454440
  0
VERTEX
  8
0
  6
CONTINUOUS
 10
5.417280
 20
3.454440
  0
VERTEX
  8
0
  6
CONTINUOUS
 10
5.448080
 20
3.452240
  0
VERTEX
  8
0
  6
CONTINUOUS
 10
5.477120
 20
3.447840
  0
VERTEX
  8
0
  6
CONTINUOUS
 10
5.504840
 20
3.441240
  0
VERTEX
  8
0
  6
CONTINUOUS
 10
5.531680
 20
3.432880
  0
VERTEX
  8
0
  6
CONTINUOUS
 10
5.557640
 20
3.422760
  0
VERTEX
  8
0
  6
CONTINUOUS
 10
5.582280
 20
3.411320
  0
VERTEX
  8
0
  6
CONTINUOUS
 10
5.628920
 20
3.383600
  0
VERTEX
  8
0
  6
CONTINUOUS
 10
5.672920
 20
3.351920
  0
VERTEX
  8
0
  6
CONTINUOUS
 10
5.734520
 20
3.298680
  0
VERTEX
  8
0
  6
CONTINUOUS
 10
5.870920
 20
3.168000
  0
VERTEX
  8
0
  6
CONTINUOUS
 10
5.931640
 20
3.119600
  0
VERTEX
  8
0
  6
CONTINUOUS
 10
5.974320
 20
3.092760
  0
VERTEX
  8
0
  6
CONTINUOUS
 10
6.019640
 20
3.072080
  0
VERTEX
  8
0
  6
CONTINUOUS
 10
6.043400
 20
3.064160
  0
VERTEX
  8
0
  6
CONTINUOUS
 10
6.068040
 20
3.058000
  0
VERTEX
  8
0
  6
CONTINUOUS
 10
6.107200
 20
3.052720
  0
VERTEX
  8
0
  6
CONTINUOUS
 10
6.127000
 20
3.052280
  0
VERTEX
  8
0
  6
CONTINUOUS
 10
6.127000
 20
2.944040
  0
VERTEX
  8
0
  6
CONTINUOUS
 10
6.916360
 20
2.943600
  0
VERTEX
  8
0
  6
CONTINUOUS
 10
6.937480
 20
2.938760
  0
VERTEX
  8
0
  6
CONTINUOUS
 10
6.959480
 20
2.929520
  0
VERTEX
  8
0
  6
CONTINUOUS
 10
6.981040
 20
2.915880
  0
VERTEX
  8
0
  6
CONTINUOUS
 10
7.001280
 20
2.897840
  0
VERTEX
  8
0
  6
CONTINUOUS
 10
7.019320
 20
2.875400
  0
VERTEX
  8
0
  6
CONTINUOUS
 10
7.033840
 20
2.849000
  0
VERTEX
  8
0
  6
CONTINUOUS
 10
7.040000
 20
2.834480
  0
VERTEX
  8
0
  6
CONTINUOUS
 10
7.047920
 20
2.802360
  0
VERTEX
  8
0
  6
CONTINUOUS
 10
7.054080
 20
2.797960
  0
SEQEND
  8
0
  0
SOLID
  8
0
 62
    15
 10
5.073640
 20
1.918400
 11
5.726160
 21
2.282280
 12
5.122040
 22
1.893760
 13
5.774560
 23
2.257640
  0
POLYLINE
  8
0
  6
CONTINUOUS
 66
     1
 40
0.000000
 41
0.000000
  0
VERTEX
  8
0
  6
CONTINUOUS
 10
5.073640
 20
1.918400
  0
VERTEX
  8
0
  6
CONTINUOUS
 10
5.726160
 20
2.282280
  0
VERTEX
  8
0
  6
CONTINUOUS
 10
5.774560
 20
2.257640
  0
VERTEX
  8
0
  6
CONTINUOUS
 10
5.122040
 20
1.893760
  0
VERTEX
  8
0
  6
CONTINUOUS
 10
5.073640
 20
1.918400
  0
SEQEND
  8
0
  0
SOLID
  8
0
 62
    15
 10
6.543240
 20
1.358280
 11
7.195760
 21
1.722160
 12
6.556000
 22
1.330120
 13
7.208520
 23
1.694000
  0
POLYLINE
  8
0
  6
CONTINUOUS
 66
     1
 40
0.000000
 41
0.000000
  0
VERTEX
  8
0
  6
CONTINUOUS
 10
6.543240
 20
1.358280
  0
VERTEX
  8
0
  6
CONTINUOUS
 10
7.195760
 20
1.722160
  0
VERTEX
  8
0
  6
CONTINUOUS
 10
7.208520
 20
1.694000
  0
VERTEX
  8
0
  6
CONTINUOUS
 10
6.556000
 20
1.330120
  0
VERTEX
  8
0
  6
CONTINUOUS
 10
6.543240
 20
1.358280
  0
SEQEND
  8
0
  0
SOLID
  8
0
 62
    15
 10
6.556000
 20
1.330120
 11
7.208520
 21
1.694000
 12
6.564360
 22
1.298000
 13
7.216880
 23
1.661880
  0
POLYLINE
  8
0
  6
CONTINUOUS
 66
     1
 40
0.000000
 41
0.000000
  0
VERTEX
  8
0
  6
CONTINUOUS
 10
6.556000
 20
1.330120
  0
VERTEX
  8
0
  6
CONTINUOUS
 10
7.208520
 20
1.694000
  0
VERTEX
  8
0
  6
CONTINUOUS
 10
7.216880
 20
1.661880
  0
VERTEX
  8
0
  6
CONTINUOUS
 10
6.564360
 20
1.298000
  0
VERTEX
  8
0
  6
CONTINUOUS
 10
6.556000
 20
1.330120
  0
SEQEND
  8
0
  0
SOLID
  8
0
 62
    15
 10
6.564360
 20
1.298000
 11
7.216880
 21
1.661880
 12
6.570520
 22
1.294040
 13
7.223040
 23
1.657480
  0
POLYLINE
  8
0
  6
CONTINUOUS
 66
     1
 40
0.000000
 41
0.000000
  0
VERTEX
  8
0
  6
CONTINUOUS
 10
6.564360
 20
1.298000
  0
VERTEX
  8
0
  6
CONTINUOUS
 10
7.216880
 20
1.661880
  0
VERTEX
  8
0
  6
CONTINUOUS
 10
7.223040
 20
1.657480
  0
VERTEX
  8
0
  6
CONTINUOUS
 10
6.570520
 20
1.294040
  0
VERTEX
  8
0
  6
CONTINUOUS
 10
6.564360
 20
1.298000
  0
SEQEND
  8
0
  0
SOLID
  8
0
 62
    15
 10
6.783480
 20
1.397440
 11
7.436000
 21
1.760880
 12
6.813400
 22
1.378080
 13
7.465920
 23
1.741960
  0
POLYLINE
  8
0
  6
CONTINUOUS
 66
     1
 40
0.000000
 41
0.000000
  0
VERTEX
  8
0
  6
CONTINUOUS
 10
6.783480
 20
1.397440
  0
VERTEX
  8
0
  6
CONTINUOUS
 10
7.436000
 20
1.760880
  0
VERTEX
  8
0
  6
CONTINUOUS
 10
7.465920
 20
1.741960
  0
VERTEX
  8
0
  6
CONTINUOUS
 10
6.813400
 20
1.378080
  0
VERTEX
  8
0
  6
CONTINUOUS
 10
6.783480
 20
1.397440
  0
SEQEND
  8
0
  0
SOLID
  8
0
 62
    15
 10
6.813400
 20
1.378080
 11
7.465920
 21
1.741960
 12
6.837600
 22
1.354320
 13
7.490120
 23
1.718200
  0
POLYLINE
  8
0
  6
CONTINUOUS
 66
     1
 40
0.000000
 41
0.000000
  0
VERTEX
  8
0
  6
CONTINUOUS
 10
6.813400
 20
1.378080
  0
VERTEX
  8
0
  6
CONTINUOUS
 10
7.465920
 20
1.741960
  0
VERTEX
  8
0
  6
CONTINUOUS
 10
7.490120
 20
1.718200
  0
VERTEX
  8
0
  6
CONTINUOUS
 10
6.837600
 20
1.354320
  0
VERTEX
  8
0
  6
CONTINUOUS
 10
6.813400
 20
1.378080
  0
SEQEND
  8
0
  0
SOLID
  8
0
 62
    15
 10
6.837600
 20
1.354320
 11
7.490120
 21
1.718200
 12
6.855640
 22
1.327040
 13
7.508600
 23
1.690920
  0
POLYLINE
  8
0
  6
CONTINUOUS
 66
     1
 40
0.000000
 41
0.000000
  0
VERTEX
  8
0
  6
CONTINUOUS
 10
6.837600
 20
1.354320
  0
VERTEX
  8
0
  6
CONTINUOUS
 10
7.490120
 20
1.718200
  0
VERTEX
  8
0
  6
CONTINUOUS
 10
7.508600
 20
1.690920
  0
VERTEX
  8
0
  6
CONTINUOUS
 10
6.855640
 20
1.327040
  0
VERTEX
  8
0
  6
CONTINUOUS
 10
6.837600
 20
1.354320
  0
SEQEND
  8
0
  0
SOLID
  8
0
 62
    15
 10
6.855640
 20
1.327040
 11
7.508600
 21
1.690920
 12
6.868400
 22
1.298880
 13
7.520920
 23
1.662320
  0
POLYLINE
  8
0
  6
CONTINUOUS
 66
     1
 40
0.000000
 41
0.000000
  0
VERTEX
  8
0
  6
CONTINUOUS
 10
6.855640
 20
1.327040
  0
VERTEX
  8
0
  6
CONTINUOUS
 10
7.508600
 20
1.690920
  0
VERTEX
  8
0
  6
CONTINUOUS
 10
7.520920
 20
1.662320
  0
VERTEX
  8
0
  6
CONTINUOUS
 10
6.868400
 20
1.298880
  0
VERTEX
  8
0
  6
CONTINUOUS
 10
6.855640
 20
1.327040
  0
SEQEND
  8
0
  0
SOLID
  8
0
 62
    15
 10
6.868400
 20
1.298880
 11
7.520920
 21
1.662320
 12
6.875440
 22
1.270280
 13
7.527960
 23
1.634160
  0
POLYLINE
  8
0
  6
CONTINUOUS
 66
     1
 40
0.000000
 41
0.000000
  0
VERTEX
  8
0
  6
CONTINUOUS
 10
6.868400
 20
1.298880
  0
VERTEX
  8
0
  6
CONTINUOUS
 10
7.520920
 20
1.662320
  0
VERTEX
  8
0
  6
CONTINUOUS
 10
7.527960
 20
1.634160
  0
VERTEX
  8
0
  6
CONTINUOUS
 10
6.875440
 20
1.270280
  0
VERTEX
  8
0
  6
CONTINUOUS
 10
6.868400
 20
1.298880
  0
SEQEND
  8
0
  0
SOLID
  8
0
 62
    15
 10
6.875440
 20
1.270280
 11
7.527960
 21
1.634160
 12
6.876760
 22
1.243880
 13
7.529280
 23
1.607760
  0
POLYLINE
  8
0
  6
CONTINUOUS
 66
     1
 40
0.000000
 41
0.000000
  0
VERTEX
  8
0
  6
CONTINUOUS
 10
6.875440
 20
1.270280
  0
VERTEX
  8
0
  6
CONTINUOUS
 10
7.527960
 20
1.634160
  0
VERTEX
  8
0
  6
CONTINUOUS
 10
7.529280
 20
1.607760
  0
VERTEX
  8
0
  6
CONTINUOUS
 10
6.876760
 20
1.243880
  0
VERTEX
  8
0
  6
CONTINUOUS
 10
6.875440
 20
1.270280
  0
SEQEND
  8
0
  0
SOLID
  8
0
 62
    15
 10
6.876760
 20
1.243880
 11
7.529280
 21
1.607760
 12
6.871040
 22
1.185360
 13
7.523560
 23
1.549240
  0
POLYLINE
  8
0
  6
CONTINUOUS
 66
     1
 40
0.000000
 41
0.000000
  0
VERTEX
  8
0
  6
CONTINUOUS
 10
6.876760
 20
1.243880
  0
VERTEX
  8
0
  6
CONTINUOUS
 10
7.529280
 20
1.607760
  0
VERTEX
  8
0
  6
CONTINUOUS
 10
7.523560
 20
1.549240
  0
VERTEX
  8
0
  6
CONTINUOUS
 10
6.871040
 20
1.185360
  0
VERTEX
  8
0
  6
CONTINUOUS
 10
6.876760
 20
1.243880
  0
SEQEND
  8
0
  0
SOLID
  8
0
 62
    15
 10
6.871040
 20
1.185360
 11
7.523560
 21
1.549240
 12
6.861360
 22
1.154560
 13
7.513880
 23
1.518000
  0
POLYLINE
  8
0
  6
CONTINUOUS
 66
     1
 40
0.000000
 41
0.000000
  0
VERTEX
  8
0
  6
CONTINUOUS
 10
6.871040
 20
1.185360
  0
VERTEX
  8
0
  6
CONTINUOUS
 10
7.523560
 20
1.549240
  0
VERTEX
  8
0
  6
CONTINUOUS
 10
7.513880
 20
1.518000
  0
VERTEX
  8
0
  6
CONTINUOUS
 10
6.861360
 20
1.154560
  0
VERTEX
  8
0
  6
CONTINUOUS
 10
6.871040
 20
1.185360
  0
SEQEND
  8
0
  0
SOLID
  8
0
 62
    15
 10
6.861360
 20
1.154560
 11
7.513880
 21
1.518000
 12
6.845080
 22
1.124200
 13
7.498040
 23
1.488080
  0
POLYLINE
  8
0
  6
CONTINUOUS
 66
     1
 40
0.000000
 41
0.000000
  0
VERTEX
  8
0
  6
CONTINUOUS
 10
6.861360
 20
1.154560
  0
VERTEX
  8
0
  6
CONTINUOUS
 10
7.513880
 20
1.518000
  0
VERTEX
  8
0
  6
CONTINUOUS
 10
7.498040
 20
1.488080
  0
VERTEX
  8
0
  6
CONTINUOUS
 10
6.845080
 20
1.124200
  0
VERTEX
  8
0
  6
CONTINUOUS
 10
6.861360
 20
1.154560
  0
SEQEND
  8
0
  0
SOLID
  8
0
 62
    15
 10
6.821320
 20
1.097360
 11
7.473840
 21
1.461240
 12
6.787880
 22
1.076240
 13
7.440400
 23
1.439680
  0
POLYLINE
  8
0
  6
CONTINUOUS
 66
     1
 40
0.000000
 41
0.000000
  0
VERTEX
  8
0
  6
CONTINUOUS
 10
6.821320
 20
1.097360
  0
VERTEX
  8
0
  6
CONTINUOUS
 10
7.473840
 20
1.461240
  0
VERTEX
  8
0
  6
CONTINUOUS
 10
7.440400
 20
1.439680
  0
VERTEX
  8
0
  6
CONTINUOUS
 10
6.787880
 20
1.076240
  0
VERTEX
  8
0
  6
CONTINUOUS
 10
6.821320
 20
1.097360
  0
SEQEND
  8
0
  0
SOLID
  8
0
 62
    15
 10
6.845080
 20
1.124200
 11
7.498040
 21
1.488080
 12
6.821320
 22
1.097360
 13
7.473840
 23
1.461240
  0
POLYLINE
  8
0
  6
CONTINUOUS
 66
     1
 40
0.000000
 41
0.000000
  0
VERTEX
  8
0
  6
CONTINUOUS
 10
6.845080
 20
1.124200
  0
VERTEX
  8
0
  6
CONTINUOUS
 10
7.498040
 20
1.488080
  0
VERTEX
  8
0
  6
CONTINUOUS
 10
7.473840
 20
1.461240
  0
VERTEX
  8
0
  6
CONTINUOUS
 10
6.821320
 20
1.097360
  0
VERTEX
  8
0
  6
CONTINUOUS
 10
6.845080
 20
1.124200
  0
SEQEND
  8
0
  0
SOLID
  8
0
 62
    15
 10
4.368320
 20
2.056560
 11
5.020840
 21
2.420000
 12
4.895440
 22
2.056560
 13
5.547960
 23
2.420000
  0
POLYLINE
  8
0
  6
CONTINUOUS
 66
     1
 40
0.000000
 41
0.000000
  0
VERTEX
  8
0
  6
CONTINUOUS
 10
4.368320
 20
2.056560
  0
VERTEX
  8
0
  6
CONTINUOUS
 10
5.020840
 20
2.420000
  0
VERTEX
  8
0
  6
CONTINUOUS
 10
5.547960
 20
2.420000
  0
VERTEX
  8
0
  6
CONTINUOUS
 10
4.895440
 20
2.056560
  0
VERTEX
  8
0
  6
CONTINUOUS
 10
4.368320
 20
2.056560
  0
SEQEND
  8
0
  0
SOLID
  8
0
 62
    15
 10
4.895440
 20
2.056560
 11
5.547960
 21
2.420000
 12
4.895440
 22
1.950080
 13
5.547960
 23
2.313960
  0
POLYLINE
  8
0
  6
CONTINUOUS
 66
     1
 40
0.000000
 41
0.000000
  0
VERTEX
  8
0
  6
CONTINUOUS
 10
4.895440
 20
2.056560
  0
VERTEX
  8
0
  6
CONTINUOUS
 10
5.547960
 20
2.420000
  0
VERTEX
  8
0
  6
CONTINUOUS
 10
5.547960
 20
2.313960
  0
VERTEX
  8
0
  6
CONTINUOUS
 10
4.895440
 20
1.950080
  0
VERTEX
  8
0
  6
CONTINUOUS
 10
4.895440
 20
2.056560
  0
SEQEND
  8
0
  0
SOLID
  8
0
 62
    15
 10
4.895440
 20
1.950080
 11
5.547960
 21
2.313960
 12
4.901600
 22
1.950080
 13
5.554560
 23
2.313960
  0
POLYLINE
  8
0
  6
CONTINUOUS
 66
     1
 40
0.000000
 41
0.000000
  0
VERTEX
  8
0
  6
CONTINUOUS
 10
4.895440
 20
1.950080
  0
VERTEX
  8
0
  6
CONTINUOUS
 10
5.547960
 20
2.313960
  0
VERTEX
  8
0
  6
CONTINUOUS
 10
5.554560
 20
2.313960
  0
VERTEX
  8
0
  6
CONTINUOUS
 10
4.901600
 20
1.950080
  0
VERTEX
  8
0
  6
CONTINUOUS
 10
4.895440
 20
1.950080
  0
SEQEND
  8
0
  0
SOLID
  8
0
 62
    15
 10
4.901600
 20
1.950080
 11
5.554560
 21
2.313960
 12
4.964080
 22
1.947880
 13
5.616600
 23
2.311760
  0
POLYLINE
  8
0
  6
CONTINUOUS
 66
     1
 40
0.000000
 41
0.000000
  0
VERTEX
  8
0
  6
CONTINUOUS
 10
4.901600
 20
1.950080
  0
VERTEX
  8
0
  6
CONTINUOUS
 10
5.554560
 20
2.313960
  0
VERTEX
  8
0
  6
CONTINUOUS
 10
5.616600
 20
2.311760
  0
VERTEX
  8
0
  6
CONTINUOUS
 10
4.964080
 20
1.947880
  0
VERTEX
  8
0
  6
CONTINUOUS
 10
4.901600
 20
1.950080
  0
SEQEND
  8
0
  0
SOLID
  8
0
 62
    15
 10
4.964080
 20
1.947880
 11
5.616600
 21
2.311760
 12
5.021280
 22
1.936880
 13
5.673800
 23
2.300760
  0
POLYLINE
  8
0
  6
CONTINUOUS
 66
     1
 40
0.000000
 41
0.000000
  0
VERTEX
  8
0
  6
CONTINUOUS
 10
4.964080
 20
1.947880
  0
VERTEX
  8
0
  6
CONTINUOUS
 10
5.616600
 20
2.311760
  0
VERTEX
  8
0
  6
CONTINUOUS
 10
5.673800
 20
2.300760
  0
VERTEX
  8
0
  6
CONTINUOUS
 10
5.021280
 20
1.936880
  0
VERTEX
  8
0
  6
CONTINUOUS
 10
4.964080
 20
1.947880
  0
SEQEND
  8
0
  0
SOLID
  8
0
 62
    15
 10
5.021280
 20
1.936880
 11
5.673800
 21
2.300760
 12
5.073640
 22
1.918400
 13
5.726160
 23
2.282280
  0
POLYLINE
  8
0
  6
CONTINUOUS
 66
     1
 40
0.000000
 41
0.000000
  0
VERTEX
  8
0
  6
CONTINUOUS
 10
5.021280
 20
1.936880
  0
VERTEX
  8
0
  6
CONTINUOUS
 10
5.673800
 20
2.300760
  0
VERTEX
  8
0
  6
CONTINUOUS
 10
5.726160
 20
2.282280
  0
VERTEX
  8
0
  6
CONTINUOUS
 10
5.073640
 20
1.918400
  0
VERTEX
  8
0
  6
CONTINUOUS
 10
5.021280
 20
1.936880
  0
SEQEND
  8
0
  0
SOLID
  8
0
 62
    15
 10
6.622000
 20
1.390400
 11
7.274520
 21
1.753840
 12
6.662920
 22
1.409320
 13
7.315440
 23
1.773200
  0
POLYLINE
  8
0
  6
CONTINUOUS
 66
     1
 40
0.000000
 41
0.000000
  0
VERTEX
  8
0
  6
CONTINUOUS
 10
6.622000
 20
1.390400
  0
VERTEX
  8
0
  6
CONTINUOUS
 10
7.274520
 20
1.753840
  0
VERTEX
  8
0
  6
CONTINUOUS
 10
7.315440
 20
1.773200
  0
VERTEX
  8
0
  6
CONTINUOUS
 10
6.662920
 20
1.409320
  0
VERTEX
  8
0
  6
CONTINUOUS
 10
6.622000
 20
1.390400
  0
SEQEND
  8
0
  0
SOLID
  8
0
 62
    15
 10
5.122040
 20
1.893760
 11
5.774560
 21
2.257640
 12
5.167360
 22
1.864280
 13
5.819880
 23
2.227720
  0
POLYLINE
  8
0
  6
CONTINUOUS
 66
     1
 40
0.000000
 41
0.000000
  0
VERTEX
  8
0
  6
CONTINUOUS
 10
5.122040
 20
1.893760
  0
VERTEX
  8
0
  6
CONTINUOUS
 10
5.774560
 20
2.257640
  0
VERTEX
  8
0
  6
CONTINUOUS
 10
5.819880
 20
2.227720
  0
VERTEX
  8
0
  6
CONTINUOUS
 10
5.167360
 20
1.864280
  0
VERTEX
  8
0
  6
CONTINUOUS
 10
5.122040
 20
1.893760
  0
SEQEND
  8
0
  0
SOLID
  8
0
 62
    15
 10
5.167360
 20
1.864280
 11
5.819880
 21
2.227720
 12
5.210040
 22
1.830400
 13
5.862560
 23
2.194280
  0
POLYLINE
  8
0
  6
CONTINUOUS
 66
     1
 40
0.000000
 41
0.000000
  0
VERTEX
  8
0
  6
CONTINUOUS
 10
5.167360
 20
1.864280
  0
VERTEX
  8
0
  6
CONTINUOUS
 10
5.819880
 20
2.227720
  0
VERTEX
  8
0
  6
CONTINUOUS
 10
5.862560
 20
2.194280
  0
VERTEX
  8
0
  6
CONTINUOUS
 10
5.210040
 20
1.830400
  0
VERTEX
  8
0
  6
CONTINUOUS
 10
5.167360
 20
1.864280
  0
SEQEND
  8
0
  0
SOLID
  8
0
 62
    15
 10
5.210040
 20
1.830400
 11
5.862560
 21
2.194280
 12
5.290120
 22
1.756480
 13
5.942640
 23
2.120360
  0
POLYLINE
  8
0
  6
CONTINUOUS
 66
     1
 40
0.000000
 41
0.000000
  0
VERTEX
  8
0
  6
CONTINUOUS
 10
5.210040
 20
1.830400
  0
VERTEX
  8
0
  6
CONTINUOUS
 10
5.862560
 20
2.194280
  0
VERTEX
  8
0
  6
CONTINUOUS
 10
5.942640
 20
2.120360
  0
VERTEX
  8
0
  6
CONTINUOUS
 10
5.290120
 20
1.756480
  0
VERTEX
  8
0
  6
CONTINUOUS
 10
5.210040
 20
1.830400
  0
SEQEND
  8
0
  0
SOLID
  8
0
 62
    15
 10
5.290120
 20
1.756480
 11
5.942640
 21
2.120360
 12
5.328840
 22
1.718640
 13
5.981360
 23
2.082520
  0
POLYLINE
  8
0
  6
CONTINUOUS
 66
     1
 40
0.000000
 41
0.000000
  0
VERTEX
  8
0
  6
CONTINUOUS
 10
5.290120
 20
1.756480
  0
VERTEX
  8
0
  6
CONTINUOUS
 10
5.942640
 20
2.120360
  0
VERTEX
  8
0
  6
CONTINUOUS
 10
5.981360
 20
2.082520
  0
VERTEX
  8
0
  6
CONTINUOUS
 10
5.328840
 20
1.718640
  0
VERTEX
  8
0
  6
CONTINUOUS
 10
5.290120
 20
1.756480
  0
SEQEND
  8
0
  0
SOLID
  8
0
 62
    15
 10
5.328840
 20
1.718640
 11
5.981360
 21
2.082520
 12
5.367560
 22
1.681680
 13
6.020520
 23
2.045560
  0
POLYLINE
  8
0
  6
CONTINUOUS
 66
     1
 40
0.000000
 41
0.000000
  0
VERTEX
  8
0
  6
CONTINUOUS
 10
5.328840
 20
1.718640
  0
VERTEX
  8
0
  6
CONTINUOUS
 10
5.981360
 20
2.082520
  0
VERTEX
  8
0
  6
CONTINUOUS
 10
6.020520
 20
2.045560
  0
VERTEX
  8
0
  6
CONTINUOUS
 10
5.367560
 20
1.681680
  0
VERTEX
  8
0
  6
CONTINUOUS
 10
5.328840
 20
1.718640
  0
SEQEND
  8
0
  0
SOLID
  8
0
 62
    15
 10
5.367560
 20
1.681680
 11
6.020520
 21
2.045560
 12
5.448080
 22
1.615680
 13
6.100600
 23
1.979120
  0
POLYLINE
  8
0
  6
CONTINUOUS
 66
     1
 40
0.000000
 41
0.000000
  0
VERTEX
  8
0
  6
CONTINUOUS
 10
5.367560
 20
1.681680
  0
VERTEX
  8
0
  6
CONTINUOUS
 10
6.020520
 20
2.045560
  0
VERTEX
  8
0
  6
CONTINUOUS
 10
6.100600
 20
1.979120
  0
VERTEX
  8
0
  6
CONTINUOUS
 10
5.448080
 20
1.615680
  0
VERTEX
  8
0
  6
CONTINUOUS
 10
5.367560
 20
1.681680
  0
SEQEND
  8
0
  0
SOLID
  8
0
 62
    15
 10
5.448080
 20
1.615680
 11
6.100600
 21
1.979120
 12
5.490760
 22
1.588840
 13
6.143280
 23
1.952280
  0
POLYLINE
  8
0
  6
CONTINUOUS
 66
     1
 40
0.000000
 41
0.000000
  0
VERTEX
  8
0
  6
CONTINUOUS
 10
5.448080
 20
1.615680
  0
VERTEX
  8
0
  6
CONTINUOUS
 10
6.100600
 20
1.979120
  0
VERTEX
  8
0
  6
CONTINUOUS
 10
6.143280
 20
1.952280
  0
VERTEX
  8
0
  6
CONTINUOUS
 10
5.490760
 20
1.588840
  0
VERTEX
  8
0
  6
CONTINUOUS
 10
5.448080
 20
1.615680
  0
SEQEND
  8
0
  0
SOLID
  8
0
 62
    15
 10
5.490760
 20
1.588840
 11
6.143280
 21
1.952280
 12
5.536080
 22
1.567720
 13
6.188600
 23
1.931600
  0
POLYLINE
  8
0
  6
CONTINUOUS
 66
     1
 40
0.000000
 41
0.000000
  0
VERTEX
  8
0
  6
CONTINUOUS
 10
5.490760
 20
1.588840
  0
VERTEX
  8
0
  6
CONTINUOUS
 10
6.143280
 20
1.952280
  0
VERTEX
  8
0
  6
CONTINUOUS
 10
6.188600
 20
1.931600
  0
VERTEX
  8
0
  6
CONTINUOUS
 10
5.536080
 20
1.567720
  0
VERTEX
  8
0
  6
CONTINUOUS
 10
5.490760
 20
1.588840
  0
SEQEND
  8
0
  0
SOLID
  8
0
 62
    15
 10
5.536080
 20
1.567720
 11
6.188600
 21
1.931600
 12
5.584480
 22
1.553640
 13
6.237000
 23
1.917520
  0
POLYLINE
  8
0
  6
CONTINUOUS
 66
     1
 40
0.000000
 41
0.000000
  0
VERTEX
  8
0
  6
CONTINUOUS
 10
5.536080
 20
1.567720
  0
VERTEX
  8
0
  6
CONTINUOUS
 10
6.188600
 20
1.931600
  0
VERTEX
  8
0
  6
CONTINUOUS
 10
6.237000
 20
1.917520
  0
VERTEX
  8
0
  6
CONTINUOUS
 10
5.584480
 20
1.553640
  0
VERTEX
  8
0
  6
CONTINUOUS
 10
5.536080
 20
1.567720
  0
SEQEND
  8
0
  0
SOLID
  8
0
 62
    15
 10
5.584480
 20
1.553640
 11
6.237000
 21
1.917520
 12
5.637280
 22
1.547920
 13
6.289800
 23
1.911800
  0
POLYLINE
  8
0
  6
CONTINUOUS
 66
     1
 40
0.000000
 41
0.000000
  0
VERTEX
  8
0
  6
CONTINUOUS
 10
5.584480
 20
1.553640
  0
VERTEX
  8
0
  6
CONTINUOUS
 10
6.237000
 20
1.917520
  0
VERTEX
  8
0
  6
CONTINUOUS
 10
6.289800
 20
1.911800
  0
VERTEX
  8
0
  6
CONTINUOUS
 10
5.637280
 20
1.547920
  0
VERTEX
  8
0
  6
CONTINUOUS
 10
5.584480
 20
1.553640
  0
SEQEND
  8
0
  0
SOLID
  8
0
 62
    15
 10
5.637280
 20
1.547920
 11
6.289800
 21
1.911800
 12
5.643440
 22
1.547920
 13
6.295960
 23
1.911800
  0
POLYLINE
  8
0
  6
CONTINUOUS
 66
     1
 40
0.000000
 41
0.000000
  0
VERTEX
  8
0
  6
CONTINUOUS
 10
5.637280
 20
1.547920
  0
VERTEX
  8
0
  6
CONTINUOUS
 10
6.289800
 20
1.911800
  0
VERTEX
  8
0
  6
CONTINUOUS
 10
6.295960
 20
1.911800
  0
VERTEX
  8
0
  6
CONTINUOUS
 10
5.643440
 20
1.547920
  0
VERTEX
  8
0
  6
CONTINUOUS
 10
5.637280
 20
1.547920
  0
SEQEND
  8
0
  0
SOLID
  8
0
 62
    15
 10
5.643440
 20
1.547920
 11
6.295960
 21
1.911800
 12
5.643440
 22
1.439680
 13
6.295960
 23
1.803560
  0
POLYLINE
  8
0
  6
CONTINUOUS
 66
     1
 40
0.000000
 41
0.000000
  0
VERTEX
  8
0
  6
CONTINUOUS
 10
5.643440
 20
1.547920
  0
VERTEX
  8
0
  6
CONTINUOUS
 10
6.295960
 20
1.911800
  0
VERTEX
  8
0
  6
CONTINUOUS
 10
6.295960
 20
1.803560
  0
VERTEX
  8
0
  6
CONTINUOUS
 10
5.643440
 20
1.439680
  0
VERTEX
  8
0
  6
CONTINUOUS
 10
5.643440
 20
1.547920
  0
SEQEND
  8
0
  0
SOLID
  8
0
 62
    15
 10
5.643440
 20
1.439680
 11
6.295960
 21
1.803560
 12
6.422680
 22
1.439680
 13
7.075200
 23
1.803560
  0
POLYLINE
  8
0
  6
CONTINUOUS
 66
     1
 40
0.000000
 41
0.000000
  0
VERTEX
  8
0
  6
CONTINUOUS
 10
5.643440
 20
1.439680
  0
VERTEX
  8
0
  6
CONTINUOUS
 10
6.295960
 20
1.803560
  0
VERTEX
  8
0
  6
CONTINUOUS
 10
7.075200
 20
1.803560
  0
VERTEX
  8
0
  6
CONTINUOUS
 10
6.422680
 20
1.439680
  0
VERTEX
  8
0
  6
CONTINUOUS
 10
5.643440
 20
1.439680
  0
SEQEND
  8
0
  0
SOLID
  8
0
 62
    15
 10
6.422680
 20
1.439680
 11
7.075200
 21
1.803560
 12
6.443360
 22
1.437480
 13
7.095880
 23
1.800920
  0
POLYLINE
  8
0
  6
CONTINUOUS
 66
     1
 40
0.000000
 41
0.000000
  0
VERTEX
  8
0
  6
CONTINUOUS
 10
6.422680
 20
1.439680
  0
VERTEX
  8
0
  6
CONTINUOUS
 10
7.075200
 20
1.803560
  0
VERTEX
  8
0
  6
CONTINUOUS
 10
7.095880
 20
1.800920
  0
VERTEX
  8
0
  6
CONTINUOUS
 10
6.443360
 20
1.437480
  0
VERTEX
  8
0
  6
CONTINUOUS
 10
6.422680
 20
1.439680
  0
SEQEND
  8
0
  0
SOLID
  8
0
 62
    15
 10
6.443360
 20
1.437480
 11
7.095880
 21
1.800920
 12
6.464920
 22
1.430440
 13
7.117440
 23
1.793880
  0
POLYLINE
  8
0
  6
CONTINUOUS
 66
     1
 40
0.000000
 41
0.000000
  0
VERTEX
  8
0
  6
CONTINUOUS
 10
6.443360
 20
1.437480
  0
VERTEX
  8
0
  6
CONTINUOUS
 10
7.095880
 20
1.800920
  0
VERTEX
  8
0
  6
CONTINUOUS
 10
7.117440
 20
1.793880
  0
VERTEX
  8
0
  6
CONTINUOUS
 10
6.464920
 20
1.430440
  0
VERTEX
  8
0
  6
CONTINUOUS
 10
6.443360
 20
1.437480
  0
SEQEND
  8
0
  0
SOLID
  8
0
 62
    15
 10
6.464920
 20
1.430440
 11
7.117440
 21
1.793880
 12
6.507600
 22
1.402720
 13
7.160120
 23
1.766600
  0
POLYLINE
  8
0
  6
CONTINUOUS
 66
     1
 40
0.000000
 41
0.000000
  0
VERTEX
  8
0
  6
CONTINUOUS
 10
6.464920
 20
1.430440
  0
VERTEX
  8
0
  6
CONTINUOUS
 10
7.117440
 20
1.793880
  0
VERTEX
  8
0
  6
CONTINUOUS
 10
7.160120
 20
1.766600
  0
VERTEX
  8
0
  6
CONTINUOUS
 10
6.507600
 20
1.402720
  0
VERTEX
  8
0
  6
CONTINUOUS
 10
6.464920
 20
1.430440
  0
SEQEND
  8
0
  0
SOLID
  8
0
 62
    15
 10
6.507600
 20
1.402720
 11
7.160120
 21
1.766600
 12
6.526960
 22
1.382920
 13
7.179480
 23
1.746360
  0
POLYLINE
  8
0
  6
CONTINUOUS
 66
     1
 40
0.000000
 41
0.000000
  0
VERTEX
  8
0
  6
CONTINUOUS
 10
6.507600
 20
1.402720
  0
VERTEX
  8
0
  6
CONTINUOUS
 10
7.160120
 20
1.766600
  0
VERTEX
  8
0
  6
CONTINUOUS
 10
7.179480
 20
1.746360
  0
VERTEX
  8
0
  6
CONTINUOUS
 10
6.526960
 20
1.382920
  0
VERTEX
  8
0
  6
CONTINUOUS
 10
6.507600
 20
1.402720
  0
SEQEND
  8
0
  0
SOLID
  8
0
 62
    15
 10
6.526960
 20
1.382920
 11
7.179480
 21
1.746360
 12
6.543240
 22
1.358280
 13
7.195760
 23
1.722160
  0
POLYLINE
  8
0
  6
CONTINUOUS
 66
     1
 40
0.000000
 41
0.000000
  0
VERTEX
  8
0
  6
CONTINUOUS
 10
6.526960
 20
1.382920
  0
VERTEX
  8
0
  6
CONTINUOUS
 10
7.179480
 20
1.746360
  0
VERTEX
  8
0
  6
CONTINUOUS
 10
7.195760
 20
1.722160
  0
VERTEX
  8
0
  6
CONTINUOUS
 10
6.543240
 20
1.358280
  0
VERTEX
  8
0
  6
CONTINUOUS
 10
6.526960
 20
1.382920
  0
SEQEND
  8
0
  0
SOLID
  8
0
 62
    15
 10
6.662920
 20
1.409320
 11
7.315440
 21
1.773200
 12
6.706040
 22
1.414600
 13
7.358560
 23
1.778480
  0
POLYLINE
  8
0
  6
CONTINUOUS
 66
     1
 40
0.000000
 41
0.000000
  0
VERTEX
  8
0
  6
CONTINUOUS
 10
6.662920
 20
1.409320
  0
VERTEX
  8
0
  6
CONTINUOUS
 10
7.315440
 20
1.773200
  0
VERTEX
  8
0
  6
CONTINUOUS
 10
7.358560
 20
1.778480
  0
VERTEX
  8
0
  6
CONTINUOUS
 10
6.706040
 20
1.414600
  0
VERTEX
  8
0
  6
CONTINUOUS
 10
6.662920
 20
1.409320
  0
SEQEND
  8
0
  0
SOLID
  8
0
 62
    15
 10
6.706040
 20
1.414600
 11
7.358560
 21
1.778480
 12
6.747400
 22
1.410200
 13
7.399920
 23
1.773640
  0
POLYLINE
  8
0
  6
CONTINUOUS
 66
     1
 40
0.000000
 41
0.000000
  0
VERTEX
  8
0
  6
CONTINUOUS
 10
6.706040
 20
1.414600
  0
VERTEX
  8
0
  6
CONTINUOUS
 10
7.358560
 20
1.778480
  0
VERTEX
  8
0
  6
CONTINUOUS
 10
7.399920
 20
1.773640
  0
VERTEX
  8
0
  6
CONTINUOUS
 10
6.747400
 20
1.410200
  0
VERTEX
  8
0
  6
CONTINUOUS
 10
6.706040
 20
1.414600
  0
SEQEND
  8
0
  0
SOLID
  8
0
 62
    15
 10
6.747400
 20
1.410200
 11
7.399920
 21
1.773640
 12
6.783480
 22
1.397440
 13
7.436000
 23
1.760880
  0
POLYLINE
  8
0
  6
CONTINUOUS
 66
     1
 40
0.000000
 41
0.000000
  0
VERTEX
  8
0
  6
CONTINUOUS
 10
6.747400
 20
1.410200
  0
VERTEX
  8
0
  6
CONTINUOUS
 10
7.399920
 20
1.773640
  0
VERTEX
  8
0
  6
CONTINUOUS
 10
7.436000
 20
1.760880
  0
VERTEX
  8
0
  6
CONTINUOUS
 10
6.783480
 20
1.397440
  0
VERTEX
  8
0
  6
CONTINUOUS
 10
6.747400
 20
1.410200
  0
SEQEND
  8
0
  0
POLYLINE
  8
0
  6
CONTINUOUS
 66
     1
 40
0.000000
 41
0.000000
  0
VERTEX
  8
0
  6
CONTINUOUS
 10
6.570520
 20
1.294040
  0
VERTEX
  8
0
  6
CONTINUOUS
 10
6.577560
 20
1.326600
  0
VERTEX
  8
0
  6
CONTINUOUS
 10
6.589000
 20
1.353000
  0
VERTEX
  8
0
  6
CONTINUOUS
 10
6.603960
 20
1.374120
  0
VERTEX
  8
0
  6
CONTINUOUS
 10
6.622000
 20
1.390400
  0
VERTEX
  8
0
  6
CONTINUOUS
 10
6.662920
 20
1.409320
  0
VERTEX
  8
0
  6
CONTINUOUS
 10
6.706040
 20
1.414600
  0
VERTEX
  8
0
  6
CONTINUOUS
 10
6.747400
 20
1.410200
  0
VERTEX
  8
0
  6
CONTINUOUS
 10
6.783480
 20
1.397440
  0
VERTEX
  8
0
  6
CONTINUOUS
 10
6.813400
 20
1.378080
  0
VERTEX
  8
0
  6
CONTINUOUS
 10
6.837600
 20
1.354320
  0
VERTEX
  8
0
  6
CONTINUOUS
 10
6.855640
 20
1.327040
  0
VERTEX
  8
0
  6
CONTINUOUS
 10
6.868400
 20
1.298880
  0
VERTEX
  8
0
  6
CONTINUOUS
 10
6.875440
 20
1.270280
  0
VERTEX
  8
0
  6
CONTINUOUS
 10
6.876760
 20
1.243880
  0
VERTEX
  8
0
  6
CONTINUOUS
 10
6.871040
 20
1.185360
  0
VERTEX
  8
0
  6
CONTINUOUS
 10
6.861360
 20
1.154560
  0
VERTEX
  8
0
  6
CONTINUOUS
 10
6.845080
 20
1.124200
  0
VERTEX
  8
0
  6
CONTINUOUS
 10
6.821320
 20
1.097360
  0
VERTEX
  8
0
  6
CONTINUOUS
 10
6.787880
 20
1.076240
  0
VERTEX
  8
0
  6
CONTINUOUS
 10
6.743880
 20
1.061720
  0
VERTEX
  8
0
  6
CONTINUOUS
 10
6.687120
 20
1.056440
  0
VERTEX
  8
0
  6
CONTINUOUS
 10
4.368320
 20
1.056440
  0
VERTEX
  8
0
  6
CONTINUOUS
 10
4.368320
 20
2.056560
  0
VERTEX
  8
0
  6
CONTINUOUS
 10
4.895440
 20
2.056560
  0
VERTEX
  8
0
  6
CONTINUOUS
 10
4.895440
 20
1.950080
  0
VERTEX
  8
0
  6
CONTINUOUS
 10
4.964080
 20
1.947880
  0
VERTEX
  8
0
  6
CONTINUOUS
 10
5.021280
 20
1.936880
  0
VERTEX
  8
0
  6
CONTINUOUS
 10
5.073640
 20
1.918400
  0
VERTEX
  8
0
  6
CONTINUOUS
 10
5.122040
 20
1.893760
  0
VERTEX
  8
0
  6
CONTINUOUS
 10
5.167360
 20
1.864280
  0
VERTEX
  8
0
  6
CONTINUOUS
 10
5.210040
 20
1.830400
  0
VERTEX
  8
0
  6
CONTINUOUS
 10
5.290120
 20
1.756480
  0
VERTEX
  8
0
  6
CONTINUOUS
 10
5.367560
 20
1.681680
  0
VERTEX
  8
0
  6
CONTINUOUS
 10
5.448080
 20
1.615680
  0
VERTEX
  8
0
  6
CONTINUOUS
 10
5.490760
 20
1.588840
  0
VERTEX
  8
0
  6
CONTINUOUS
 10
5.536080
 20
1.567720
  0
VERTEX
  8
0
  6
CONTINUOUS
 10
5.584480
 20
1.553640
  0
VERTEX
  8
0
  6
CONTINUOUS
 10
5.643440
 20
1.547920
  0
VERTEX
  8
0
  6
CONTINUOUS
 10
5.643440
 20
1.439680
  0
VERTEX
  8
0
  6
CONTINUOUS
 10
6.422680
 20
1.439680
  0
VERTEX
  8
0
  6
CONTINUOUS
 10
6.443360
 20
1.437480
  0
VERTEX
  8
0
  6
CONTINUOUS
 10
6.464920
 20
1.430440
  0
VERTEX
  8
0
  6
CONTINUOUS
 10
6.507600
 20
1.402720
  0
VERTEX
  8
0
  6
CONTINUOUS
 10
6.526960
 20
1.382920
  0
VERTEX
  8
0
  6
CONTINUOUS
 10
6.543240
 20
1.358280
  0
VERTEX
  8
0
  6
CONTINUOUS
 10
6.556000
 20
1.330120
  0
VERTEX
  8
0
  6
CONTINUOUS
 10
6.564360
 20
1.298000
  0
VERTEX
  8
0
  6
CONTINUOUS
 10
6.570520
 20
1.294040
  0
SEQEND
  8
0
  0
TEXT
  8
0
 10
5.653120
 20
0.815760
 40
0.138112
  1
BA  671
 41
1.000000
  7
SN0
 71
     0
 72
     5
 11
6.243752
 21
0.815760
  0
TEXT
  8
0
 10
5.566440
 20
0.624360
 40
0.138112
  1
1" x 2-1/2"
 41
1.000000
  7
SN0
 71
     0
 72
     5
 11
6.329866
 21
0.624360
  0
ENDSEC
  0
EOF
