  0
SECTION
  2
HEADER
  9
$ACADVER
  1
AC1006
  9
$EXTMIN
 10
4.959240
 20
0.653400
  9
$EXTMAX
 10
6.791400
 20
2.108480
  9
$LTSCALE
 40
0.044000
  9
$PDMODE
 70
    35
  9
$PDSIZE
 40
0.035200
  0
ENDSEC
  0
SECTION
  2
TABLES
  0
TABLE
  2
LTYPE
 70
     9
  0
LTYPE
  2
CONTINUOUS
 70
    64
  3
Solid line
 72
    65
 73
     0
 40
0.000000
  0
LTYPE
  2
DASHED
 70
    64
  3
__ __ __ __ __ __ __ __ __ __ __ __ __ __ __
 72
    65
 73
     2
 40
0.000330
 49
0.000220
 49
-0.000110
  0
LTYPE
  2
HIDDEN
 70
    64
  3
 _ _ _ _ _ _ _ _ _ _ _ _ _ _ _ _ _ _ _ _ _ _
 72
    65
 73
     2
 40
0.000165
 49
0.000110
 49
-0.000055
  0
LTYPE
  2
CENTER
 70
    64
  3
____ _ ____ _ ____ _ ____ _ ____ _ ____ _ ____
 72
    65
 73
     4
 40
0.000880
 49
0.000550
 49
-0.000110
 49
0.000110
 49
-0.000110
  0
LTYPE
  2
PHANTOM
 70
    64
  3
_____ _ _ _____ _ _ _____ _ _ _____ _ _ ____
 72
    65
 73
     6
 40
0.001100
 49
0.000550
 49
-0.000110
 49
0.000110
 49
-0.000110
 49
0.000110
 49
-0.000110
  0
LTYPE
  2
DOT
 70
    64
  3
...............................................
 72
    65
 73
     2
 40
0.000110
 49
0.000000
 49
-0.000110
  0
LTYPE
  2
DASHDOT
 70
    64
  3
__ . __ . __ . __ . __ . __ . __ . __ . __ . __
 72
    65
 73
     4
 40
0.000440
 49
0.000220
 49
-0.000110
 49
0.000000
 49
-0.000110
  0
LTYPE
  2
BORDER
 70
    64
  3
__ __ . __ __ . __ __ . __ __ . __ __ . __ __
 72
    65
 73
     6
 40
0.000770
 49
0.000220
 49
-0.000110
 49
0.000220
 49
-0.000110
 49
0.000000
 49
-0.000110
  0
LTYPE
  2
DIVIDE
 70
    64
  3
__ . . __ . . __ . . __ . . __ . . __ . . __
 72
    65
 73
     6
 40
0.000550
 49
0.000220
 49
-0.000110
 49
0.000000
 49
-0.000110
 49
0.000000
 49
-0.000110
  0
LTYPE
  2
DOTDOT
 70
    64
  3
 . .  . .  . .  . .  . .  . . 
 72
    65
 73
     5
 40
0.000242
 49
-0.000110
 49
0.000000
 49
-0.000110
 49
0.000000
 49
-0.000110
  0
ENDTAB
  0
TABLE
  2
STYLE
 70
     2
  0
STYLE
 70
     0
  2
SN0
 40
0.000000
 41
0.000440
 50
0.000000
 71
     0
 42
0.000000
  3
ROMAND
  0
STYLE
 70
    68
  2
SV0
 40
0.000000
 41
0.000440
 50
0.000000
 71
     0
 42
0.000000
  3
ROMAND
  0
ENDTAB
  0
TABLE
  2
LAYER
 70
     3
  0
LAYER
  2
FOREGROUND
 70
    64
 62
     7
  6
CONTINUOUS
  0
LAYER
  2
BACKGROUND
 70
    65
 62
    -7
  6
CONTINUOUS
  0
LAYER
  2
0
 70
    64
 62
     7
  6
CONTINUOUS
  0
ENDTAB
  0
ENDSEC
  0
SECTION
  2
ENTITIES
  0
POLYLINE
  8
FOREGROUND
  6
CONTINUOUS
 66
     1
 40
0.000000
 41
0.000000
  0
VERTEX
  8
FOREGROUND
  6
CONTINUOUS
 10
0.000000
 20
2.761880
  0
VERTEX
  8
FOREGROUND
  6
CONTINUOUS
 10
8.499920
 20
2.761880
  0
VERTEX
  8
FOREGROUND
  6
CONTINUOUS
 10
8.499920
 20
-8.238120
  0
VERTEX
  8
FOREGROUND
  6
CONTINUOUS
 10
0.000000
 20
-8.238120
  0
VERTEX
  8
FOREGROUND
  6
CONTINUOUS
 10
0.000000
 20
2.761880
  0
SEQEND
  8
0
  0
POLYLINE
  8
FOREGROUND
  6
CONTINUOUS
 66
     1
 40
0.000000
 41
0.000000
  0
VERTEX
  8
FOREGROUND
  6
CONTINUOUS
 10
0.000000
 20
2.761880
  0
VERTEX
  8
FOREGROUND
  6
CONTINUOUS
 10
8.499920
 20
2.761880
  0
VERTEX
  8
FOREGROUND
  6
CONTINUOUS
 10
8.499920
 20
-8.238120
  0
VERTEX
  8
FOREGROUND
  6
CONTINUOUS
 10
0.000000
 20
-8.238120
  0
VERTEX
  8
FOREGROUND
  6
CONTINUOUS
 10
0.000000
 20
2.761880
  0
SEQEND
  8
0
  0
POLYLINE
  8
0
  6
CONTINUOUS
 66
     1
 40
0.014080
 41
0.014080
  0
VERTEX
  8
0
  6
CONTINUOUS
 10
6.558640
 20
1.484560
  0
VERTEX
  8
0
  6
CONTINUOUS
 10
6.599120
 20
1.486760
  0
VERTEX
  8
0
  6
CONTINUOUS
 10
6.636080
 20
1.492920
  0
VERTEX
  8
0
  6
CONTINUOUS
 10
6.669960
 20
1.502600
  0
VERTEX
  8
0
  6
CONTINUOUS
 10
6.699880
 20
1.515360
  0
VERTEX
  8
0
  6
CONTINUOUS
 10
6.725840
 20
1.531640
  0
VERTEX
  8
0
  6
CONTINUOUS
 10
6.747400
 20
1.550120
  0
VERTEX
  8
0
  6
CONTINUOUS
 10
6.764120
 20
1.570800
  0
VERTEX
  8
0
  6
CONTINUOUS
 10
6.776000
 20
1.593240
  0
VERTEX
  8
0
  6
CONTINUOUS
 10
6.780400
 20
1.605120
  0
VERTEX
  8
0
  6
CONTINUOUS
 10
6.784360
 20
1.629320
  0
VERTEX
  8
0
  6
CONTINUOUS
 10
6.783040
 20
1.654840
  0
VERTEX
  8
0
  6
CONTINUOUS
 10
6.780400
 20
1.668040
  0
VERTEX
  8
0
  6
CONTINUOUS
 10
6.769840
 20
1.694000
  0
VERTEX
  8
0
  6
CONTINUOUS
 10
6.753560
 20
1.719960
  0
VERTEX
  8
0
  6
CONTINUOUS
 10
6.730240
 20
1.745920
  0
VERTEX
  8
0
  6
CONTINUOUS
 10
6.700320
 20
1.771000
  0
VERTEX
  8
0
  6
CONTINUOUS
 10
6.615400
 20
1.825120
  0
VERTEX
  8
0
  6
CONTINUOUS
 10
6.577560
 20
1.855480
  0
VERTEX
  8
0
  6
CONTINUOUS
 10
6.548520
 20
1.885400
  0
VERTEX
  8
0
  6
CONTINUOUS
 10
6.527840
 20
1.914880
  0
VERTEX
  8
0
  6
CONTINUOUS
 10
6.517720
 20
1.934240
  0
VERTEX
  8
0
  6
CONTINUOUS
 10
6.510240
 20
1.953600
  0
VERTEX
  8
0
  6
CONTINUOUS
 10
6.504960
 20
1.972520
  0
VERTEX
  8
0
  6
CONTINUOUS
 10
6.501440
 20
1.991440
  0
VERTEX
  8
0
  6
CONTINUOUS
 10
6.498800
 20
2.028840
  0
VERTEX
  8
0
  6
CONTINUOUS
 10
6.500120
 20
2.101000
  0
VERTEX
  8
0
  6
CONTINUOUS
 10
6.372080
 20
2.101000
  0
VERTEX
  8
0
  6
CONTINUOUS
 10
6.372080
 20
1.484560
  0
VERTEX
  8
0
  6
CONTINUOUS
 10
6.558640
 20
1.484560
  0
SEQEND
  8
0
  0
SOLID
  8
0
 62
    15
 10
5.218400
 20
1.441440
 11
5.868280
 21
1.815000
 12
5.251400
 22
1.421200
 13
5.901720
 23
1.794760
  0
POLYLINE
  8
0
  6
CONTINUOUS
 66
     1
 40
0.000000
 41
0.000000
  0
VERTEX
  8
0
  6
CONTINUOUS
 10
5.218400
 20
1.441440
  0
VERTEX
  8
0
  6
CONTINUOUS
 10
5.868280
 20
1.815000
  0
VERTEX
  8
0
  6
CONTINUOUS
 10
5.901720
 20
1.794760
  0
VERTEX
  8
0
  6
CONTINUOUS
 10
5.251400
 20
1.421200
  0
VERTEX
  8
0
  6
CONTINUOUS
 10
5.218400
 20
1.441440
  0
SEQEND
  8
0
  0
SOLID
  8
0
 62
    15
 10
5.088600
 20
1.727440
 11
5.738480
 21
2.101000
 12
5.088160
 22
1.709840
 13
5.738040
 23
2.082960
  0
POLYLINE
  8
0
  6
CONTINUOUS
 66
     1
 40
0.000000
 41
0.000000
  0
VERTEX
  8
0
  6
CONTINUOUS
 10
5.088600
 20
1.727440
  0
VERTEX
  8
0
  6
CONTINUOUS
 10
5.738480
 20
2.101000
  0
VERTEX
  8
0
  6
CONTINUOUS
 10
5.738040
 20
2.082960
  0
VERTEX
  8
0
  6
CONTINUOUS
 10
5.088160
 20
1.709840
  0
VERTEX
  8
0
  6
CONTINUOUS
 10
5.088600
 20
1.727440
  0
SEQEND
  8
0
  0
SOLID
  8
0
 62
    15
 10
5.088160
 20
1.709840
 11
5.738040
 21
2.082960
 12
5.087720
 22
1.691800
 13
5.737600
 23
2.065360
  0
POLYLINE
  8
0
  6
CONTINUOUS
 66
     1
 40
0.000000
 41
0.000000
  0
VERTEX
  8
0
  6
CONTINUOUS
 10
5.088160
 20
1.709840
  0
VERTEX
  8
0
  6
CONTINUOUS
 10
5.738040
 20
2.082960
  0
VERTEX
  8
0
  6
CONTINUOUS
 10
5.737600
 20
2.065360
  0
VERTEX
  8
0
  6
CONTINUOUS
 10
5.087720
 20
1.691800
  0
VERTEX
  8
0
  6
CONTINUOUS
 10
5.088160
 20
1.709840
  0
SEQEND
  8
0
  0
SOLID
  8
0
 62
    15
 10
5.087720
 20
1.691800
 11
5.737600
 21
2.065360
 12
5.086840
 22
1.655280
 13
5.737160
 23
2.028840
  0
POLYLINE
  8
0
  6
CONTINUOUS
 66
     1
 40
0.000000
 41
0.000000
  0
VERTEX
  8
0
  6
CONTINUOUS
 10
5.087720
 20
1.691800
  0
VERTEX
  8
0
  6
CONTINUOUS
 10
5.737600
 20
2.065360
  0
VERTEX
  8
0
  6
CONTINUOUS
 10
5.737160
 20
2.028840
  0
VERTEX
  8
0
  6
CONTINUOUS
 10
5.086840
 20
1.655280
  0
VERTEX
  8
0
  6
CONTINUOUS
 10
5.087720
 20
1.691800
  0
SEQEND
  8
0
  0
SOLID
  8
0
 62
    15
 10
5.086840
 20
1.655280
 11
5.737160
 21
2.028840
 12
5.089480
 22
1.617880
 13
5.739800
 23
1.991440
  0
POLYLINE
  8
0
  6
CONTINUOUS
 66
     1
 40
0.000000
 41
0.000000
  0
VERTEX
  8
0
  6
CONTINUOUS
 10
5.086840
 20
1.655280
  0
VERTEX
  8
0
  6
CONTINUOUS
 10
5.737160
 20
2.028840
  0
VERTEX
  8
0
  6
CONTINUOUS
 10
5.739800
 20
1.991440
  0
VERTEX
  8
0
  6
CONTINUOUS
 10
5.089480
 20
1.617880
  0
VERTEX
  8
0
  6
CONTINUOUS
 10
5.086840
 20
1.655280
  0
SEQEND
  8
0
  0
SOLID
  8
0
 62
    15
 10
5.089480
 20
1.617880
 11
5.739800
 21
1.991440
 12
5.098280
 22
1.580040
 13
5.748600
 23
1.953600
  0
POLYLINE
  8
0
  6
CONTINUOUS
 66
     1
 40
0.000000
 41
0.000000
  0
VERTEX
  8
0
  6
CONTINUOUS
 10
5.089480
 20
1.617880
  0
VERTEX
  8
0
  6
CONTINUOUS
 10
5.739800
 20
1.991440
  0
VERTEX
  8
0
  6
CONTINUOUS
 10
5.748600
 20
1.953600
  0
VERTEX
  8
0
  6
CONTINUOUS
 10
5.098280
 20
1.580040
  0
VERTEX
  8
0
  6
CONTINUOUS
 10
5.089480
 20
1.617880
  0
SEQEND
  8
0
  0
SOLID
  8
0
 62
    15
 10
5.098280
 20
1.580040
 11
5.748600
 21
1.953600
 12
5.105760
 22
1.560680
 13
5.756080
 23
1.934240
  0
POLYLINE
  8
0
  6
CONTINUOUS
 66
     1
 40
0.000000
 41
0.000000
  0
VERTEX
  8
0
  6
CONTINUOUS
 10
5.098280
 20
1.580040
  0
VERTEX
  8
0
  6
CONTINUOUS
 10
5.748600
 20
1.953600
  0
VERTEX
  8
0
  6
CONTINUOUS
 10
5.756080
 20
1.934240
  0
VERTEX
  8
0
  6
CONTINUOUS
 10
5.105760
 20
1.560680
  0
VERTEX
  8
0
  6
CONTINUOUS
 10
5.098280
 20
1.580040
  0
SEQEND
  8
0
  0
SOLID
  8
0
 62
    15
 10
5.105760
 20
1.560680
 11
5.756080
 21
1.934240
 12
5.115880
 22
1.541320
 13
5.766200
 23
1.914880
  0
POLYLINE
  8
0
  6
CONTINUOUS
 66
     1
 40
0.000000
 41
0.000000
  0
VERTEX
  8
0
  6
CONTINUOUS
 10
5.105760
 20
1.560680
  0
VERTEX
  8
0
  6
CONTINUOUS
 10
5.756080
 20
1.934240
  0
VERTEX
  8
0
  6
CONTINUOUS
 10
5.766200
 20
1.914880
  0
VERTEX
  8
0
  6
CONTINUOUS
 10
5.115880
 20
1.541320
  0
VERTEX
  8
0
  6
CONTINUOUS
 10
5.105760
 20
1.560680
  0
SEQEND
  8
0
  0
SOLID
  8
0
 62
    15
 10
5.115880
 20
1.541320
 11
5.766200
 21
1.914880
 12
5.129080
 22
1.521520
 13
5.778960
 23
1.895080
  0
POLYLINE
  8
0
  6
CONTINUOUS
 66
     1
 40
0.000000
 41
0.000000
  0
VERTEX
  8
0
  6
CONTINUOUS
 10
5.115880
 20
1.541320
  0
VERTEX
  8
0
  6
CONTINUOUS
 10
5.766200
 20
1.914880
  0
VERTEX
  8
0
  6
CONTINUOUS
 10
5.778960
 20
1.895080
  0
VERTEX
  8
0
  6
CONTINUOUS
 10
5.129080
 20
1.521520
  0
VERTEX
  8
0
  6
CONTINUOUS
 10
5.115880
 20
1.541320
  0
SEQEND
  8
0
  0
SOLID
  8
0
 62
    15
 10
5.129080
 20
1.521520
 11
5.778960
 21
1.895080
 12
5.145360
 22
1.501720
 13
5.795680
 23
1.875280
  0
POLYLINE
  8
0
  6
CONTINUOUS
 66
     1
 40
0.000000
 41
0.000000
  0
VERTEX
  8
0
  6
CONTINUOUS
 10
5.129080
 20
1.521520
  0
VERTEX
  8
0
  6
CONTINUOUS
 10
5.778960
 20
1.895080
  0
VERTEX
  8
0
  6
CONTINUOUS
 10
5.795680
 20
1.875280
  0
VERTEX
  8
0
  6
CONTINUOUS
 10
5.145360
 20
1.501720
  0
VERTEX
  8
0
  6
CONTINUOUS
 10
5.129080
 20
1.521520
  0
SEQEND
  8
0
  0
SOLID
  8
0
 62
    15
 10
5.145360
 20
1.501720
 11
5.795680
 21
1.875280
 12
5.165600
 22
1.481920
 13
5.815480
 23
1.855480
  0
POLYLINE
  8
0
  6
CONTINUOUS
 66
     1
 40
0.000000
 41
0.000000
  0
VERTEX
  8
0
  6
CONTINUOUS
 10
5.145360
 20
1.501720
  0
VERTEX
  8
0
  6
CONTINUOUS
 10
5.795680
 20
1.875280
  0
VERTEX
  8
0
  6
CONTINUOUS
 10
5.815480
 20
1.855480
  0
VERTEX
  8
0
  6
CONTINUOUS
 10
5.165600
 20
1.481920
  0
VERTEX
  8
0
  6
CONTINUOUS
 10
5.145360
 20
1.501720
  0
SEQEND
  8
0
  0
SOLID
  8
0
 62
    15
 10
5.165600
 20
1.481920
 11
5.815480
 21
1.855480
 12
5.189800
 22
1.461680
 13
5.839680
 23
1.835240
  0
POLYLINE
  8
0
  6
CONTINUOUS
 66
     1
 40
0.000000
 41
0.000000
  0
VERTEX
  8
0
  6
CONTINUOUS
 10
5.165600
 20
1.481920
  0
VERTEX
  8
0
  6
CONTINUOUS
 10
5.815480
 20
1.855480
  0
VERTEX
  8
0
  6
CONTINUOUS
 10
5.839680
 20
1.835240
  0
VERTEX
  8
0
  6
CONTINUOUS
 10
5.189800
 20
1.461680
  0
VERTEX
  8
0
  6
CONTINUOUS
 10
5.165600
 20
1.481920
  0
SEQEND
  8
0
  0
SOLID
  8
0
 62
    15
 10
5.189800
 20
1.461680
 11
5.839680
 21
1.835240
 12
5.218400
 22
1.441440
 13
5.868280
 23
1.815000
  0
POLYLINE
  8
0
  6
CONTINUOUS
 66
     1
 40
0.000000
 41
0.000000
  0
VERTEX
  8
0
  6
CONTINUOUS
 10
5.189800
 20
1.461680
  0
VERTEX
  8
0
  6
CONTINUOUS
 10
5.839680
 20
1.835240
  0
VERTEX
  8
0
  6
CONTINUOUS
 10
5.868280
 20
1.815000
  0
VERTEX
  8
0
  6
CONTINUOUS
 10
5.218400
 20
1.441440
  0
VERTEX
  8
0
  6
CONTINUOUS
 10
5.189800
 20
1.461680
  0
SEQEND
  8
0
  0
SOLID
  8
0
 62
    15
 10
4.960120
 20
1.727440
 11
5.610440
 21
2.101000
 12
5.088600
 22
1.727440
 13
5.738480
 23
2.101000
  0
POLYLINE
  8
0
  6
CONTINUOUS
 66
     1
 40
0.000000
 41
0.000000
  0
VERTEX
  8
0
  6
CONTINUOUS
 10
4.960120
 20
1.727440
  0
VERTEX
  8
0
  6
CONTINUOUS
 10
5.610440
 20
2.101000
  0
VERTEX
  8
0
  6
CONTINUOUS
 10
5.738480
 20
2.101000
  0
VERTEX
  8
0
  6
CONTINUOUS
 10
5.088600
 20
1.727440
  0
VERTEX
  8
0
  6
CONTINUOUS
 10
4.960120
 20
1.727440
  0
SEQEND
  8
0
  0
SOLID
  8
0
 62
    15
 10
5.251400
 20
1.421200
 11
5.901720
 21
1.794760
 12
5.288360
 22
1.397440
 13
5.938680
 23
1.770560
  0
POLYLINE
  8
0
  6
CONTINUOUS
 66
     1
 40
0.000000
 41
0.000000
  0
VERTEX
  8
0
  6
CONTINUOUS
 10
5.251400
 20
1.421200
  0
VERTEX
  8
0
  6
CONTINUOUS
 10
5.901720
 20
1.794760
  0
VERTEX
  8
0
  6
CONTINUOUS
 10
5.938680
 20
1.770560
  0
VERTEX
  8
0
  6
CONTINUOUS
 10
5.288360
 20
1.397440
  0
VERTEX
  8
0
  6
CONTINUOUS
 10
5.251400
 20
1.421200
  0
SEQEND
  8
0
  0
SOLID
  8
0
 62
    15
 10
5.288360
 20
1.397440
 11
5.938680
 21
1.770560
 12
5.318280
 22
1.372360
 13
5.968600
 23
1.745480
  0
POLYLINE
  8
0
  6
CONTINUOUS
 66
     1
 40
0.000000
 41
0.000000
  0
VERTEX
  8
0
  6
CONTINUOUS
 10
5.288360
 20
1.397440
  0
VERTEX
  8
0
  6
CONTINUOUS
 10
5.938680
 20
1.770560
  0
VERTEX
  8
0
  6
CONTINUOUS
 10
5.968600
 20
1.745480
  0
VERTEX
  8
0
  6
CONTINUOUS
 10
5.318280
 20
1.372360
  0
VERTEX
  8
0
  6
CONTINUOUS
 10
5.288360
 20
1.397440
  0
SEQEND
  8
0
  0
SOLID
  8
0
 62
    15
 10
5.318280
 20
1.372360
 11
5.968600
 21
1.745480
 12
5.341600
 22
1.346400
 13
5.991480
 23
1.719960
  0
POLYLINE
  8
0
  6
CONTINUOUS
 66
     1
 40
0.000000
 41
0.000000
  0
VERTEX
  8
0
  6
CONTINUOUS
 10
5.318280
 20
1.372360
  0
VERTEX
  8
0
  6
CONTINUOUS
 10
5.968600
 20
1.745480
  0
VERTEX
  8
0
  6
CONTINUOUS
 10
5.991480
 20
1.719960
  0
VERTEX
  8
0
  6
CONTINUOUS
 10
5.341600
 20
1.346400
  0
VERTEX
  8
0
  6
CONTINUOUS
 10
5.318280
 20
1.372360
  0
SEQEND
  8
0
  0
SOLID
  8
0
 62
    15
 10
5.341600
 20
1.346400
 11
5.991480
 21
1.719960
 12
5.357880
 22
1.320440
 13
6.008200
 23
1.693560
  0
POLYLINE
  8
0
  6
CONTINUOUS
 66
     1
 40
0.000000
 41
0.000000
  0
VERTEX
  8
0
  6
CONTINUOUS
 10
5.341600
 20
1.346400
  0
VERTEX
  8
0
  6
CONTINUOUS
 10
5.991480
 20
1.719960
  0
VERTEX
  8
0
  6
CONTINUOUS
 10
6.008200
 20
1.693560
  0
VERTEX
  8
0
  6
CONTINUOUS
 10
5.357880
 20
1.320440
  0
VERTEX
  8
0
  6
CONTINUOUS
 10
5.341600
 20
1.346400
  0
SEQEND
  8
0
  0
SOLID
  8
0
 62
    15
 10
5.357880
 20
1.320440
 11
6.008200
 21
1.693560
 12
5.368440
 22
1.294040
 13
6.018320
 23
1.667600
  0
POLYLINE
  8
0
  6
CONTINUOUS
 66
     1
 40
0.000000
 41
0.000000
  0
VERTEX
  8
0
  6
CONTINUOUS
 10
5.357880
 20
1.320440
  0
VERTEX
  8
0
  6
CONTINUOUS
 10
6.008200
 20
1.693560
  0
VERTEX
  8
0
  6
CONTINUOUS
 10
6.018320
 20
1.667600
  0
VERTEX
  8
0
  6
CONTINUOUS
 10
5.368440
 20
1.294040
  0
VERTEX
  8
0
  6
CONTINUOUS
 10
5.357880
 20
1.320440
  0
SEQEND
  8
0
  0
SOLID
  8
0
 62
    15
 10
5.368440
 20
1.294040
 11
6.018320
 21
1.667600
 12
5.372400
 22
1.268520
 13
6.022720
 23
1.642080
  0
POLYLINE
  8
0
  6
CONTINUOUS
 66
     1
 40
0.000000
 41
0.000000
  0
VERTEX
  8
0
  6
CONTINUOUS
 10
5.368440
 20
1.294040
  0
VERTEX
  8
0
  6
CONTINUOUS
 10
6.018320
 20
1.667600
  0
VERTEX
  8
0
  6
CONTINUOUS
 10
6.022720
 20
1.642080
  0
VERTEX
  8
0
  6
CONTINUOUS
 10
5.372400
 20
1.268520
  0
VERTEX
  8
0
  6
CONTINUOUS
 10
5.368440
 20
1.294040
  0
SEQEND
  8
0
  0
SOLID
  8
0
 62
    15
 10
5.372400
 20
1.268520
 11
6.022720
 21
1.642080
 12
5.371080
 22
1.243440
 13
6.021400
 23
1.617000
  0
POLYLINE
  8
0
  6
CONTINUOUS
 66
     1
 40
0.000000
 41
0.000000
  0
VERTEX
  8
0
  6
CONTINUOUS
 10
5.372400
 20
1.268520
  0
VERTEX
  8
0
  6
CONTINUOUS
 10
6.022720
 20
1.642080
  0
VERTEX
  8
0
  6
CONTINUOUS
 10
6.021400
 20
1.617000
  0
VERTEX
  8
0
  6
CONTINUOUS
 10
5.371080
 20
1.243440
  0
VERTEX
  8
0
  6
CONTINUOUS
 10
5.372400
 20
1.268520
  0
SEQEND
  8
0
  0
SOLID
  8
0
 62
    15
 10
5.371080
 20
1.243440
 11
6.021400
 21
1.617000
 12
5.364040
 22
1.219240
 13
6.014360
 23
1.592800
  0
POLYLINE
  8
0
  6
CONTINUOUS
 66
     1
 40
0.000000
 41
0.000000
  0
VERTEX
  8
0
  6
CONTINUOUS
 10
5.371080
 20
1.243440
  0
VERTEX
  8
0
  6
CONTINUOUS
 10
6.021400
 20
1.617000
  0
VERTEX
  8
0
  6
CONTINUOUS
 10
6.014360
 20
1.592800
  0
VERTEX
  8
0
  6
CONTINUOUS
 10
5.364040
 20
1.219240
  0
VERTEX
  8
0
  6
CONTINUOUS
 10
5.371080
 20
1.243440
  0
SEQEND
  8
0
  0
SOLID
  8
0
 62
    15
 10
5.364040
 20
1.219240
 11
6.014360
 21
1.592800
 12
5.352160
 22
1.196800
 13
6.002480
 23
1.570360
  0
POLYLINE
  8
0
  6
CONTINUOUS
 66
     1
 40
0.000000
 41
0.000000
  0
VERTEX
  8
0
  6
CONTINUOUS
 10
5.364040
 20
1.219240
  0
VERTEX
  8
0
  6
CONTINUOUS
 10
6.014360
 20
1.592800
  0
VERTEX
  8
0
  6
CONTINUOUS
 10
6.002480
 20
1.570360
  0
VERTEX
  8
0
  6
CONTINUOUS
 10
5.352160
 20
1.196800
  0
VERTEX
  8
0
  6
CONTINUOUS
 10
5.364040
 20
1.219240
  0
SEQEND
  8
0
  0
SOLID
  8
0
 62
    15
 10
5.352160
 20
1.196800
 11
6.002480
 21
1.570360
 12
5.335440
 22
1.176120
 13
5.985320
 23
1.549680
  0
POLYLINE
  8
0
  6
CONTINUOUS
 66
     1
 40
0.000000
 41
0.000000
  0
VERTEX
  8
0
  6
CONTINUOUS
 10
5.352160
 20
1.196800
  0
VERTEX
  8
0
  6
CONTINUOUS
 10
6.002480
 20
1.570360
  0
VERTEX
  8
0
  6
CONTINUOUS
 10
5.985320
 20
1.549680
  0
VERTEX
  8
0
  6
CONTINUOUS
 10
5.335440
 20
1.176120
  0
VERTEX
  8
0
  6
CONTINUOUS
 10
5.352160
 20
1.196800
  0
SEQEND
  8
0
  0
SOLID
  8
0
 62
    15
 10
5.335440
 20
1.176120
 11
5.985320
 21
1.549680
 12
5.313880
 22
1.157640
 13
5.963760
 23
1.531200
  0
POLYLINE
  8
0
  6
CONTINUOUS
 66
     1
 40
0.000000
 41
0.000000
  0
VERTEX
  8
0
  6
CONTINUOUS
 10
5.335440
 20
1.176120
  0
VERTEX
  8
0
  6
CONTINUOUS
 10
5.985320
 20
1.549680
  0
VERTEX
  8
0
  6
CONTINUOUS
 10
5.963760
 20
1.531200
  0
VERTEX
  8
0
  6
CONTINUOUS
 10
5.313880
 20
1.157640
  0
VERTEX
  8
0
  6
CONTINUOUS
 10
5.335440
 20
1.176120
  0
SEQEND
  8
0
  0
SOLID
  8
0
 62
    15
 10
5.313880
 20
1.157640
 11
5.963760
 21
1.531200
 12
5.287920
 22
1.141800
 13
5.937800
 23
1.515360
  0
POLYLINE
  8
0
  6
CONTINUOUS
 66
     1
 40
0.000000
 41
0.000000
  0
VERTEX
  8
0
  6
CONTINUOUS
 10
5.313880
 20
1.157640
  0
VERTEX
  8
0
  6
CONTINUOUS
 10
5.963760
 20
1.531200
  0
VERTEX
  8
0
  6
CONTINUOUS
 10
5.937800
 20
1.515360
  0
VERTEX
  8
0
  6
CONTINUOUS
 10
5.287920
 20
1.141800
  0
VERTEX
  8
0
  6
CONTINUOUS
 10
5.313880
 20
1.157640
  0
SEQEND
  8
0
  0
POLYLINE
  8
0
  6
CONTINUOUS
 66
     1
 40
0.000000
 41
0.000000
  0
VERTEX
  8
0
  6
CONTINUOUS
 10
5.141840
 20
1.110560
  0
VERTEX
  8
0
  6
CONTINUOUS
 10
4.960120
 20
1.110560
  0
VERTEX
  8
0
  6
CONTINUOUS
 10
4.960120
 20
1.727440
  0
VERTEX
  8
0
  6
CONTINUOUS
 10
5.088600
 20
1.727440
  0
VERTEX
  8
0
  6
CONTINUOUS
 10
5.088160
 20
1.709840
  0
VERTEX
  8
0
  6
CONTINUOUS
 10
5.087720
 20
1.691800
  0
VERTEX
  8
0
  6
CONTINUOUS
 10
5.086840
 20
1.655280
  0
VERTEX
  8
0
  6
CONTINUOUS
 10
5.089480
 20
1.617880
  0
VERTEX
  8
0
  6
CONTINUOUS
 10
5.098280
 20
1.580040
  0
VERTEX
  8
0
  6
CONTINUOUS
 10
5.105760
 20
1.560680
  0
VERTEX
  8
0
  6
CONTINUOUS
 10
5.115880
 20
1.541320
  0
VERTEX
  8
0
  6
CONTINUOUS
 10
5.129080
 20
1.521520
  0
VERTEX
  8
0
  6
CONTINUOUS
 10
5.145360
 20
1.501720
  0
VERTEX
  8
0
  6
CONTINUOUS
 10
5.165600
 20
1.481920
  0
VERTEX
  8
0
  6
CONTINUOUS
 10
5.189800
 20
1.461680
  0
VERTEX
  8
0
  6
CONTINUOUS
 10
5.218400
 20
1.441440
  0
VERTEX
  8
0
  6
CONTINUOUS
 10
5.251400
 20
1.421200
  0
VERTEX
  8
0
  6
CONTINUOUS
 10
5.288360
 20
1.397440
  0
VERTEX
  8
0
  6
CONTINUOUS
 10
5.318280
 20
1.372360
  0
VERTEX
  8
0
  6
CONTINUOUS
 10
5.341600
 20
1.346400
  0
VERTEX
  8
0
  6
CONTINUOUS
 10
5.357880
 20
1.320440
  0
VERTEX
  8
0
  6
CONTINUOUS
 10
5.368440
 20
1.294040
  0
VERTEX
  8
0
  6
CONTINUOUS
 10
5.372400
 20
1.268520
  0
VERTEX
  8
0
  6
CONTINUOUS
 10
5.371080
 20
1.243440
  0
VERTEX
  8
0
  6
CONTINUOUS
 10
5.364040
 20
1.219240
  0
VERTEX
  8
0
  6
CONTINUOUS
 10
5.352160
 20
1.196800
  0
VERTEX
  8
0
  6
CONTINUOUS
 10
5.335440
 20
1.176120
  0
VERTEX
  8
0
  6
CONTINUOUS
 10
5.313880
 20
1.157640
  0
VERTEX
  8
0
  6
CONTINUOUS
 10
5.287920
 20
1.141800
  0
VERTEX
  8
0
  6
CONTINUOUS
 10
5.258000
 20
1.128600
  0
VERTEX
  8
0
  6
CONTINUOUS
 10
5.224120
 20
1.118920
  0
VERTEX
  8
0
  6
CONTINUOUS
 10
5.187160
 20
1.112760
  0
VERTEX
  8
0
  6
CONTINUOUS
 10
5.146680
 20
1.110560
  0
VERTEX
  8
0
  6
CONTINUOUS
 10
5.141840
 20
1.110560
  0
SEQEND
  8
0
  0
TEXT
  8
0
 10
5.195520
 20
0.889680
 40
0.138142
  1
BA  668
 41
1.000000
  7
SN0
 71
     0
 72
     5
 11
5.785750
 21
0.889680
  0
TEXT
  8
0
 10
5.067480
 20
0.697840
 40
0.138142
  1
7/16" x 5/8"
 41
1.000000
  7
SN0
 71
     0
 72
     5
 11
5.913022
 21
0.697840
  0
ENDSEC
  0
EOF
