  0
SECTION
  2
HEADER
  9
$ACADVER
  1
AC1006
  9
$EXTMIN
 10
3.763760
 20
0.866800
  9
$EXTMAX
 10
7.854440
 20
5.863000
  9
$LTSCALE
 40
0.044000
  9
$PDMODE
 70
    35
  9
$PDSIZE
 40
0.035200
  0
ENDSEC
  0
SECTION
  2
TABLES
  0
TABLE
  2
LTYPE
 70
     9
  0
LTYPE
  2
CONTINUOUS
 70
    64
  3
Solid line
 72
    65
 73
     0
 40
0.000000
  0
LTYPE
  2
DASHED
 70
    64
  3
__ __ __ __ __ __ __ __ __ __ __ __ __ __ __
 72
    65
 73
     2
 40
0.000330
 49
0.000220
 49
-0.000110
  0
LTYPE
  2
HIDDEN
 70
    64
  3
 _ _ _ _ _ _ _ _ _ _ _ _ _ _ _ _ _ _ _ _ _ _
 72
    65
 73
     2
 40
0.000165
 49
0.000110
 49
-0.000055
  0
LTYPE
  2
CENTER
 70
    64
  3
____ _ ____ _ ____ _ ____ _ ____ _ ____ _ ____
 72
    65
 73
     4
 40
0.000880
 49
0.000550
 49
-0.000110
 49
0.000110
 49
-0.000110
  0
LTYPE
  2
PHANTOM
 70
    64
  3
_____ _ _ _____ _ _ _____ _ _ _____ _ _ ____
 72
    65
 73
     6
 40
0.001100
 49
0.000550
 49
-0.000110
 49
0.000110
 49
-0.000110
 49
0.000110
 49
-0.000110
  0
LTYPE
  2
DOT
 70
    64
  3
...............................................
 72
    65
 73
     2
 40
0.000110
 49
0.000000
 49
-0.000110
  0
LTYPE
  2
DASHDOT
 70
    64
  3
__ . __ . __ . __ . __ . __ . __ . __ . __ . __
 72
    65
 73
     4
 40
0.000440
 49
0.000220
 49
-0.000110
 49
0.000000
 49
-0.000110
  0
LTYPE
  2
BORDER
 70
    64
  3
__ __ . __ __ . __ __ . __ __ . __ __ . __ __
 72
    65
 73
     6
 40
0.000770
 49
0.000220
 49
-0.000110
 49
0.000220
 49
-0.000110
 49
0.000000
 49
-0.000110
  0
LTYPE
  2
DIVIDE
 70
    64
  3
__ . . __ . . __ . . __ . . __ . . __ . . __
 72
    65
 73
     6
 40
0.000550
 49
0.000220
 49
-0.000110
 49
0.000000
 49
-0.000110
 49
0.000000
 49
-0.000110
  0
LTYPE
  2
DOTDOT
 70
    64
  3
 . .  . .  . .  . .  . .  . . 
 72
    65
 73
     5
 40
0.000242
 49
-0.000110
 49
0.000000
 49
-0.000110
 49
0.000000
 49
-0.000110
  0
ENDTAB
  0
TABLE
  2
STYLE
 70
     2
  0
STYLE
 70
     0
  2
SN0
 40
0.000000
 41
0.000440
 50
0.000000
 71
     0
 42
0.000000
  3
ROMAND
  0
STYLE
 70
    68
  2
SV0
 40
0.000000
 41
0.000440
 50
0.000000
 71
     0
 42
0.000000
  3
ROMAND
  0
ENDTAB
  0
TABLE
  2
LAYER
 70
     3
  0
LAYER
  2
FOREGROUND
 70
    64
 62
     7
  6
CONTINUOUS
  0
LAYER
  2
BACKGROUND
 70
    65
 62
    -7
  6
CONTINUOUS
  0
LAYER
  2
0
 70
    64
 62
     7
  6
CONTINUOUS
  0
ENDTAB
  0
ENDSEC
  0
SECTION
  2
ENTITIES
  0
POLYLINE
  8
FOREGROUND
  6
CONTINUOUS
 66
     1
 40
0.000000
 41
0.000000
  0
VERTEX
  8
FOREGROUND
  6
CONTINUOUS
 10
0.000000
 20
6.729800
  0
VERTEX
  8
FOREGROUND
  6
CONTINUOUS
 10
8.499920
 20
6.729800
  0
VERTEX
  8
FOREGROUND
  6
CONTINUOUS
 10
8.499920
 20
-4.270200
  0
VERTEX
  8
FOREGROUND
  6
CONTINUOUS
 10
0.000000
 20
-4.270200
  0
VERTEX
  8
FOREGROUND
  6
CONTINUOUS
 10
0.000000
 20
6.729800
  0
SEQEND
  8
0
  0
POLYLINE
  8
FOREGROUND
  6
CONTINUOUS
 66
     1
 40
0.000000
 41
0.000000
  0
VERTEX
  8
FOREGROUND
  6
CONTINUOUS
 10
0.000000
 20
6.729800
  0
VERTEX
  8
FOREGROUND
  6
CONTINUOUS
 10
8.499920
 20
6.729800
  0
VERTEX
  8
FOREGROUND
  6
CONTINUOUS
 10
8.499920
 20
-4.270200
  0
VERTEX
  8
FOREGROUND
  6
CONTINUOUS
 10
0.000000
 20
-4.270200
  0
VERTEX
  8
FOREGROUND
  6
CONTINUOUS
 10
0.000000
 20
6.729800
  0
SEQEND
  8
0
  0
POLYLINE
  8
0
  6
CONTINUOUS
 66
     1
 40
0.014080
 41
0.014080
  0
VERTEX
  8
0
  6
CONTINUOUS
 10
7.399920
 20
4.986960
  0
VERTEX
  8
0
  6
CONTINUOUS
 10
7.384960
 20
4.986960
  0
VERTEX
  8
0
  6
CONTINUOUS
 10
7.384520
 20
5.032720
  0
VERTEX
  8
0
  6
CONTINUOUS
 10
7.381440
 20
5.048560
  0
VERTEX
  8
0
  6
CONTINUOUS
 10
7.370880
 20
5.069680
  0
VERTEX
  8
0
  6
CONTINUOUS
 10
7.355040
 20
5.087280
  0
VERTEX
  8
0
  6
CONTINUOUS
 10
7.341840
 20
5.096080
  0
VERTEX
  8
0
  6
CONTINUOUS
 10
7.327320
 20
5.102240
  0
VERTEX
  8
0
  6
CONTINUOUS
 10
7.302680
 20
5.105760
  0
VERTEX
  8
0
  6
CONTINUOUS
 10
7.285960
 20
5.104000
  0
VERTEX
  8
0
  6
CONTINUOUS
 10
7.270120
 20
5.099160
  0
VERTEX
  8
0
  6
CONTINUOUS
 10
7.249440
 20
5.086400
  0
VERTEX
  8
0
  6
CONTINUOUS
 10
7.232720
 20
5.068360
  0
VERTEX
  8
0
  6
CONTINUOUS
 10
7.224800
 20
5.054280
  0
VERTEX
  8
0
  6
CONTINUOUS
 10
7.218640
 20
5.030520
  0
VERTEX
  8
0
  6
CONTINUOUS
 10
7.218200
 20
5.018200
  0
VERTEX
  8
0
  6
CONTINUOUS
 10
7.207640
 20
5.018200
  0
VERTEX
  8
0
  6
CONTINUOUS
 10
7.199280
 20
5.145360
  0
VERTEX
  8
0
  6
CONTINUOUS
 10
6.495280
 20
5.145360
  0
VERTEX
  8
0
  6
CONTINUOUS
 10
6.495280
 20
5.216200
  0
VERTEX
  8
0
  6
CONTINUOUS
 10
5.645200
 20
5.216200
  0
VERTEX
  8
0
  6
CONTINUOUS
 10
5.643000
 20
5.226320
  0
VERTEX
  8
0
  6
CONTINUOUS
 10
5.641680
 20
5.251840
  0
VERTEX
  8
0
  6
CONTINUOUS
 10
5.636400
 20
5.269880
  0
VERTEX
  8
0
  6
CONTINUOUS
 10
5.631560
 20
5.278680
  0
VERTEX
  8
0
  6
CONTINUOUS
 10
5.624960
 20
5.285720
  0
VERTEX
  8
0
  6
CONTINUOUS
 10
5.609120
 20
5.293200
  0
VERTEX
  8
0
  6
CONTINUOUS
 10
5.590200
 20
5.296280
  0
VERTEX
  8
0
  6
CONTINUOUS
 10
5.548840
 20
5.298040
  0
VERTEX
  8
0
  6
CONTINUOUS
 10
5.529040
 20
5.302440
  0
VERTEX
  8
0
  6
CONTINUOUS
 10
5.494280
 20
5.316960
  0
VERTEX
  8
0
  6
CONTINUOUS
 10
5.474920
 20
5.333240
  0
VERTEX
  8
0
  6
CONTINUOUS
 10
5.448520
 20
5.368440
  0
VERTEX
  8
0
  6
CONTINUOUS
 10
5.418160
 20
5.408920
  0
VERTEX
  8
0
  6
CONTINUOUS
 10
5.395720
 20
5.430480
  0
VERTEX
  8
0
  6
CONTINUOUS
 10
5.374160
 20
5.444560
  0
VERTEX
  8
0
  6
CONTINUOUS
 10
5.360080
 20
5.450720
  0
VERTEX
  8
0
  6
CONTINUOUS
 10
5.346000
 20
5.454240
  0
VERTEX
  8
0
  6
CONTINUOUS
 10
5.332800
 20
5.455120
  0
VERTEX
  8
0
  6
CONTINUOUS
 10
5.319600
 20
5.453800
  0
VERTEX
  8
0
  6
CONTINUOUS
 10
5.306400
 20
5.450280
  0
VERTEX
  8
0
  6
CONTINUOUS
 10
5.282200
 20
5.438400
  0
VERTEX
  8
0
  6
CONTINUOUS
 10
5.259760
 20
5.420360
  0
VERTEX
  8
0
  6
CONTINUOUS
 10
5.236880
 20
5.397040
  0
VERTEX
  8
0
  6
CONTINUOUS
 10
5.228520
 20
5.499120
  0
VERTEX
  8
0
  6
CONTINUOUS
 10
5.034920
 20
5.499120
  0
VERTEX
  8
0
  6
CONTINUOUS
 10
5.026560
 20
5.505720
  0
VERTEX
  8
0
  6
CONTINUOUS
 10
4.991800
 20
5.552360
  0
VERTEX
  8
0
  6
CONTINUOUS
 10
4.956600
 20
5.592400
  0
VERTEX
  8
0
  6
CONTINUOUS
 10
4.920960
 20
5.627160
  0
VERTEX
  8
0
  6
CONTINUOUS
 10
4.884880
 20
5.656640
  0
VERTEX
  8
0
  6
CONTINUOUS
 10
4.847920
 20
5.681280
  0
VERTEX
  8
0
  6
CONTINUOUS
 10
4.810520
 20
5.701520
  0
VERTEX
  8
0
  6
CONTINUOUS
 10
4.752880
 20
5.724400
  0
VERTEX
  8
0
  6
CONTINUOUS
 10
4.693040
 20
5.739800
  0
VERTEX
  8
0
  6
CONTINUOUS
 10
4.651680
 20
5.746840
  0
VERTEX
  8
0
  6
CONTINUOUS
 10
4.565000
 20
5.754320
  0
VERTEX
  8
0
  6
CONTINUOUS
 10
4.472600
 20
5.756080
  0
VERTEX
  8
0
  6
CONTINUOUS
 10
4.373600
 20
5.756080
  0
VERTEX
  8
0
  6
CONTINUOUS
 10
4.373600
 20
5.771920
  0
VERTEX
  8
0
  6
CONTINUOUS
 10
4.374480
 20
5.770160
  0
VERTEX
  8
0
  6
CONTINUOUS
 10
4.374480
 20
5.855520
  0
VERTEX
  8
0
  6
CONTINUOUS
 10
3.849560
 20
5.855520
  0
VERTEX
  8
0
  6
CONTINUOUS
 10
3.849560
 20
4.101240
  0
VERTEX
  8
0
  6
CONTINUOUS
 10
7.847400
 20
4.101240
  0
VERTEX
  8
0
  6
CONTINUOUS
 10
7.847400
 20
4.986520
  0
VERTEX
  8
0
  6
CONTINUOUS
 10
7.386720
 20
4.986960
  0
VERTEX
  8
0
  6
CONTINUOUS
 10
7.399920
 20
4.986960
  0
SEQEND
  8
0
  0
SOLID
  8
0
 62
    15
 10
5.408920
 20
2.581480
 11
5.412880
 21
3.327720
 12
5.423000
 22
2.575320
 13
5.427400
 23
3.322000
  0
POLYLINE
  8
0
  6
CONTINUOUS
 66
     1
 40
0.000000
 41
0.000000
  0
VERTEX
  8
0
  6
CONTINUOUS
 10
5.408920
 20
2.581480
  0
VERTEX
  8
0
  6
CONTINUOUS
 10
5.412880
 20
3.327720
  0
VERTEX
  8
0
  6
CONTINUOUS
 10
5.427400
 20
3.322000
  0
VERTEX
  8
0
  6
CONTINUOUS
 10
5.423000
 20
2.575320
  0
VERTEX
  8
0
  6
CONTINUOUS
 10
5.408920
 20
2.581480
  0
SEQEND
  8
0
  0
SOLID
  8
0
 62
    15
 10
7.762480
 20
2.250600
 11
7.766440
 21
2.996840
 12
7.762480
 22
1.365760
 13
7.766440
 23
2.112000
  0
POLYLINE
  8
0
  6
CONTINUOUS
 66
     1
 40
0.000000
 41
0.000000
  0
VERTEX
  8
0
  6
CONTINUOUS
 10
7.762480
 20
2.250600
  0
VERTEX
  8
0
  6
CONTINUOUS
 10
7.766440
 20
2.996840
  0
VERTEX
  8
0
  6
CONTINUOUS
 10
7.766440
 20
2.112000
  0
VERTEX
  8
0
  6
CONTINUOUS
 10
7.762480
 20
1.365760
  0
VERTEX
  8
0
  6
CONTINUOUS
 10
7.762480
 20
2.250600
  0
SEQEND
  8
0
  0
SOLID
  8
0
 62
    15
 10
7.746200
 20
2.250600
 11
7.750160
 21
2.996840
 12
7.762480
 22
2.250600
 13
7.766440
 23
2.996840
  0
POLYLINE
  8
0
  6
CONTINUOUS
 66
     1
 40
0.000000
 41
0.000000
  0
VERTEX
  8
0
  6
CONTINUOUS
 10
7.746200
 20
2.250600
  0
VERTEX
  8
0
  6
CONTINUOUS
 10
7.750160
 20
2.996840
  0
VERTEX
  8
0
  6
CONTINUOUS
 10
7.766440
 20
2.996840
  0
VERTEX
  8
0
  6
CONTINUOUS
 10
7.762480
 20
2.250600
  0
VERTEX
  8
0
  6
CONTINUOUS
 10
7.746200
 20
2.250600
  0
SEQEND
  8
0
  0
SOLID
  8
0
 62
    15
 10
4.288680
 20
3.036000
 11
4.292640
 21
3.782240
 12
4.288680
 22
3.020600
 13
4.292640
 23
3.766840
  0
POLYLINE
  8
0
  6
CONTINUOUS
 66
     1
 40
0.000000
 41
0.000000
  0
VERTEX
  8
0
  6
CONTINUOUS
 10
4.288680
 20
3.036000
  0
VERTEX
  8
0
  6
CONTINUOUS
 10
4.292640
 20
3.782240
  0
VERTEX
  8
0
  6
CONTINUOUS
 10
4.292640
 20
3.766840
  0
VERTEX
  8
0
  6
CONTINUOUS
 10
4.288680
 20
3.020600
  0
VERTEX
  8
0
  6
CONTINUOUS
 10
4.288680
 20
3.036000
  0
SEQEND
  8
0
  0
SOLID
  8
0
 62
    15
 10
4.288680
 20
3.020600
 11
4.292640
 21
3.766840
 12
4.480080
 22
3.018840
 13
4.484040
 23
3.765080
  0
POLYLINE
  8
0
  6
CONTINUOUS
 66
     1
 40
0.000000
 41
0.000000
  0
VERTEX
  8
0
  6
CONTINUOUS
 10
4.288680
 20
3.020600
  0
VERTEX
  8
0
  6
CONTINUOUS
 10
4.292640
 20
3.766840
  0
VERTEX
  8
0
  6
CONTINUOUS
 10
4.484040
 20
3.765080
  0
VERTEX
  8
0
  6
CONTINUOUS
 10
4.480080
 20
3.018840
  0
VERTEX
  8
0
  6
CONTINUOUS
 10
4.288680
 20
3.020600
  0
SEQEND
  8
0
  0
SOLID
  8
0
 62
    15
 10
3.764200
 20
3.120040
 11
3.768600
 21
3.866280
 12
4.289560
 22
3.120040
 13
4.293520
 23
3.866280
  0
POLYLINE
  8
0
  6
CONTINUOUS
 66
     1
 40
0.000000
 41
0.000000
  0
VERTEX
  8
0
  6
CONTINUOUS
 10
3.764200
 20
3.120040
  0
VERTEX
  8
0
  6
CONTINUOUS
 10
3.768600
 20
3.866280
  0
VERTEX
  8
0
  6
CONTINUOUS
 10
4.293520
 20
3.866280
  0
VERTEX
  8
0
  6
CONTINUOUS
 10
4.289560
 20
3.120040
  0
VERTEX
  8
0
  6
CONTINUOUS
 10
3.764200
 20
3.120040
  0
SEQEND
  8
0
  0
SOLID
  8
0
 62
    15
 10
4.289560
 20
3.120040
 11
4.293520
 21
3.866280
 12
4.289560
 22
3.034240
 13
4.293520
 23
3.780920
  0
POLYLINE
  8
0
  6
CONTINUOUS
 66
     1
 40
0.000000
 41
0.000000
  0
VERTEX
  8
0
  6
CONTINUOUS
 10
4.289560
 20
3.120040
  0
VERTEX
  8
0
  6
CONTINUOUS
 10
4.293520
 20
3.866280
  0
VERTEX
  8
0
  6
CONTINUOUS
 10
4.293520
 20
3.780920
  0
VERTEX
  8
0
  6
CONTINUOUS
 10
4.289560
 20
3.034240
  0
VERTEX
  8
0
  6
CONTINUOUS
 10
4.289560
 20
3.120040
  0
SEQEND
  8
0
  0
SOLID
  8
0
 62
    15
 10
4.480080
 20
3.018840
 11
4.484040
 21
3.765080
 12
4.566760
 22
3.010920
 13
4.570720
 23
3.757600
  0
POLYLINE
  8
0
  6
CONTINUOUS
 66
     1
 40
0.000000
 41
0.000000
  0
VERTEX
  8
0
  6
CONTINUOUS
 10
4.480080
 20
3.018840
  0
VERTEX
  8
0
  6
CONTINUOUS
 10
4.484040
 20
3.765080
  0
VERTEX
  8
0
  6
CONTINUOUS
 10
4.570720
 20
3.757600
  0
VERTEX
  8
0
  6
CONTINUOUS
 10
4.566760
 20
3.010920
  0
VERTEX
  8
0
  6
CONTINUOUS
 10
4.480080
 20
3.018840
  0
SEQEND
  8
0
  0
SOLID
  8
0
 62
    15
 10
4.566760
 20
3.010920
 11
4.570720
 21
3.757600
 12
4.648160
 22
2.994640
 13
4.652120
 23
3.740880
  0
POLYLINE
  8
0
  6
CONTINUOUS
 66
     1
 40
0.000000
 41
0.000000
  0
VERTEX
  8
0
  6
CONTINUOUS
 10
4.566760
 20
3.010920
  0
VERTEX
  8
0
  6
CONTINUOUS
 10
4.570720
 20
3.757600
  0
VERTEX
  8
0
  6
CONTINUOUS
 10
4.652120
 20
3.740880
  0
VERTEX
  8
0
  6
CONTINUOUS
 10
4.648160
 20
2.994640
  0
VERTEX
  8
0
  6
CONTINUOUS
 10
4.566760
 20
3.010920
  0
SEQEND
  8
0
  0
SOLID
  8
0
 62
    15
 10
4.648160
 20
2.994640
 11
4.652120
 21
3.740880
 12
4.725600
 22
2.965600
 13
4.729560
 23
3.712280
  0
POLYLINE
  8
0
  6
CONTINUOUS
 66
     1
 40
0.000000
 41
0.000000
  0
VERTEX
  8
0
  6
CONTINUOUS
 10
4.648160
 20
2.994640
  0
VERTEX
  8
0
  6
CONTINUOUS
 10
4.652120
 20
3.740880
  0
VERTEX
  8
0
  6
CONTINUOUS
 10
4.729560
 20
3.712280
  0
VERTEX
  8
0
  6
CONTINUOUS
 10
4.725600
 20
2.965600
  0
VERTEX
  8
0
  6
CONTINUOUS
 10
4.648160
 20
2.994640
  0
SEQEND
  8
0
  0
SOLID
  8
0
 62
    15
 10
4.725600
 20
2.965600
 11
4.729560
 21
3.712280
 12
4.799520
 22
2.920720
 13
4.803480
 23
3.667400
  0
POLYLINE
  8
0
  6
CONTINUOUS
 66
     1
 40
0.000000
 41
0.000000
  0
VERTEX
  8
0
  6
CONTINUOUS
 10
4.725600
 20
2.965600
  0
VERTEX
  8
0
  6
CONTINUOUS
 10
4.729560
 20
3.712280
  0
VERTEX
  8
0
  6
CONTINUOUS
 10
4.803480
 20
3.667400
  0
VERTEX
  8
0
  6
CONTINUOUS
 10
4.799520
 20
2.920720
  0
VERTEX
  8
0
  6
CONTINUOUS
 10
4.725600
 20
2.965600
  0
SEQEND
  8
0
  0
SOLID
  8
0
 62
    15
 10
4.799520
 20
2.920720
 11
4.803480
 21
3.667400
 12
4.871240
 22
2.856920
 13
4.875200
 23
3.603160
  0
POLYLINE
  8
0
  6
CONTINUOUS
 66
     1
 40
0.000000
 41
0.000000
  0
VERTEX
  8
0
  6
CONTINUOUS
 10
4.799520
 20
2.920720
  0
VERTEX
  8
0
  6
CONTINUOUS
 10
4.803480
 20
3.667400
  0
VERTEX
  8
0
  6
CONTINUOUS
 10
4.875200
 20
3.603160
  0
VERTEX
  8
0
  6
CONTINUOUS
 10
4.871240
 20
2.856920
  0
VERTEX
  8
0
  6
CONTINUOUS
 10
4.799520
 20
2.920720
  0
SEQEND
  8
0
  0
SOLID
  8
0
 62
    15
 10
4.871240
 20
2.856920
 11
4.875200
 21
3.603160
 12
4.941640
 22
2.769800
 13
4.945600
 23
3.516040
  0
POLYLINE
  8
0
  6
CONTINUOUS
 66
     1
 40
0.000000
 41
0.000000
  0
VERTEX
  8
0
  6
CONTINUOUS
 10
4.871240
 20
2.856920
  0
VERTEX
  8
0
  6
CONTINUOUS
 10
4.875200
 20
3.603160
  0
VERTEX
  8
0
  6
CONTINUOUS
 10
4.945600
 20
3.516040
  0
VERTEX
  8
0
  6
CONTINUOUS
 10
4.941640
 20
2.769800
  0
VERTEX
  8
0
  6
CONTINUOUS
 10
4.871240
 20
2.856920
  0
SEQEND
  8
0
  0
SOLID
  8
0
 62
    15
 10
4.941640
 20
2.769800
 11
4.945600
 21
3.516040
 12
4.950000
 22
2.763640
 13
4.953960
 23
3.509880
  0
POLYLINE
  8
0
  6
CONTINUOUS
 66
     1
 40
0.000000
 41
0.000000
  0
VERTEX
  8
0
  6
CONTINUOUS
 10
4.941640
 20
2.769800
  0
VERTEX
  8
0
  6
CONTINUOUS
 10
4.945600
 20
3.516040
  0
VERTEX
  8
0
  6
CONTINUOUS
 10
4.953960
 20
3.509880
  0
VERTEX
  8
0
  6
CONTINUOUS
 10
4.950000
 20
2.763640
  0
VERTEX
  8
0
  6
CONTINUOUS
 10
4.941640
 20
2.769800
  0
SEQEND
  8
0
  0
SOLID
  8
0
 62
    15
 10
4.950000
 20
2.763640
 11
4.953960
 21
3.509880
 12
5.143600
 22
2.763640
 13
5.147560
 23
3.509880
  0
POLYLINE
  8
0
  6
CONTINUOUS
 66
     1
 40
0.000000
 41
0.000000
  0
VERTEX
  8
0
  6
CONTINUOUS
 10
4.950000
 20
2.763640
  0
VERTEX
  8
0
  6
CONTINUOUS
 10
4.953960
 20
3.509880
  0
VERTEX
  8
0
  6
CONTINUOUS
 10
5.147560
 20
3.509880
  0
VERTEX
  8
0
  6
CONTINUOUS
 10
5.143600
 20
2.763640
  0
VERTEX
  8
0
  6
CONTINUOUS
 10
4.950000
 20
2.763640
  0
SEQEND
  8
0
  0
SOLID
  8
0
 62
    15
 10
5.143600
 20
2.763640
 11
5.147560
 21
3.509880
 12
5.151960
 22
2.661560
 13
5.155920
 23
3.407800
  0
POLYLINE
  8
0
  6
CONTINUOUS
 66
     1
 40
0.000000
 41
0.000000
  0
VERTEX
  8
0
  6
CONTINUOUS
 10
5.143600
 20
2.763640
  0
VERTEX
  8
0
  6
CONTINUOUS
 10
5.147560
 20
3.509880
  0
VERTEX
  8
0
  6
CONTINUOUS
 10
5.155920
 20
3.407800
  0
VERTEX
  8
0
  6
CONTINUOUS
 10
5.151960
 20
2.661560
  0
VERTEX
  8
0
  6
CONTINUOUS
 10
5.143600
 20
2.763640
  0
SEQEND
  8
0
  0
SOLID
  8
0
 62
    15
 10
5.151960
 20
2.661560
 11
5.155920
 21
3.407800
 12
5.154160
 22
2.662440
 13
5.158120
 23
3.409120
  0
POLYLINE
  8
0
  6
CONTINUOUS
 66
     1
 40
0.000000
 41
0.000000
  0
VERTEX
  8
0
  6
CONTINUOUS
 10
5.151960
 20
2.661560
  0
VERTEX
  8
0
  6
CONTINUOUS
 10
5.155920
 20
3.407800
  0
VERTEX
  8
0
  6
CONTINUOUS
 10
5.158120
 20
3.409120
  0
VERTEX
  8
0
  6
CONTINUOUS
 10
5.154160
 20
2.662440
  0
VERTEX
  8
0
  6
CONTINUOUS
 10
5.151960
 20
2.661560
  0
SEQEND
  8
0
  0
SOLID
  8
0
 62
    15
 10
5.154160
 20
2.662440
 11
5.158120
 21
3.409120
 12
5.197280
 22
2.702480
 13
5.201240
 23
3.449160
  0
POLYLINE
  8
0
  6
CONTINUOUS
 66
     1
 40
0.000000
 41
0.000000
  0
VERTEX
  8
0
  6
CONTINUOUS
 10
5.154160
 20
2.662440
  0
VERTEX
  8
0
  6
CONTINUOUS
 10
5.158120
 20
3.409120
  0
VERTEX
  8
0
  6
CONTINUOUS
 10
5.201240
 20
3.449160
  0
VERTEX
  8
0
  6
CONTINUOUS
 10
5.197280
 20
2.702480
  0
VERTEX
  8
0
  6
CONTINUOUS
 10
5.154160
 20
2.662440
  0
SEQEND
  8
0
  0
SOLID
  8
0
 62
    15
 10
5.197280
 20
2.702480
 11
5.201240
 21
3.449160
 12
5.247440
 22
2.719200
 13
5.251400
 23
3.465880
  0
POLYLINE
  8
0
  6
CONTINUOUS
 66
     1
 40
0.000000
 41
0.000000
  0
VERTEX
  8
0
  6
CONTINUOUS
 10
5.197280
 20
2.702480
  0
VERTEX
  8
0
  6
CONTINUOUS
 10
5.201240
 20
3.449160
  0
VERTEX
  8
0
  6
CONTINUOUS
 10
5.251400
 20
3.465880
  0
VERTEX
  8
0
  6
CONTINUOUS
 10
5.247440
 20
2.719200
  0
VERTEX
  8
0
  6
CONTINUOUS
 10
5.197280
 20
2.702480
  0
SEQEND
  8
0
  0
SOLID
  8
0
 62
    15
 10
5.247440
 20
2.719200
 11
5.251400
 21
3.465880
 12
5.274720
 22
2.714800
 13
5.278680
 23
3.461480
  0
POLYLINE
  8
0
  6
CONTINUOUS
 66
     1
 40
0.000000
 41
0.000000
  0
VERTEX
  8
0
  6
CONTINUOUS
 10
5.247440
 20
2.719200
  0
VERTEX
  8
0
  6
CONTINUOUS
 10
5.251400
 20
3.465880
  0
VERTEX
  8
0
  6
CONTINUOUS
 10
5.278680
 20
3.461480
  0
VERTEX
  8
0
  6
CONTINUOUS
 10
5.274720
 20
2.714800
  0
VERTEX
  8
0
  6
CONTINUOUS
 10
5.247440
 20
2.719200
  0
SEQEND
  8
0
  0
SOLID
  8
0
 62
    15
 10
5.274720
 20
2.714800
 11
5.278680
 21
3.461480
 12
5.303320
 22
2.700280
 13
5.307720
 23
3.446520
  0
POLYLINE
  8
0
  6
CONTINUOUS
 66
     1
 40
0.000000
 41
0.000000
  0
VERTEX
  8
0
  6
CONTINUOUS
 10
5.274720
 20
2.714800
  0
VERTEX
  8
0
  6
CONTINUOUS
 10
5.278680
 20
3.461480
  0
VERTEX
  8
0
  6
CONTINUOUS
 10
5.307720
 20
3.446520
  0
VERTEX
  8
0
  6
CONTINUOUS
 10
5.303320
 20
2.700280
  0
VERTEX
  8
0
  6
CONTINUOUS
 10
5.274720
 20
2.714800
  0
SEQEND
  8
0
  0
SOLID
  8
0
 62
    15
 10
5.303320
 20
2.700280
 11
5.307720
 21
3.446520
 12
5.333240
 22
2.673440
 13
5.337200
 23
3.419680
  0
POLYLINE
  8
0
  6
CONTINUOUS
 66
     1
 40
0.000000
 41
0.000000
  0
VERTEX
  8
0
  6
CONTINUOUS
 10
5.303320
 20
2.700280
  0
VERTEX
  8
0
  6
CONTINUOUS
 10
5.307720
 20
3.446520
  0
VERTEX
  8
0
  6
CONTINUOUS
 10
5.337200
 20
3.419680
  0
VERTEX
  8
0
  6
CONTINUOUS
 10
5.333240
 20
2.673440
  0
VERTEX
  8
0
  6
CONTINUOUS
 10
5.303320
 20
2.700280
  0
SEQEND
  8
0
  0
SOLID
  8
0
 62
    15
 10
5.333240
 20
2.673440
 11
5.337200
 21
3.419680
 12
5.363600
 22
2.632960
 13
5.367560
 23
3.379200
  0
POLYLINE
  8
0
  6
CONTINUOUS
 66
     1
 40
0.000000
 41
0.000000
  0
VERTEX
  8
0
  6
CONTINUOUS
 10
5.333240
 20
2.673440
  0
VERTEX
  8
0
  6
CONTINUOUS
 10
5.337200
 20
3.419680
  0
VERTEX
  8
0
  6
CONTINUOUS
 10
5.367560
 20
3.379200
  0
VERTEX
  8
0
  6
CONTINUOUS
 10
5.363600
 20
2.632960
  0
VERTEX
  8
0
  6
CONTINUOUS
 10
5.333240
 20
2.673440
  0
SEQEND
  8
0
  0
SOLID
  8
0
 62
    15
 10
5.363600
 20
2.632960
 11
5.367560
 21
3.379200
 12
5.390000
 22
2.597320
 13
5.393960
 23
3.344000
  0
POLYLINE
  8
0
  6
CONTINUOUS
 66
     1
 40
0.000000
 41
0.000000
  0
VERTEX
  8
0
  6
CONTINUOUS
 10
5.363600
 20
2.632960
  0
VERTEX
  8
0
  6
CONTINUOUS
 10
5.367560
 20
3.379200
  0
VERTEX
  8
0
  6
CONTINUOUS
 10
5.393960
 20
3.344000
  0
VERTEX
  8
0
  6
CONTINUOUS
 10
5.390000
 20
2.597320
  0
VERTEX
  8
0
  6
CONTINUOUS
 10
5.363600
 20
2.632960
  0
SEQEND
  8
0
  0
SOLID
  8
0
 62
    15
 10
5.390000
 20
2.597320
 11
5.393960
 21
3.344000
 12
5.408920
 22
2.581480
 13
5.412880
 23
3.327720
  0
POLYLINE
  8
0
  6
CONTINUOUS
 66
     1
 40
0.000000
 41
0.000000
  0
VERTEX
  8
0
  6
CONTINUOUS
 10
5.390000
 20
2.597320
  0
VERTEX
  8
0
  6
CONTINUOUS
 10
5.393960
 20
3.344000
  0
VERTEX
  8
0
  6
CONTINUOUS
 10
5.412880
 20
3.327720
  0
VERTEX
  8
0
  6
CONTINUOUS
 10
5.408920
 20
2.581480
  0
VERTEX
  8
0
  6
CONTINUOUS
 10
5.390000
 20
2.597320
  0
SEQEND
  8
0
  0
SOLID
  8
0
 62
    15
 10
7.301800
 20
2.251040
 11
7.305760
 21
2.997280
 12
7.755880
 22
2.251040
 13
7.760280
 23
2.997280
  0
POLYLINE
  8
0
  6
CONTINUOUS
 66
     1
 40
0.000000
 41
0.000000
  0
VERTEX
  8
0
  6
CONTINUOUS
 10
7.301800
 20
2.251040
  0
VERTEX
  8
0
  6
CONTINUOUS
 10
7.305760
 20
2.997280
  0
VERTEX
  8
0
  6
CONTINUOUS
 10
7.760280
 20
2.997280
  0
VERTEX
  8
0
  6
CONTINUOUS
 10
7.755880
 20
2.251040
  0
VERTEX
  8
0
  6
CONTINUOUS
 10
7.301800
 20
2.251040
  0
SEQEND
  8
0
  0
SOLID
  8
0
 62
    15
 10
5.423000
 20
2.575320
 11
5.427400
 21
3.322000
 12
5.434880
 22
2.571360
 13
5.438840
 23
3.317600
  0
POLYLINE
  8
0
  6
CONTINUOUS
 66
     1
 40
0.000000
 41
0.000000
  0
VERTEX
  8
0
  6
CONTINUOUS
 10
5.423000
 20
2.575320
  0
VERTEX
  8
0
  6
CONTINUOUS
 10
5.427400
 20
3.322000
  0
VERTEX
  8
0
  6
CONTINUOUS
 10
5.438840
 20
3.317600
  0
VERTEX
  8
0
  6
CONTINUOUS
 10
5.434880
 20
2.571360
  0
VERTEX
  8
0
  6
CONTINUOUS
 10
5.423000
 20
2.575320
  0
SEQEND
  8
0
  0
SOLID
  8
0
 62
    15
 10
5.434880
 20
2.571360
 11
5.438840
 21
3.317600
 12
5.474480
 22
2.561680
 13
5.478440
 23
3.307920
  0
POLYLINE
  8
0
  6
CONTINUOUS
 66
     1
 40
0.000000
 41
0.000000
  0
VERTEX
  8
0
  6
CONTINUOUS
 10
5.434880
 20
2.571360
  0
VERTEX
  8
0
  6
CONTINUOUS
 10
5.438840
 20
3.317600
  0
VERTEX
  8
0
  6
CONTINUOUS
 10
5.478440
 20
3.307920
  0
VERTEX
  8
0
  6
CONTINUOUS
 10
5.474480
 20
2.561680
  0
VERTEX
  8
0
  6
CONTINUOUS
 10
5.434880
 20
2.571360
  0
SEQEND
  8
0
  0
SOLID
  8
0
 62
    15
 10
5.474480
 20
2.561680
 11
5.478440
 21
3.307920
 12
5.485040
 22
2.561240
 13
5.489000
 23
3.307480
  0
POLYLINE
  8
0
  6
CONTINUOUS
 66
     1
 40
0.000000
 41
0.000000
  0
VERTEX
  8
0
  6
CONTINUOUS
 10
5.474480
 20
2.561680
  0
VERTEX
  8
0
  6
CONTINUOUS
 10
5.478440
 20
3.307920
  0
VERTEX
  8
0
  6
CONTINUOUS
 10
5.489000
 20
3.307480
  0
VERTEX
  8
0
  6
CONTINUOUS
 10
5.485040
 20
2.561240
  0
VERTEX
  8
0
  6
CONTINUOUS
 10
5.474480
 20
2.561680
  0
SEQEND
  8
0
  0
SOLID
  8
0
 62
    15
 10
5.485040
 20
2.561240
 11
5.489000
 21
3.307480
 12
5.495600
 22
2.561240
 13
5.499560
 23
3.307480
  0
POLYLINE
  8
0
  6
CONTINUOUS
 66
     1
 40
0.000000
 41
0.000000
  0
VERTEX
  8
0
  6
CONTINUOUS
 10
5.485040
 20
2.561240
  0
VERTEX
  8
0
  6
CONTINUOUS
 10
5.489000
 20
3.307480
  0
VERTEX
  8
0
  6
CONTINUOUS
 10
5.499560
 20
3.307480
  0
VERTEX
  8
0
  6
CONTINUOUS
 10
5.495600
 20
2.561240
  0
VERTEX
  8
0
  6
CONTINUOUS
 10
5.485040
 20
2.561240
  0
SEQEND
  8
0
  0
SOLID
  8
0
 62
    15
 10
5.495600
 20
2.561240
 11
5.499560
 21
3.307480
 12
5.515400
 22
2.559480
 13
5.519360
 23
3.306160
  0
POLYLINE
  8
0
  6
CONTINUOUS
 66
     1
 40
0.000000
 41
0.000000
  0
VERTEX
  8
0
  6
CONTINUOUS
 10
5.495600
 20
2.561240
  0
VERTEX
  8
0
  6
CONTINUOUS
 10
5.499560
 20
3.307480
  0
VERTEX
  8
0
  6
CONTINUOUS
 10
5.519360
 20
3.306160
  0
VERTEX
  8
0
  6
CONTINUOUS
 10
5.515400
 20
2.559480
  0
VERTEX
  8
0
  6
CONTINUOUS
 10
5.495600
 20
2.561240
  0
SEQEND
  8
0
  0
SOLID
  8
0
 62
    15
 10
5.515400
 20
2.559480
 11
5.519360
 21
3.306160
 12
5.546640
 22
2.543200
 13
5.550600
 23
3.289440
  0
POLYLINE
  8
0
  6
CONTINUOUS
 66
     1
 40
0.000000
 41
0.000000
  0
VERTEX
  8
0
  6
CONTINUOUS
 10
5.515400
 20
2.559480
  0
VERTEX
  8
0
  6
CONTINUOUS
 10
5.519360
 20
3.306160
  0
VERTEX
  8
0
  6
CONTINUOUS
 10
5.550600
 20
3.289440
  0
VERTEX
  8
0
  6
CONTINUOUS
 10
5.546640
 20
2.543200
  0
VERTEX
  8
0
  6
CONTINUOUS
 10
5.515400
 20
2.559480
  0
SEQEND
  8
0
  0
SOLID
  8
0
 62
    15
 10
5.546640
 20
2.543200
 11
5.550600
 21
3.289440
 12
5.555440
 22
2.522960
 13
5.559400
 23
3.269200
  0
POLYLINE
  8
0
  6
CONTINUOUS
 66
     1
 40
0.000000
 41
0.000000
  0
VERTEX
  8
0
  6
CONTINUOUS
 10
5.546640
 20
2.543200
  0
VERTEX
  8
0
  6
CONTINUOUS
 10
5.550600
 20
3.289440
  0
VERTEX
  8
0
  6
CONTINUOUS
 10
5.559400
 20
3.269200
  0
VERTEX
  8
0
  6
CONTINUOUS
 10
5.555440
 20
2.522960
  0
VERTEX
  8
0
  6
CONTINUOUS
 10
5.546640
 20
2.543200
  0
SEQEND
  8
0
  0
SOLID
  8
0
 62
    15
 10
5.555440
 20
2.522960
 11
5.559400
 21
3.269200
 12
5.558080
 22
2.490840
 13
5.562040
 23
3.237080
  0
POLYLINE
  8
0
  6
CONTINUOUS
 66
     1
 40
0.000000
 41
0.000000
  0
VERTEX
  8
0
  6
CONTINUOUS
 10
5.555440
 20
2.522960
  0
VERTEX
  8
0
  6
CONTINUOUS
 10
5.559400
 20
3.269200
  0
VERTEX
  8
0
  6
CONTINUOUS
 10
5.562040
 20
3.237080
  0
VERTEX
  8
0
  6
CONTINUOUS
 10
5.558080
 20
2.490840
  0
VERTEX
  8
0
  6
CONTINUOUS
 10
5.555440
 20
2.522960
  0
SEQEND
  8
0
  0
SOLID
  8
0
 62
    15
 10
5.558080
 20
2.490840
 11
5.562040
 21
3.237080
 12
5.560280
 22
2.480280
 13
5.564240
 23
3.226520
  0
POLYLINE
  8
0
  6
CONTINUOUS
 66
     1
 40
0.000000
 41
0.000000
  0
VERTEX
  8
0
  6
CONTINUOUS
 10
5.558080
 20
2.490840
  0
VERTEX
  8
0
  6
CONTINUOUS
 10
5.562040
 20
3.237080
  0
VERTEX
  8
0
  6
CONTINUOUS
 10
5.564240
 20
3.226520
  0
VERTEX
  8
0
  6
CONTINUOUS
 10
5.560280
 20
2.480280
  0
VERTEX
  8
0
  6
CONTINUOUS
 10
5.558080
 20
2.490840
  0
SEQEND
  8
0
  0
SOLID
  8
0
 62
    15
 10
7.122720
 20
2.282280
 11
7.126680
 21
3.028520
 12
7.133280
 22
2.282280
 13
7.137240
 23
3.028520
  0
POLYLINE
  8
0
  6
CONTINUOUS
 66
     1
 40
0.000000
 41
0.000000
  0
VERTEX
  8
0
  6
CONTINUOUS
 10
7.122720
 20
2.282280
  0
VERTEX
  8
0
  6
CONTINUOUS
 10
7.126680
 20
3.028520
  0
VERTEX
  8
0
  6
CONTINUOUS
 10
7.137240
 20
3.028520
  0
VERTEX
  8
0
  6
CONTINUOUS
 10
7.133280
 20
2.282280
  0
VERTEX
  8
0
  6
CONTINUOUS
 10
7.122720
 20
2.282280
  0
SEQEND
  8
0
  0
SOLID
  8
0
 62
    15
 10
7.114360
 20
2.409440
 11
7.118320
 21
3.155680
 12
7.122720
 22
2.282280
 13
7.126680
 23
3.028520
  0
POLYLINE
  8
0
  6
CONTINUOUS
 66
     1
 40
0.000000
 41
0.000000
  0
VERTEX
  8
0
  6
CONTINUOUS
 10
7.114360
 20
2.409440
  0
VERTEX
  8
0
  6
CONTINUOUS
 10
7.118320
 20
3.155680
  0
VERTEX
  8
0
  6
CONTINUOUS
 10
7.126680
 20
3.028520
  0
VERTEX
  8
0
  6
CONTINUOUS
 10
7.122720
 20
2.282280
  0
VERTEX
  8
0
  6
CONTINUOUS
 10
7.114360
 20
2.409440
  0
SEQEND
  8
0
  0
SOLID
  8
0
 62
    15
 10
6.410360
 20
2.409440
 11
6.414320
 21
3.155680
 12
7.114360
 22
2.409440
 13
7.118320
 23
3.155680
  0
POLYLINE
  8
0
  6
CONTINUOUS
 66
     1
 40
0.000000
 41
0.000000
  0
VERTEX
  8
0
  6
CONTINUOUS
 10
6.410360
 20
2.409440
  0
VERTEX
  8
0
  6
CONTINUOUS
 10
6.414320
 20
3.155680
  0
VERTEX
  8
0
  6
CONTINUOUS
 10
7.118320
 20
3.155680
  0
VERTEX
  8
0
  6
CONTINUOUS
 10
7.114360
 20
2.409440
  0
VERTEX
  8
0
  6
CONTINUOUS
 10
6.410360
 20
2.409440
  0
SEQEND
  8
0
  0
SOLID
  8
0
 62
    15
 10
6.410360
 20
2.480280
 11
6.414320
 21
3.226520
 12
6.410360
 22
2.409440
 13
6.414320
 23
3.155680
  0
POLYLINE
  8
0
  6
CONTINUOUS
 66
     1
 40
0.000000
 41
0.000000
  0
VERTEX
  8
0
  6
CONTINUOUS
 10
6.410360
 20
2.480280
  0
VERTEX
  8
0
  6
CONTINUOUS
 10
6.414320
 20
3.226520
  0
VERTEX
  8
0
  6
CONTINUOUS
 10
6.414320
 20
3.155680
  0
VERTEX
  8
0
  6
CONTINUOUS
 10
6.410360
 20
2.409440
  0
VERTEX
  8
0
  6
CONTINUOUS
 10
6.410360
 20
2.480280
  0
SEQEND
  8
0
  0
SOLID
  8
0
 62
    15
 10
5.560280
 20
2.480280
 11
5.564240
 21
3.226520
 12
6.410360
 22
2.480280
 13
6.414320
 23
3.226520
  0
POLYLINE
  8
0
  6
CONTINUOUS
 66
     1
 40
0.000000
 41
0.000000
  0
VERTEX
  8
0
  6
CONTINUOUS
 10
5.560280
 20
2.480280
  0
VERTEX
  8
0
  6
CONTINUOUS
 10
5.564240
 20
3.226520
  0
VERTEX
  8
0
  6
CONTINUOUS
 10
6.414320
 20
3.226520
  0
VERTEX
  8
0
  6
CONTINUOUS
 10
6.410360
 20
2.480280
  0
VERTEX
  8
0
  6
CONTINUOUS
 10
5.560280
 20
2.480280
  0
SEQEND
  8
0
  0
SOLID
  8
0
 62
    15
 10
7.133280
 20
2.286680
 11
7.137240
 21
3.032920
 12
7.139880
 22
2.318360
 13
7.143840
 23
3.065040
  0
POLYLINE
  8
0
  6
CONTINUOUS
 66
     1
 40
0.000000
 41
0.000000
  0
VERTEX
  8
0
  6
CONTINUOUS
 10
7.133280
 20
2.286680
  0
VERTEX
  8
0
  6
CONTINUOUS
 10
7.137240
 20
3.032920
  0
VERTEX
  8
0
  6
CONTINUOUS
 10
7.143840
 20
3.065040
  0
VERTEX
  8
0
  6
CONTINUOUS
 10
7.139880
 20
2.318360
  0
VERTEX
  8
0
  6
CONTINUOUS
 10
7.133280
 20
2.286680
  0
SEQEND
  8
0
  0
SOLID
  8
0
 62
    15
 10
7.139880
 20
2.318360
 11
7.143840
 21
3.065040
 12
7.158360
 22
2.345200
 13
7.162320
 23
3.091440
  0
POLYLINE
  8
0
  6
CONTINUOUS
 66
     1
 40
0.000000
 41
0.000000
  0
VERTEX
  8
0
  6
CONTINUOUS
 10
7.139880
 20
2.318360
  0
VERTEX
  8
0
  6
CONTINUOUS
 10
7.143840
 20
3.065040
  0
VERTEX
  8
0
  6
CONTINUOUS
 10
7.162320
 20
3.091440
  0
VERTEX
  8
0
  6
CONTINUOUS
 10
7.158360
 20
2.345200
  0
VERTEX
  8
0
  6
CONTINUOUS
 10
7.139880
 20
2.318360
  0
SEQEND
  8
0
  0
SOLID
  8
0
 62
    15
 10
7.158360
 20
2.345200
 11
7.162320
 21
3.091440
 12
7.185200
 22
2.363240
 13
7.189160
 23
3.109480
  0
POLYLINE
  8
0
  6
CONTINUOUS
 66
     1
 40
0.000000
 41
0.000000
  0
VERTEX
  8
0
  6
CONTINUOUS
 10
7.158360
 20
2.345200
  0
VERTEX
  8
0
  6
CONTINUOUS
 10
7.162320
 20
3.091440
  0
VERTEX
  8
0
  6
CONTINUOUS
 10
7.189160
 20
3.109480
  0
VERTEX
  8
0
  6
CONTINUOUS
 10
7.185200
 20
2.363240
  0
VERTEX
  8
0
  6
CONTINUOUS
 10
7.158360
 20
2.345200
  0
SEQEND
  8
0
  0
SOLID
  8
0
 62
    15
 10
7.185200
 20
2.363240
 11
7.189160
 21
3.109480
 12
7.217760
 22
2.369840
 13
7.221720
 23
3.116080
  0
POLYLINE
  8
0
  6
CONTINUOUS
 66
     1
 40
0.000000
 41
0.000000
  0
VERTEX
  8
0
  6
CONTINUOUS
 10
7.185200
 20
2.363240
  0
VERTEX
  8
0
  6
CONTINUOUS
 10
7.189160
 20
3.109480
  0
VERTEX
  8
0
  6
CONTINUOUS
 10
7.221720
 20
3.116080
  0
VERTEX
  8
0
  6
CONTINUOUS
 10
7.217760
 20
2.369840
  0
VERTEX
  8
0
  6
CONTINUOUS
 10
7.185200
 20
2.363240
  0
SEQEND
  8
0
  0
SOLID
  8
0
 62
    15
 10
7.217760
 20
2.369840
 11
7.221720
 21
3.116080
 12
7.249440
 22
2.363680
 13
7.253400
 23
3.109920
  0
POLYLINE
  8
0
  6
CONTINUOUS
 66
     1
 40
0.000000
 41
0.000000
  0
VERTEX
  8
0
  6
CONTINUOUS
 10
7.217760
 20
2.369840
  0
VERTEX
  8
0
  6
CONTINUOUS
 10
7.221720
 20
3.116080
  0
VERTEX
  8
0
  6
CONTINUOUS
 10
7.253400
 20
3.109920
  0
VERTEX
  8
0
  6
CONTINUOUS
 10
7.249440
 20
2.363680
  0
VERTEX
  8
0
  6
CONTINUOUS
 10
7.217760
 20
2.369840
  0
SEQEND
  8
0
  0
SOLID
  8
0
 62
    15
 10
7.249440
 20
2.363680
 11
7.253400
 21
3.109920
 12
7.275840
 22
2.346080
 13
7.279800
 23
3.092320
  0
POLYLINE
  8
0
  6
CONTINUOUS
 66
     1
 40
0.000000
 41
0.000000
  0
VERTEX
  8
0
  6
CONTINUOUS
 10
7.249440
 20
2.363680
  0
VERTEX
  8
0
  6
CONTINUOUS
 10
7.253400
 20
3.109920
  0
VERTEX
  8
0
  6
CONTINUOUS
 10
7.279800
 20
3.092320
  0
VERTEX
  8
0
  6
CONTINUOUS
 10
7.275840
 20
2.346080
  0
VERTEX
  8
0
  6
CONTINUOUS
 10
7.249440
 20
2.363680
  0
SEQEND
  8
0
  0
SOLID
  8
0
 62
    15
 10
7.293440
 20
2.320120
 11
7.297400
 21
3.066800
 12
7.299600
 22
2.288440
 13
7.304000
 23
3.035120
  0
POLYLINE
  8
0
  6
CONTINUOUS
 66
     1
 40
0.000000
 41
0.000000
  0
VERTEX
  8
0
  6
CONTINUOUS
 10
7.293440
 20
2.320120
  0
VERTEX
  8
0
  6
CONTINUOUS
 10
7.297400
 20
3.066800
  0
VERTEX
  8
0
  6
CONTINUOUS
 10
7.304000
 20
3.035120
  0
VERTEX
  8
0
  6
CONTINUOUS
 10
7.299600
 20
2.288440
  0
VERTEX
  8
0
  6
CONTINUOUS
 10
7.293440
 20
2.320120
  0
SEQEND
  8
0
  0
SOLID
  8
0
 62
    15
 10
7.275840
 20
2.346080
 11
7.279800
 21
3.092320
 12
7.293440
 22
2.320120
 13
7.297400
 23
3.066800
  0
POLYLINE
  8
0
  6
CONTINUOUS
 66
     1
 40
0.000000
 41
0.000000
  0
VERTEX
  8
0
  6
CONTINUOUS
 10
7.275840
 20
2.346080
  0
VERTEX
  8
0
  6
CONTINUOUS
 10
7.279800
 20
3.092320
  0
VERTEX
  8
0
  6
CONTINUOUS
 10
7.297400
 20
3.066800
  0
VERTEX
  8
0
  6
CONTINUOUS
 10
7.293440
 20
2.320120
  0
VERTEX
  8
0
  6
CONTINUOUS
 10
7.275840
 20
2.346080
  0
SEQEND
  8
0
  0
SOLID
  8
0
 62
    15
 10
7.299600
 20
2.251040
 11
7.304000
 21
2.997280
 12
7.315000
 22
2.251040
 13
7.318960
 23
2.997280
  0
POLYLINE
  8
0
  6
CONTINUOUS
 66
     1
 40
0.000000
 41
0.000000
  0
VERTEX
  8
0
  6
CONTINUOUS
 10
7.299600
 20
2.251040
  0
VERTEX
  8
0
  6
CONTINUOUS
 10
7.304000
 20
2.997280
  0
VERTEX
  8
0
  6
CONTINUOUS
 10
7.318960
 20
2.997280
  0
VERTEX
  8
0
  6
CONTINUOUS
 10
7.315000
 20
2.251040
  0
VERTEX
  8
0
  6
CONTINUOUS
 10
7.299600
 20
2.251040
  0
SEQEND
  8
0
  0
SOLID
  8
0
 62
    15
 10
7.299600
 20
2.288440
 11
7.304000
 21
3.035120
 12
7.299600
 22
2.251040
 13
7.304000
 23
2.997280
  0
POLYLINE
  8
0
  6
CONTINUOUS
 66
     1
 40
0.000000
 41
0.000000
  0
VERTEX
  8
0
  6
CONTINUOUS
 10
7.299600
 20
2.288440
  0
VERTEX
  8
0
  6
CONTINUOUS
 10
7.304000
 20
3.035120
  0
VERTEX
  8
0
  6
CONTINUOUS
 10
7.304000
 20
2.997280
  0
VERTEX
  8
0
  6
CONTINUOUS
 10
7.299600
 20
2.251040
  0
VERTEX
  8
0
  6
CONTINUOUS
 10
7.299600
 20
2.288440
  0
SEQEND
  8
0
  0
POLYLINE
  8
0
  6
CONTINUOUS
 66
     1
 40
0.000000
 41
0.000000
  0
VERTEX
  8
0
  6
CONTINUOUS
 10
7.301800
 20
2.251040
  0
VERTEX
  8
0
  6
CONTINUOUS
 10
7.762480
 20
2.250600
  0
VERTEX
  8
0
  6
CONTINUOUS
 10
7.762480
 20
1.365760
  0
VERTEX
  8
0
  6
CONTINUOUS
 10
3.764200
 20
1.365760
  0
VERTEX
  8
0
  6
CONTINUOUS
 10
3.764200
 20
3.120040
  0
VERTEX
  8
0
  6
CONTINUOUS
 10
4.289560
 20
3.120040
  0
VERTEX
  8
0
  6
CONTINUOUS
 10
4.289560
 20
3.034240
  0
VERTEX
  8
0
  6
CONTINUOUS
 10
4.288680
 20
3.036000
  0
VERTEX
  8
0
  6
CONTINUOUS
 10
4.288680
 20
3.020600
  0
VERTEX
  8
0
  6
CONTINUOUS
 10
4.480080
 20
3.018840
  0
VERTEX
  8
0
  6
CONTINUOUS
 10
4.566760
 20
3.010920
  0
VERTEX
  8
0
  6
CONTINUOUS
 10
4.648160
 20
2.994640
  0
VERTEX
  8
0
  6
CONTINUOUS
 10
4.725600
 20
2.965600
  0
VERTEX
  8
0
  6
CONTINUOUS
 10
4.799520
 20
2.920720
  0
VERTEX
  8
0
  6
CONTINUOUS
 10
4.871240
 20
2.856920
  0
VERTEX
  8
0
  6
CONTINUOUS
 10
4.941640
 20
2.769800
  0
VERTEX
  8
0
  6
CONTINUOUS
 10
4.950000
 20
2.763640
  0
VERTEX
  8
0
  6
CONTINUOUS
 10
5.143600
 20
2.763640
  0
VERTEX
  8
0
  6
CONTINUOUS
 10
5.151960
 20
2.661560
  0
VERTEX
  8
0
  6
CONTINUOUS
 10
5.197280
 20
2.702480
  0
VERTEX
  8
0
  6
CONTINUOUS
 10
5.247440
 20
2.719200
  0
VERTEX
  8
0
  6
CONTINUOUS
 10
5.274720
 20
2.714800
  0
VERTEX
  8
0
  6
CONTINUOUS
 10
5.303320
 20
2.700280
  0
VERTEX
  8
0
  6
CONTINUOUS
 10
5.333240
 20
2.673440
  0
VERTEX
  8
0
  6
CONTINUOUS
 10
5.390000
 20
2.597320
  0
VERTEX
  8
0
  6
CONTINUOUS
 10
5.408920
 20
2.581480
  0
VERTEX
  8
0
  6
CONTINUOUS
 10
5.434880
 20
2.571360
  0
VERTEX
  8
0
  6
CONTINUOUS
 10
5.474480
 20
2.561680
  0
VERTEX
  8
0
  6
CONTINUOUS
 10
5.495600
 20
2.561240
  0
VERTEX
  8
0
  6
CONTINUOUS
 10
5.515400
 20
2.559480
  0
VERTEX
  8
0
  6
CONTINUOUS
 10
5.546640
 20
2.543200
  0
VERTEX
  8
0
  6
CONTINUOUS
 10
5.555440
 20
2.522960
  0
VERTEX
  8
0
  6
CONTINUOUS
 10
5.558080
 20
2.490840
  0
VERTEX
  8
0
  6
CONTINUOUS
 10
5.560280
 20
2.480280
  0
VERTEX
  8
0
  6
CONTINUOUS
 10
6.410360
 20
2.480280
  0
VERTEX
  8
0
  6
CONTINUOUS
 10
6.410360
 20
2.409440
  0
VERTEX
  8
0
  6
CONTINUOUS
 10
7.114360
 20
2.409440
  0
VERTEX
  8
0
  6
CONTINUOUS
 10
7.122720
 20
2.282280
  0
VERTEX
  8
0
  6
CONTINUOUS
 10
7.133280
 20
2.282280
  0
VERTEX
  8
0
  6
CONTINUOUS
 10
7.133280
 20
2.286680
  0
VERTEX
  8
0
  6
CONTINUOUS
 10
7.139880
 20
2.318360
  0
VERTEX
  8
0
  6
CONTINUOUS
 10
7.158360
 20
2.345200
  0
VERTEX
  8
0
  6
CONTINUOUS
 10
7.185200
 20
2.363240
  0
VERTEX
  8
0
  6
CONTINUOUS
 10
7.217760
 20
2.369840
  0
VERTEX
  8
0
  6
CONTINUOUS
 10
7.249440
 20
2.363680
  0
VERTEX
  8
0
  6
CONTINUOUS
 10
7.275840
 20
2.346080
  0
VERTEX
  8
0
  6
CONTINUOUS
 10
7.293440
 20
2.320120
  0
VERTEX
  8
0
  6
CONTINUOUS
 10
7.299600
 20
2.288440
  0
VERTEX
  8
0
  6
CONTINUOUS
 10
7.299600
 20
2.251040
  0
VERTEX
  8
0
  6
CONTINUOUS
 10
7.315000
 20
2.251040
  0
VERTEX
  8
0
  6
CONTINUOUS
 10
7.301800
 20
2.251040
  0
SEQEND
  8
0
  0
TEXT
  8
0
 10
5.469640
 20
1.102200
 40
0.138087
  1
BA  667
 41
1.000000
  7
SN0
 71
     0
 72
     5
 11
6.059691
 21
1.102200
  0
TEXT
  8
0
 10
5.382960
 20
0.910800
 40
0.138087
  1
1-3/4" x 4"
 41
1.000000
  7
SN0
 71
     0
 72
     5
 11
6.145380
 21
0.910800
  0
ENDSEC
  0
EOF
