  0
SECTION
  2
HEADER
  9
$ACADVER
  1
AC1006
  9
$EXTMIN
 10
3.174160
 20
1.008920
  9
$EXTMAX
 10
6.772480
 20
5.001920
  9
$LTSCALE
 40
0.044000
  9
$PDMODE
 70
    35
  9
$PDSIZE
 40
0.035200
  0
ENDSEC
  0
SECTION
  2
TABLES
  0
TABLE
  2
LTYPE
 70
     9
  0
LTYPE
  2
CONTINUOUS
 70
    64
  3
Solid line
 72
    65
 73
     0
 40
0.000000
  0
LTYPE
  2
DASHED
 70
    64
  3
__ __ __ __ __ __ __ __ __ __ __ __ __ __ __
 72
    65
 73
     2
 40
0.000330
 49
0.000220
 49
-0.000110
  0
LTYPE
  2
HIDDEN
 70
    64
  3
 _ _ _ _ _ _ _ _ _ _ _ _ _ _ _ _ _ _ _ _ _ _
 72
    65
 73
     2
 40
0.000165
 49
0.000110
 49
-0.000055
  0
LTYPE
  2
CENTER
 70
    64
  3
____ _ ____ _ ____ _ ____ _ ____ _ ____ _ ____
 72
    65
 73
     4
 40
0.000880
 49
0.000550
 49
-0.000110
 49
0.000110
 49
-0.000110
  0
LTYPE
  2
PHANTOM
 70
    64
  3
_____ _ _ _____ _ _ _____ _ _ _____ _ _ ____
 72
    65
 73
     6
 40
0.001100
 49
0.000550
 49
-0.000110
 49
0.000110
 49
-0.000110
 49
0.000110
 49
-0.000110
  0
LTYPE
  2
DOT
 70
    64
  3
...............................................
 72
    65
 73
     2
 40
0.000110
 49
0.000000
 49
-0.000110
  0
LTYPE
  2
DASHDOT
 70
    64
  3
__ . __ . __ . __ . __ . __ . __ . __ . __ . __
 72
    65
 73
     4
 40
0.000440
 49
0.000220
 49
-0.000110
 49
0.000000
 49
-0.000110
  0
LTYPE
  2
BORDER
 70
    64
  3
__ __ . __ __ . __ __ . __ __ . __ __ . __ __
 72
    65
 73
     6
 40
0.000770
 49
0.000220
 49
-0.000110
 49
0.000220
 49
-0.000110
 49
0.000000
 49
-0.000110
  0
LTYPE
  2
DIVIDE
 70
    64
  3
__ . . __ . . __ . . __ . . __ . . __ . . __
 72
    65
 73
     6
 40
0.000550
 49
0.000220
 49
-0.000110
 49
0.000000
 49
-0.000110
 49
0.000000
 49
-0.000110
  0
LTYPE
  2
DOTDOT
 70
    64
  3
 . .  . .  . .  . .  . .  . . 
 72
    65
 73
     5
 40
0.000242
 49
-0.000110
 49
0.000000
 49
-0.000110
 49
0.000000
 49
-0.000110
  0
ENDTAB
  0
TABLE
  2
STYLE
 70
     2
  0
STYLE
 70
     0
  2
SN0
 40
0.000000
 41
0.000440
 50
0.000000
 71
     0
 42
0.000000
  3
ROMAND
  0
STYLE
 70
    68
  2
SV0
 40
0.000000
 41
0.000440
 50
0.000000
 71
     0
 42
0.000000
  3
ROMAND
  0
ENDTAB
  0
TABLE
  2
LAYER
 70
     3
  0
LAYER
  2
FOREGROUND
 70
    64
 62
     7
  6
CONTINUOUS
  0
LAYER
  2
BACKGROUND
 70
    65
 62
    -7
  6
CONTINUOUS
  0
LAYER
  2
0
 70
    64
 62
     7
  6
CONTINUOUS
  0
ENDTAB
  0
ENDSEC
  0
SECTION
  2
ENTITIES
  0
POLYLINE
  8
FOREGROUND
  6
CONTINUOUS
 66
     1
 40
0.000000
 41
0.000000
  0
VERTEX
  8
FOREGROUND
  6
CONTINUOUS
 10
0.000000
 20
6.010840
  0
VERTEX
  8
FOREGROUND
  6
CONTINUOUS
 10
8.499920
 20
6.010840
  0
VERTEX
  8
FOREGROUND
  6
CONTINUOUS
 10
8.499920
 20
-4.989160
  0
VERTEX
  8
FOREGROUND
  6
CONTINUOUS
 10
0.000000
 20
-4.989160
  0
VERTEX
  8
FOREGROUND
  6
CONTINUOUS
 10
0.000000
 20
6.010840
  0
SEQEND
  8
0
  0
POLYLINE
  8
FOREGROUND
  6
CONTINUOUS
 66
     1
 40
0.000000
 41
0.000000
  0
VERTEX
  8
FOREGROUND
  6
CONTINUOUS
 10
0.000000
 20
6.010840
  0
VERTEX
  8
FOREGROUND
  6
CONTINUOUS
 10
8.499920
 20
6.010840
  0
VERTEX
  8
FOREGROUND
  6
CONTINUOUS
 10
8.499920
 20
-4.989160
  0
VERTEX
  8
FOREGROUND
  6
CONTINUOUS
 10
0.000000
 20
-4.989160
  0
VERTEX
  8
FOREGROUND
  6
CONTINUOUS
 10
0.000000
 20
6.010840
  0
SEQEND
  8
0
  0
POLYLINE
  8
0
  6
CONTINUOUS
 66
     1
 40
0.014080
 41
0.014080
  0
VERTEX
  8
0
  6
CONTINUOUS
 10
3.188240
 20
4.731760
  0
VERTEX
  8
0
  6
CONTINUOUS
 10
3.390200
 20
4.933720
  0
VERTEX
  8
0
  6
CONTINUOUS
 10
3.496680
 20
4.827680
  0
VERTEX
  8
0
  6
CONTINUOUS
 10
3.506360
 20
4.842200
  0
VERTEX
  8
0
  6
CONTINUOUS
 10
3.517800
 20
4.854960
  0
VERTEX
  8
0
  6
CONTINUOUS
 10
3.531000
 20
4.866840
  0
VERTEX
  8
0
  6
CONTINUOUS
 10
3.545960
 20
4.876960
  0
VERTEX
  8
0
  6
CONTINUOUS
 10
3.561800
 20
4.884880
  0
VERTEX
  8
0
  6
CONTINUOUS
 10
3.587760
 20
4.893240
  0
VERTEX
  8
0
  6
CONTINUOUS
 10
3.605800
 20
4.895880
  0
VERTEX
  8
0
  6
CONTINUOUS
 10
3.624280
 20
4.895880
  0
VERTEX
  8
0
  6
CONTINUOUS
 10
3.652000
 20
4.891040
  0
VERTEX
  8
0
  6
CONTINUOUS
 10
3.677520
 20
4.880920
  0
VERTEX
  8
0
  6
CONTINUOUS
 10
3.700400
 20
4.865520
  0
VERTEX
  8
0
  6
CONTINUOUS
 10
3.713600
 20
4.853200
  0
VERTEX
  8
0
  6
CONTINUOUS
 10
3.725040
 20
4.839120
  0
VERTEX
  8
0
  6
CONTINUOUS
 10
3.733840
 20
4.823280
  0
VERTEX
  8
0
  6
CONTINUOUS
 10
3.738240
 20
4.823280
  0
VERTEX
  8
0
  6
CONTINUOUS
 10
3.863200
 20
4.948240
  0
VERTEX
  8
0
  6
CONTINUOUS
 10
3.865400
 20
4.944280
  0
VERTEX
  8
0
  6
CONTINUOUS
 10
3.948560
 20
4.871680
  0
VERTEX
  8
0
  6
CONTINUOUS
 10
4.035680
 20
4.806120
  0
VERTEX
  8
0
  6
CONTINUOUS
 10
4.095960
 20
4.765640
  0
VERTEX
  8
0
  6
CONTINUOUS
 10
4.189240
 20
4.711080
  0
VERTEX
  8
0
  6
CONTINUOUS
 10
4.286480
 20
4.663120
  0
VERTEX
  8
0
  6
CONTINUOUS
 10
4.353360
 20
4.634960
  0
VERTEX
  8
0
  6
CONTINUOUS
 10
4.456320
 20
4.598880
  0
VERTEX
  8
0
  6
CONTINUOUS
 10
4.526720
 20
4.579080
  0
VERTEX
  8
0
  6
CONTINUOUS
 10
4.598880
 20
4.561920
  0
VERTEX
  8
0
  6
CONTINUOUS
 10
4.710200
 20
4.543000
  0
VERTEX
  8
0
  6
CONTINUOUS
 10
4.785880
 20
4.534640
  0
VERTEX
  8
0
  6
CONTINUOUS
 10
4.863760
 20
4.529360
  0
VERTEX
  8
0
  6
CONTINUOUS
 10
4.942520
 20
4.527600
  0
VERTEX
  8
0
  6
CONTINUOUS
 10
5.025240
 20
4.529360
  0
VERTEX
  8
0
  6
CONTINUOUS
 10
5.107080
 20
4.535520
  0
VERTEX
  8
0
  6
CONTINUOUS
 10
5.187600
 20
4.545200
  0
VERTEX
  8
0
  6
CONTINUOUS
 10
5.266800
 20
4.558400
  0
VERTEX
  8
0
  6
CONTINUOUS
 10
5.344680
 20
4.575560
  0
VERTEX
  8
0
  6
CONTINUOUS
 10
5.421240
 20
4.596240
  0
VERTEX
  8
0
  6
CONTINUOUS
 10
5.533000
 20
4.634080
  0
VERTEX
  8
0
  6
CONTINUOUS
 10
5.640800
 20
4.679840
  0
VERTEX
  8
0
  6
CONTINUOUS
 10
5.710320
 20
4.714600
  0
VERTEX
  8
0
  6
CONTINUOUS
 10
5.778080
 20
4.752440
  0
VERTEX
  8
0
  6
CONTINUOUS
 10
5.843200
 20
4.793800
  0
VERTEX
  8
0
  6
CONTINUOUS
 10
5.906560
 20
4.838240
  0
VERTEX
  8
0
  6
CONTINUOUS
 10
5.967720
 20
4.885760
  0
VERTEX
  8
0
  6
CONTINUOUS
 10
6.026240
 20
4.936360
  0
VERTEX
  8
0
  6
CONTINUOUS
 10
6.088280
 20
4.996200
  0
VERTEX
  8
0
  6
CONTINUOUS
 10
6.213240
 20
4.869040
  0
VERTEX
  8
0
  6
CONTINUOUS
 10
6.217200
 20
4.869040
  0
VERTEX
  8
0
  6
CONTINUOUS
 10
6.231720
 20
4.891920
  0
VERTEX
  8
0
  6
CONTINUOUS
 10
6.251080
 20
4.911280
  0
VERTEX
  8
0
  6
CONTINUOUS
 10
6.273960
 20
4.926680
  0
VERTEX
  8
0
  6
CONTINUOUS
 10
6.299480
 20
4.936800
  0
VERTEX
  8
0
  6
CONTINUOUS
 10
6.326760
 20
4.941640
  0
VERTEX
  8
0
  6
CONTINUOUS
 10
6.345240
 20
4.941640
  0
VERTEX
  8
0
  6
CONTINUOUS
 10
6.372520
 20
4.936800
  0
VERTEX
  8
0
  6
CONTINUOUS
 10
6.389680
 20
4.930640
  0
VERTEX
  8
0
  6
CONTINUOUS
 10
6.405520
 20
4.922720
  0
VERTEX
  8
0
  6
CONTINUOUS
 10
6.420480
 20
4.912600
  0
VERTEX
  8
0
  6
CONTINUOUS
 10
6.433680
 20
4.900720
  0
VERTEX
  8
0
  6
CONTINUOUS
 10
6.445120
 20
4.887960
  0
VERTEX
  8
0
  6
CONTINUOUS
 10
6.454800
 20
4.873440
  0
VERTEX
  8
0
  6
CONTINUOUS
 10
6.561280
 20
4.979480
  0
VERTEX
  8
0
  6
CONTINUOUS
 10
6.767200
 20
4.773560
  0
VERTEX
  8
0
  6
CONTINUOUS
 10
6.765440
 20
4.763000
  0
VERTEX
  8
0
  6
CONTINUOUS
 10
6.171440
 20
4.169440
  0
VERTEX
  8
0
  6
CONTINUOUS
 10
3.738240
 20
4.169440
  0
VERTEX
  8
0
  6
CONTINUOUS
 10
3.729880
 20
4.175600
  0
VERTEX
  8
0
  6
CONTINUOUS
 10
3.179880
 20
4.725600
  0
VERTEX
  8
0
  6
CONTINUOUS
 10
3.188240
 20
4.731760
  0
SEQEND
  8
0
  0
SOLID
  8
0
 62
    15
 10
4.543440
 20
2.900920
 11
5.184960
 21
2.517680
 12
4.432560
 22
2.779040
 13
5.074080
 23
2.396240
  0
POLYLINE
  8
0
  6
CONTINUOUS
 66
     1
 40
0.000000
 41
0.000000
  0
VERTEX
  8
0
  6
CONTINUOUS
 10
4.543440
 20
2.900920
  0
VERTEX
  8
0
  6
CONTINUOUS
 10
5.184960
 20
2.517680
  0
VERTEX
  8
0
  6
CONTINUOUS
 10
5.074080
 20
2.396240
  0
VERTEX
  8
0
  6
CONTINUOUS
 10
4.432560
 20
2.779040
  0
VERTEX
  8
0
  6
CONTINUOUS
 10
4.543440
 20
2.900920
  0
SEQEND
  8
0
  0
SOLID
  8
0
 62
    15
 10
5.928120
 20
3.710960
 11
6.569640
 21
3.328160
 12
5.778080
 22
3.710960
 13
6.419600
 23
3.328160
  0
POLYLINE
  8
0
  6
CONTINUOUS
 66
     1
 40
0.000000
 41
0.000000
  0
VERTEX
  8
0
  6
CONTINUOUS
 10
5.928120
 20
3.710960
  0
VERTEX
  8
0
  6
CONTINUOUS
 10
6.569640
 20
3.328160
  0
VERTEX
  8
0
  6
CONTINUOUS
 10
6.419600
 20
3.328160
  0
VERTEX
  8
0
  6
CONTINUOUS
 10
5.778080
 20
3.710960
  0
VERTEX
  8
0
  6
CONTINUOUS
 10
5.928120
 20
3.710960
  0
SEQEND
  8
0
  0
SOLID
  8
0
 62
    15
 10
5.778080
 20
3.710960
 11
6.419600
 21
3.328160
 12
5.778080
 22
3.641440
 13
6.419600
 23
3.258640
  0
POLYLINE
  8
0
  6
CONTINUOUS
 66
     1
 40
0.000000
 41
0.000000
  0
VERTEX
  8
0
  6
CONTINUOUS
 10
5.778080
 20
3.710960
  0
VERTEX
  8
0
  6
CONTINUOUS
 10
6.419600
 20
3.328160
  0
VERTEX
  8
0
  6
CONTINUOUS
 10
6.419600
 20
3.258640
  0
VERTEX
  8
0
  6
CONTINUOUS
 10
5.778080
 20
3.641440
  0
VERTEX
  8
0
  6
CONTINUOUS
 10
5.778080
 20
3.710960
  0
SEQEND
  8
0
  0
SOLID
  8
0
 62
    15
 10
5.778080
 20
3.641440
 11
6.419600
 21
3.258640
 12
5.742440
 22
3.578520
 13
6.383960
 23
3.195280
  0
POLYLINE
  8
0
  6
CONTINUOUS
 66
     1
 40
0.000000
 41
0.000000
  0
VERTEX
  8
0
  6
CONTINUOUS
 10
5.778080
 20
3.641440
  0
VERTEX
  8
0
  6
CONTINUOUS
 10
6.419600
 20
3.258640
  0
VERTEX
  8
0
  6
CONTINUOUS
 10
6.383960
 20
3.195280
  0
VERTEX
  8
0
  6
CONTINUOUS
 10
5.742440
 20
3.578520
  0
VERTEX
  8
0
  6
CONTINUOUS
 10
5.778080
 20
3.641440
  0
SEQEND
  8
0
  0
SOLID
  8
0
 62
    15
 10
5.742440
 20
3.578520
 11
6.383960
 21
3.195280
 12
5.678640
 22
3.542880
 13
6.320160
 23
3.160080
  0
POLYLINE
  8
0
  6
CONTINUOUS
 66
     1
 40
0.000000
 41
0.000000
  0
VERTEX
  8
0
  6
CONTINUOUS
 10
5.742440
 20
3.578520
  0
VERTEX
  8
0
  6
CONTINUOUS
 10
6.383960
 20
3.195280
  0
VERTEX
  8
0
  6
CONTINUOUS
 10
6.320160
 20
3.160080
  0
VERTEX
  8
0
  6
CONTINUOUS
 10
5.678640
 20
3.542880
  0
VERTEX
  8
0
  6
CONTINUOUS
 10
5.742440
 20
3.578520
  0
SEQEND
  8
0
  0
SOLID
  8
0
 62
    15
 10
5.678640
 20
3.542880
 11
6.320160
 21
3.160080
 12
5.606920
 22
3.545960
 13
6.248440
 23
3.163160
  0
POLYLINE
  8
0
  6
CONTINUOUS
 66
     1
 40
0.000000
 41
0.000000
  0
VERTEX
  8
0
  6
CONTINUOUS
 10
5.678640
 20
3.542880
  0
VERTEX
  8
0
  6
CONTINUOUS
 10
6.320160
 20
3.160080
  0
VERTEX
  8
0
  6
CONTINUOUS
 10
6.248440
 20
3.163160
  0
VERTEX
  8
0
  6
CONTINUOUS
 10
5.606920
 20
3.545960
  0
VERTEX
  8
0
  6
CONTINUOUS
 10
5.678640
 20
3.542880
  0
SEQEND
  8
0
  0
SOLID
  8
0
 62
    15
 10
5.606920
 20
3.545960
 11
6.248440
 21
3.163160
 12
5.604280
 22
3.542880
 13
6.245800
 23
3.160080
  0
POLYLINE
  8
0
  6
CONTINUOUS
 66
     1
 40
0.000000
 41
0.000000
  0
VERTEX
  8
0
  6
CONTINUOUS
 10
5.606920
 20
3.545960
  0
VERTEX
  8
0
  6
CONTINUOUS
 10
6.248440
 20
3.163160
  0
VERTEX
  8
0
  6
CONTINUOUS
 10
6.245800
 20
3.160080
  0
VERTEX
  8
0
  6
CONTINUOUS
 10
5.604280
 20
3.542880
  0
VERTEX
  8
0
  6
CONTINUOUS
 10
5.606920
 20
3.545960
  0
SEQEND
  8
0
  0
SOLID
  8
0
 62
    15
 10
5.604280
 20
3.542880
 11
6.245800
 21
3.160080
 12
5.604280
 22
3.366440
 13
6.245800
 23
2.983200
  0
POLYLINE
  8
0
  6
CONTINUOUS
 66
     1
 40
0.000000
 41
0.000000
  0
VERTEX
  8
0
  6
CONTINUOUS
 10
5.604280
 20
3.542880
  0
VERTEX
  8
0
  6
CONTINUOUS
 10
6.245800
 20
3.160080
  0
VERTEX
  8
0
  6
CONTINUOUS
 10
6.245800
 20
2.983200
  0
VERTEX
  8
0
  6
CONTINUOUS
 10
5.604280
 20
3.366440
  0
VERTEX
  8
0
  6
CONTINUOUS
 10
5.604280
 20
3.542880
  0
SEQEND
  8
0
  0
SOLID
  8
0
 62
    15
 10
5.604280
 20
3.366440
 11
6.245800
 21
2.983200
 12
5.599880
 22
3.367760
 13
6.241400
 23
2.984960
  0
POLYLINE
  8
0
  6
CONTINUOUS
 66
     1
 40
0.000000
 41
0.000000
  0
VERTEX
  8
0
  6
CONTINUOUS
 10
5.604280
 20
3.366440
  0
VERTEX
  8
0
  6
CONTINUOUS
 10
6.245800
 20
2.983200
  0
VERTEX
  8
0
  6
CONTINUOUS
 10
6.241400
 20
2.984960
  0
VERTEX
  8
0
  6
CONTINUOUS
 10
5.599880
 20
3.367760
  0
VERTEX
  8
0
  6
CONTINUOUS
 10
5.604280
 20
3.366440
  0
SEQEND
  8
0
  0
SOLID
  8
0
 62
    15
 10
5.599880
 20
3.367760
 11
6.241400
 21
2.984960
 12
5.453360
 22
3.355880
 13
6.094880
 23
2.972640
  0
POLYLINE
  8
0
  6
CONTINUOUS
 66
     1
 40
0.000000
 41
0.000000
  0
VERTEX
  8
0
  6
CONTINUOUS
 10
5.599880
 20
3.367760
  0
VERTEX
  8
0
  6
CONTINUOUS
 10
6.241400
 20
2.984960
  0
VERTEX
  8
0
  6
CONTINUOUS
 10
6.094880
 20
2.972640
  0
VERTEX
  8
0
  6
CONTINUOUS
 10
5.453360
 20
3.355880
  0
VERTEX
  8
0
  6
CONTINUOUS
 10
5.599880
 20
3.367760
  0
SEQEND
  8
0
  0
SOLID
  8
0
 62
    15
 10
5.453360
 20
3.355880
 11
6.094880
 21
2.972640
 12
5.310360
 22
3.330800
 13
5.951880
 23
2.948000
  0
POLYLINE
  8
0
  6
CONTINUOUS
 66
     1
 40
0.000000
 41
0.000000
  0
VERTEX
  8
0
  6
CONTINUOUS
 10
5.453360
 20
3.355880
  0
VERTEX
  8
0
  6
CONTINUOUS
 10
6.094880
 20
2.972640
  0
VERTEX
  8
0
  6
CONTINUOUS
 10
5.951880
 20
2.948000
  0
VERTEX
  8
0
  6
CONTINUOUS
 10
5.310360
 20
3.330800
  0
VERTEX
  8
0
  6
CONTINUOUS
 10
5.453360
 20
3.355880
  0
SEQEND
  8
0
  0
SOLID
  8
0
 62
    15
 10
5.310360
 20
3.330800
 11
5.951880
 21
2.948000
 12
5.171320
 22
3.292520
 13
5.812840
 23
2.909720
  0
POLYLINE
  8
0
  6
CONTINUOUS
 66
     1
 40
0.000000
 41
0.000000
  0
VERTEX
  8
0
  6
CONTINUOUS
 10
5.310360
 20
3.330800
  0
VERTEX
  8
0
  6
CONTINUOUS
 10
5.951880
 20
2.948000
  0
VERTEX
  8
0
  6
CONTINUOUS
 10
5.812840
 20
2.909720
  0
VERTEX
  8
0
  6
CONTINUOUS
 10
5.171320
 20
3.292520
  0
VERTEX
  8
0
  6
CONTINUOUS
 10
5.310360
 20
3.330800
  0
SEQEND
  8
0
  0
SOLID
  8
0
 62
    15
 10
5.171320
 20
3.292520
 11
5.812840
 21
2.909720
 12
5.036240
 22
3.241480
 13
5.677760
 23
2.858680
  0
POLYLINE
  8
0
  6
CONTINUOUS
 66
     1
 40
0.000000
 41
0.000000
  0
VERTEX
  8
0
  6
CONTINUOUS
 10
5.171320
 20
3.292520
  0
VERTEX
  8
0
  6
CONTINUOUS
 10
5.812840
 20
2.909720
  0
VERTEX
  8
0
  6
CONTINUOUS
 10
5.677760
 20
2.858680
  0
VERTEX
  8
0
  6
CONTINUOUS
 10
5.036240
 20
3.241480
  0
VERTEX
  8
0
  6
CONTINUOUS
 10
5.171320
 20
3.292520
  0
SEQEND
  8
0
  0
SOLID
  8
0
 62
    15
 10
5.036240
 20
3.241480
 11
5.677760
 21
2.858680
 12
4.905560
 22
3.176800
 13
5.547080
 23
2.793560
  0
POLYLINE
  8
0
  6
CONTINUOUS
 66
     1
 40
0.000000
 41
0.000000
  0
VERTEX
  8
0
  6
CONTINUOUS
 10
5.036240
 20
3.241480
  0
VERTEX
  8
0
  6
CONTINUOUS
 10
5.677760
 20
2.858680
  0
VERTEX
  8
0
  6
CONTINUOUS
 10
5.547080
 20
2.793560
  0
VERTEX
  8
0
  6
CONTINUOUS
 10
4.905560
 20
3.176800
  0
VERTEX
  8
0
  6
CONTINUOUS
 10
5.036240
 20
3.241480
  0
SEQEND
  8
0
  0
SOLID
  8
0
 62
    15
 10
4.905560
 20
3.176800
 11
5.547080
 21
2.793560
 12
4.779720
 22
3.098480
 13
5.421240
 23
2.715680
  0
POLYLINE
  8
0
  6
CONTINUOUS
 66
     1
 40
0.000000
 41
0.000000
  0
VERTEX
  8
0
  6
CONTINUOUS
 10
4.905560
 20
3.176800
  0
VERTEX
  8
0
  6
CONTINUOUS
 10
5.547080
 20
2.793560
  0
VERTEX
  8
0
  6
CONTINUOUS
 10
5.421240
 20
2.715680
  0
VERTEX
  8
0
  6
CONTINUOUS
 10
4.779720
 20
3.098480
  0
VERTEX
  8
0
  6
CONTINUOUS
 10
4.905560
 20
3.176800
  0
SEQEND
  8
0
  0
SOLID
  8
0
 62
    15
 10
4.779720
 20
3.098480
 11
5.421240
 21
2.715680
 12
4.659160
 22
3.006520
 13
5.300240
 23
2.623720
  0
POLYLINE
  8
0
  6
CONTINUOUS
 66
     1
 40
0.000000
 41
0.000000
  0
VERTEX
  8
0
  6
CONTINUOUS
 10
4.779720
 20
3.098480
  0
VERTEX
  8
0
  6
CONTINUOUS
 10
5.421240
 20
2.715680
  0
VERTEX
  8
0
  6
CONTINUOUS
 10
5.300240
 20
2.623720
  0
VERTEX
  8
0
  6
CONTINUOUS
 10
4.659160
 20
3.006520
  0
VERTEX
  8
0
  6
CONTINUOUS
 10
4.779720
 20
3.098480
  0
SEQEND
  8
0
  0
SOLID
  8
0
 62
    15
 10
4.659160
 20
3.006520
 11
5.300240
 21
2.623720
 12
4.543440
 22
2.900920
 13
5.184960
 23
2.517680
  0
POLYLINE
  8
0
  6
CONTINUOUS
 66
     1
 40
0.000000
 41
0.000000
  0
VERTEX
  8
0
  6
CONTINUOUS
 10
4.659160
 20
3.006520
  0
VERTEX
  8
0
  6
CONTINUOUS
 10
5.300240
 20
2.623720
  0
VERTEX
  8
0
  6
CONTINUOUS
 10
5.184960
 20
2.517680
  0
VERTEX
  8
0
  6
CONTINUOUS
 10
4.543440
 20
2.900920
  0
VERTEX
  8
0
  6
CONTINUOUS
 10
4.659160
 20
3.006520
  0
SEQEND
  8
0
  0
SOLID
  8
0
 62
    15
 10
5.928120
 20
3.996520
 11
6.569640
 21
3.613720
 12
5.928120
 22
3.710960
 13
6.569640
 23
3.328160
  0
POLYLINE
  8
0
  6
CONTINUOUS
 66
     1
 40
0.000000
 41
0.000000
  0
VERTEX
  8
0
  6
CONTINUOUS
 10
5.928120
 20
3.996520
  0
VERTEX
  8
0
  6
CONTINUOUS
 10
6.569640
 20
3.613720
  0
VERTEX
  8
0
  6
CONTINUOUS
 10
6.569640
 20
3.328160
  0
VERTEX
  8
0
  6
CONTINUOUS
 10
5.928120
 20
3.710960
  0
VERTEX
  8
0
  6
CONTINUOUS
 10
5.928120
 20
3.996520
  0
SEQEND
  8
0
  0
SOLID
  8
0
 62
    15
 10
4.432560
 20
2.779040
 11
5.074080
 21
2.396240
 12
4.336200
 22
2.649680
 13
4.977720
 23
2.266440
  0
POLYLINE
  8
0
  6
CONTINUOUS
 66
     1
 40
0.000000
 41
0.000000
  0
VERTEX
  8
0
  6
CONTINUOUS
 10
4.432560
 20
2.779040
  0
VERTEX
  8
0
  6
CONTINUOUS
 10
5.074080
 20
2.396240
  0
VERTEX
  8
0
  6
CONTINUOUS
 10
4.977720
 20
2.266440
  0
VERTEX
  8
0
  6
CONTINUOUS
 10
4.336200
 20
2.649680
  0
VERTEX
  8
0
  6
CONTINUOUS
 10
4.432560
 20
2.779040
  0
SEQEND
  8
0
  0
SOLID
  8
0
 62
    15
 10
4.336200
 20
2.649680
 11
4.977720
 21
2.266440
 12
4.253920
 22
2.513720
 13
4.895000
 23
2.130480
  0
POLYLINE
  8
0
  6
CONTINUOUS
 66
     1
 40
0.000000
 41
0.000000
  0
VERTEX
  8
0
  6
CONTINUOUS
 10
4.336200
 20
2.649680
  0
VERTEX
  8
0
  6
CONTINUOUS
 10
4.977720
 20
2.266440
  0
VERTEX
  8
0
  6
CONTINUOUS
 10
4.895000
 20
2.130480
  0
VERTEX
  8
0
  6
CONTINUOUS
 10
4.253920
 20
2.513720
  0
VERTEX
  8
0
  6
CONTINUOUS
 10
4.336200
 20
2.649680
  0
SEQEND
  8
0
  0
SOLID
  8
0
 62
    15
 10
4.253920
 20
2.513720
 11
4.895000
 21
2.130480
 12
4.185720
 22
2.372040
 13
4.827240
 23
1.988800
  0
POLYLINE
  8
0
  6
CONTINUOUS
 66
     1
 40
0.000000
 41
0.000000
  0
VERTEX
  8
0
  6
CONTINUOUS
 10
4.253920
 20
2.513720
  0
VERTEX
  8
0
  6
CONTINUOUS
 10
4.895000
 20
2.130480
  0
VERTEX
  8
0
  6
CONTINUOUS
 10
4.827240
 20
1.988800
  0
VERTEX
  8
0
  6
CONTINUOUS
 10
4.185720
 20
2.372040
  0
VERTEX
  8
0
  6
CONTINUOUS
 10
4.253920
 20
2.513720
  0
SEQEND
  8
0
  0
SOLID
  8
0
 62
    15
 10
4.185720
 20
2.372040
 11
4.827240
 21
1.988800
 12
4.132920
 22
2.225520
 13
4.774440
 23
1.842720
  0
POLYLINE
  8
0
  6
CONTINUOUS
 66
     1
 40
0.000000
 41
0.000000
  0
VERTEX
  8
0
  6
CONTINUOUS
 10
4.185720
 20
2.372040
  0
VERTEX
  8
0
  6
CONTINUOUS
 10
4.827240
 20
1.988800
  0
VERTEX
  8
0
  6
CONTINUOUS
 10
4.774440
 20
1.842720
  0
VERTEX
  8
0
  6
CONTINUOUS
 10
4.132920
 20
2.225520
  0
VERTEX
  8
0
  6
CONTINUOUS
 10
4.185720
 20
2.372040
  0
SEQEND
  8
0
  0
SOLID
  8
0
 62
    15
 10
4.132920
 20
2.225520
 11
4.774440
 21
1.842720
 12
4.094640
 22
2.075480
 13
4.736160
 23
1.692680
  0
POLYLINE
  8
0
  6
CONTINUOUS
 66
     1
 40
0.000000
 41
0.000000
  0
VERTEX
  8
0
  6
CONTINUOUS
 10
4.132920
 20
2.225520
  0
VERTEX
  8
0
  6
CONTINUOUS
 10
4.774440
 20
1.842720
  0
VERTEX
  8
0
  6
CONTINUOUS
 10
4.736160
 20
1.692680
  0
VERTEX
  8
0
  6
CONTINUOUS
 10
4.094640
 20
2.075480
  0
VERTEX
  8
0
  6
CONTINUOUS
 10
4.132920
 20
2.225520
  0
SEQEND
  8
0
  0
SOLID
  8
0
 62
    15
 10
4.094640
 20
2.075480
 11
4.736160
 21
1.692680
 12
4.071760
 22
1.922360
 13
4.713280
 23
1.539560
  0
POLYLINE
  8
0
  6
CONTINUOUS
 66
     1
 40
0.000000
 41
0.000000
  0
VERTEX
  8
0
  6
CONTINUOUS
 10
4.094640
 20
2.075480
  0
VERTEX
  8
0
  6
CONTINUOUS
 10
4.736160
 20
1.692680
  0
VERTEX
  8
0
  6
CONTINUOUS
 10
4.713280
 20
1.539560
  0
VERTEX
  8
0
  6
CONTINUOUS
 10
4.071760
 20
1.922360
  0
VERTEX
  8
0
  6
CONTINUOUS
 10
4.094640
 20
2.075480
  0
SEQEND
  8
0
  0
SOLID
  8
0
 62
    15
 10
4.071760
 20
1.922360
 11
4.713280
 21
1.539560
 12
4.064720
 22
1.767920
 13
4.706240
 23
1.385120
  0
POLYLINE
  8
0
  6
CONTINUOUS
 66
     1
 40
0.000000
 41
0.000000
  0
VERTEX
  8
0
  6
CONTINUOUS
 10
4.071760
 20
1.922360
  0
VERTEX
  8
0
  6
CONTINUOUS
 10
4.713280
 20
1.539560
  0
VERTEX
  8
0
  6
CONTINUOUS
 10
4.706240
 20
1.385120
  0
VERTEX
  8
0
  6
CONTINUOUS
 10
4.064720
 20
1.767920
  0
VERTEX
  8
0
  6
CONTINUOUS
 10
4.071760
 20
1.922360
  0
SEQEND
  8
0
  0
SOLID
  8
0
 62
    15
 10
4.064720
 20
1.767920
 11
4.706240
 21
1.385120
 12
4.064720
 22
1.759120
 13
4.706240
 23
1.376320
  0
POLYLINE
  8
0
  6
CONTINUOUS
 66
     1
 40
0.000000
 41
0.000000
  0
VERTEX
  8
0
  6
CONTINUOUS
 10
4.064720
 20
1.767920
  0
VERTEX
  8
0
  6
CONTINUOUS
 10
4.706240
 20
1.385120
  0
VERTEX
  8
0
  6
CONTINUOUS
 10
4.706240
 20
1.376320
  0
VERTEX
  8
0
  6
CONTINUOUS
 10
4.064720
 20
1.759120
  0
VERTEX
  8
0
  6
CONTINUOUS
 10
4.064720
 20
1.767920
  0
SEQEND
  8
0
  0
SOLID
  8
0
 62
    15
 10
4.064720
 20
1.759120
 11
4.706240
 21
1.376320
 12
3.886520
 22
1.760440
 13
4.528040
 23
1.377640
  0
POLYLINE
  8
0
  6
CONTINUOUS
 66
     1
 40
0.000000
 41
0.000000
  0
VERTEX
  8
0
  6
CONTINUOUS
 10
4.064720
 20
1.759120
  0
VERTEX
  8
0
  6
CONTINUOUS
 10
4.706240
 20
1.376320
  0
VERTEX
  8
0
  6
CONTINUOUS
 10
4.528040
 20
1.377640
  0
VERTEX
  8
0
  6
CONTINUOUS
 10
3.886520
 20
1.760440
  0
VERTEX
  8
0
  6
CONTINUOUS
 10
4.064720
 20
1.759120
  0
SEQEND
  8
0
  0
SOLID
  8
0
 62
    15
 10
3.886520
 20
1.760440
 11
4.528040
 21
1.377640
 12
3.883440
 22
1.757360
 13
4.524960
 23
1.374560
  0
POLYLINE
  8
0
  6
CONTINUOUS
 66
     1
 40
0.000000
 41
0.000000
  0
VERTEX
  8
0
  6
CONTINUOUS
 10
3.886520
 20
1.760440
  0
VERTEX
  8
0
  6
CONTINUOUS
 10
4.528040
 20
1.377640
  0
VERTEX
  8
0
  6
CONTINUOUS
 10
4.524960
 20
1.374560
  0
VERTEX
  8
0
  6
CONTINUOUS
 10
3.883440
 20
1.757360
  0
VERTEX
  8
0
  6
CONTINUOUS
 10
3.886520
 20
1.760440
  0
SEQEND
  8
0
  0
SOLID
  8
0
 62
    15
 10
3.883440
 20
1.757360
 11
4.524960
 21
1.374560
 12
3.886520
 22
1.686080
 13
4.528040
 23
1.302840
  0
POLYLINE
  8
0
  6
CONTINUOUS
 66
     1
 40
0.000000
 41
0.000000
  0
VERTEX
  8
0
  6
CONTINUOUS
 10
3.883440
 20
1.757360
  0
VERTEX
  8
0
  6
CONTINUOUS
 10
4.524960
 20
1.374560
  0
VERTEX
  8
0
  6
CONTINUOUS
 10
4.528040
 20
1.302840
  0
VERTEX
  8
0
  6
CONTINUOUS
 10
3.886520
 20
1.686080
  0
VERTEX
  8
0
  6
CONTINUOUS
 10
3.883440
 20
1.757360
  0
SEQEND
  8
0
  0
SOLID
  8
0
 62
    15
 10
3.886520
 20
1.686080
 11
4.528040
 21
1.302840
 12
3.851320
 22
1.621840
 13
4.492400
 23
1.239040
  0
POLYLINE
  8
0
  6
CONTINUOUS
 66
     1
 40
0.000000
 41
0.000000
  0
VERTEX
  8
0
  6
CONTINUOUS
 10
3.886520
 20
1.686080
  0
VERTEX
  8
0
  6
CONTINUOUS
 10
4.528040
 20
1.302840
  0
VERTEX
  8
0
  6
CONTINUOUS
 10
4.492400
 20
1.239040
  0
VERTEX
  8
0
  6
CONTINUOUS
 10
3.851320
 20
1.621840
  0
VERTEX
  8
0
  6
CONTINUOUS
 10
3.886520
 20
1.686080
  0
SEQEND
  8
0
  0
SOLID
  8
0
 62
    15
 10
3.851320
 20
1.621840
 11
4.492400
 21
1.239040
 12
3.787960
 22
1.586640
 13
4.429480
 23
1.203840
  0
POLYLINE
  8
0
  6
CONTINUOUS
 66
     1
 40
0.000000
 41
0.000000
  0
VERTEX
  8
0
  6
CONTINUOUS
 10
3.851320
 20
1.621840
  0
VERTEX
  8
0
  6
CONTINUOUS
 10
4.492400
 20
1.239040
  0
VERTEX
  8
0
  6
CONTINUOUS
 10
4.429480
 20
1.203840
  0
VERTEX
  8
0
  6
CONTINUOUS
 10
3.787960
 20
1.586640
  0
VERTEX
  8
0
  6
CONTINUOUS
 10
3.851320
 20
1.621840
  0
SEQEND
  8
0
  0
SOLID
  8
0
 62
    15
 10
3.787960
 20
1.586640
 11
4.429480
 21
1.203840
 12
3.718440
 22
1.586640
 13
4.359960
 23
1.203840
  0
POLYLINE
  8
0
  6
CONTINUOUS
 66
     1
 40
0.000000
 41
0.000000
  0
VERTEX
  8
0
  6
CONTINUOUS
 10
3.787960
 20
1.586640
  0
VERTEX
  8
0
  6
CONTINUOUS
 10
4.429480
 20
1.203840
  0
VERTEX
  8
0
  6
CONTINUOUS
 10
4.359960
 20
1.203840
  0
VERTEX
  8
0
  6
CONTINUOUS
 10
3.718440
 20
1.586640
  0
VERTEX
  8
0
  6
CONTINUOUS
 10
3.787960
 20
1.586640
  0
SEQEND
  8
0
  0
SOLID
  8
0
 62
    15
 10
3.718440
 20
1.586640
 11
4.359960
 21
1.203840
 12
3.718440
 22
1.436600
 13
4.359960
 23
1.053360
  0
POLYLINE
  8
0
  6
CONTINUOUS
 66
     1
 40
0.000000
 41
0.000000
  0
VERTEX
  8
0
  6
CONTINUOUS
 10
3.718440
 20
1.586640
  0
VERTEX
  8
0
  6
CONTINUOUS
 10
4.359960
 20
1.203840
  0
VERTEX
  8
0
  6
CONTINUOUS
 10
4.359960
 20
1.053360
  0
VERTEX
  8
0
  6
CONTINUOUS
 10
3.718440
 20
1.436600
  0
VERTEX
  8
0
  6
CONTINUOUS
 10
3.718440
 20
1.586640
  0
SEQEND
  8
0
  0
SOLID
  8
0
 62
    15
 10
3.718440
 20
1.436600
 11
4.359960
 21
1.053360
 12
3.426720
 22
1.436600
 13
4.068240
 23
1.053360
  0
POLYLINE
  8
0
  6
CONTINUOUS
 66
     1
 40
0.000000
 41
0.000000
  0
VERTEX
  8
0
  6
CONTINUOUS
 10
3.718440
 20
1.436600
  0
VERTEX
  8
0
  6
CONTINUOUS
 10
4.359960
 20
1.053360
  0
VERTEX
  8
0
  6
CONTINUOUS
 10
4.068240
 20
1.053360
  0
VERTEX
  8
0
  6
CONTINUOUS
 10
3.426720
 20
1.436600
  0
VERTEX
  8
0
  6
CONTINUOUS
 10
3.718440
 20
1.436600
  0
SEQEND
  8
0
  0
SOLID
  8
0
 62
    15
 10
5.929880
 20
4.007080
 11
6.571400
 21
3.624280
 12
5.928120
 22
3.996520
 13
6.569640
 23
3.613720
  0
POLYLINE
  8
0
  6
CONTINUOUS
 66
     1
 40
0.000000
 41
0.000000
  0
VERTEX
  8
0
  6
CONTINUOUS
 10
5.929880
 20
4.007080
  0
VERTEX
  8
0
  6
CONTINUOUS
 10
6.571400
 20
3.624280
  0
VERTEX
  8
0
  6
CONTINUOUS
 10
6.569640
 20
3.613720
  0
VERTEX
  8
0
  6
CONTINUOUS
 10
5.928120
 20
3.996520
  0
VERTEX
  8
0
  6
CONTINUOUS
 10
5.929880
 20
4.007080
  0
SEQEND
  8
0
  0
POLYLINE
  8
0
  6
CONTINUOUS
 66
     1
 40
0.000000
 41
0.000000
  0
VERTEX
  8
0
  6
CONTINUOUS
 10
5.928120
 20
3.996520
  0
VERTEX
  8
0
  6
CONTINUOUS
 10
5.928120
 20
3.710960
  0
VERTEX
  8
0
  6
CONTINUOUS
 10
5.778080
 20
3.710960
  0
VERTEX
  8
0
  6
CONTINUOUS
 10
5.778080
 20
3.641440
  0
VERTEX
  8
0
  6
CONTINUOUS
 10
5.742440
 20
3.578520
  0
VERTEX
  8
0
  6
CONTINUOUS
 10
5.678640
 20
3.542880
  0
VERTEX
  8
0
  6
CONTINUOUS
 10
5.606920
 20
3.545960
  0
VERTEX
  8
0
  6
CONTINUOUS
 10
5.604280
 20
3.542880
  0
VERTEX
  8
0
  6
CONTINUOUS
 10
5.604280
 20
3.366440
  0
VERTEX
  8
0
  6
CONTINUOUS
 10
5.599880
 20
3.367760
  0
VERTEX
  8
0
  6
CONTINUOUS
 10
5.453360
 20
3.355880
  0
VERTEX
  8
0
  6
CONTINUOUS
 10
5.310360
 20
3.330800
  0
VERTEX
  8
0
  6
CONTINUOUS
 10
5.171320
 20
3.292520
  0
VERTEX
  8
0
  6
CONTINUOUS
 10
5.036240
 20
3.241480
  0
VERTEX
  8
0
  6
CONTINUOUS
 10
4.905560
 20
3.176800
  0
VERTEX
  8
0
  6
CONTINUOUS
 10
4.779720
 20
3.098480
  0
VERTEX
  8
0
  6
CONTINUOUS
 10
4.659160
 20
3.006520
  0
VERTEX
  8
0
  6
CONTINUOUS
 10
4.543440
 20
2.900920
  0
VERTEX
  8
0
  6
CONTINUOUS
 10
4.432560
 20
2.779040
  0
VERTEX
  8
0
  6
CONTINUOUS
 10
4.336200
 20
2.649680
  0
VERTEX
  8
0
  6
CONTINUOUS
 10
4.253920
 20
2.513720
  0
VERTEX
  8
0
  6
CONTINUOUS
 10
4.185720
 20
2.372040
  0
VERTEX
  8
0
  6
CONTINUOUS
 10
4.132920
 20
2.225520
  0
VERTEX
  8
0
  6
CONTINUOUS
 10
4.094640
 20
2.075480
  0
VERTEX
  8
0
  6
CONTINUOUS
 10
4.071760
 20
1.922360
  0
VERTEX
  8
0
  6
CONTINUOUS
 10
4.064720
 20
1.767920
  0
VERTEX
  8
0
  6
CONTINUOUS
 10
4.064720
 20
1.759120
  0
VERTEX
  8
0
  6
CONTINUOUS
 10
3.886520
 20
1.760440
  0
VERTEX
  8
0
  6
CONTINUOUS
 10
3.883440
 20
1.757360
  0
VERTEX
  8
0
  6
CONTINUOUS
 10
3.886520
 20
1.686080
  0
VERTEX
  8
0
  6
CONTINUOUS
 10
3.851320
 20
1.621840
  0
VERTEX
  8
0
  6
CONTINUOUS
 10
3.787960
 20
1.586640
  0
VERTEX
  8
0
  6
CONTINUOUS
 10
3.718440
 20
1.586640
  0
VERTEX
  8
0
  6
CONTINUOUS
 10
3.718440
 20
1.436600
  0
VERTEX
  8
0
  6
CONTINUOUS
 10
3.426720
 20
1.436600
  0
VERTEX
  8
0
  6
CONTINUOUS
 10
3.421000
 20
1.445400
  0
VERTEX
  8
0
  6
CONTINUOUS
 10
3.421000
 20
2.284920
  0
VERTEX
  8
0
  6
CONTINUOUS
 10
4.284280
 20
3.148200
  0
VERTEX
  8
0
  6
CONTINUOUS
 10
5.141400
 20
4.005760
  0
VERTEX
  8
0
  6
CONTINUOUS
 10
5.151960
 20
4.007080
  0
VERTEX
  8
0
  6
CONTINUOUS
 10
5.929880
 20
4.007080
  0
VERTEX
  8
0
  6
CONTINUOUS
 10
5.928120
 20
3.996520
  0
SEQEND
  8
0
  0
TEXT
  8
0
 10
5.107520
 20
1.244320
 40
0.138179
  1
BA  665
 41
1.000000
  7
SN0
 71
     0
 72
     5
 11
5.697685
 21
1.244320
  0
TEXT
  8
0
 10
4.859360
 20
1.052480
 40
0.138179
  1
13/16" x 3-5/8"
 41
1.000000
  7
SN0
 71
     0
 72
     5
 11
5.944458
 21
1.052480
  0
ENDSEC
  0
EOF
