  0
SECTION
  2
HEADER
  9
$ACADVER
  1
AC1006
  9
$EXTMIN
 10
2.679160
 20
0.488840
  9
$EXTMAX
 10
7.459320
 20
5.348200
  9
$LTSCALE
 40
0.044000
  9
$PDMODE
 70
    35
  9
$PDSIZE
 40
0.035200
  0
ENDSEC
  0
SECTION
  2
TABLES
  0
TABLE
  2
LTYPE
 70
     9
  0
LTYPE
  2
CONTINUOUS
 70
    64
  3
Solid line
 72
    65
 73
     0
 40
0.000000
  0
LTYPE
  2
DASHED
 70
    64
  3
__ __ __ __ __ __ __ __ __ __ __ __ __ __ __
 72
    65
 73
     2
 40
0.000330
 49
0.000220
 49
-0.000110
  0
LTYPE
  2
HIDDEN
 70
    64
  3
 _ _ _ _ _ _ _ _ _ _ _ _ _ _ _ _ _ _ _ _ _ _
 72
    65
 73
     2
 40
0.000165
 49
0.000110
 49
-0.000055
  0
LTYPE
  2
CENTER
 70
    64
  3
____ _ ____ _ ____ _ ____ _ ____ _ ____ _ ____
 72
    65
 73
     4
 40
0.000880
 49
0.000550
 49
-0.000110
 49
0.000110
 49
-0.000110
  0
LTYPE
  2
PHANTOM
 70
    64
  3
_____ _ _ _____ _ _ _____ _ _ _____ _ _ ____
 72
    65
 73
     6
 40
0.001100
 49
0.000550
 49
-0.000110
 49
0.000110
 49
-0.000110
 49
0.000110
 49
-0.000110
  0
LTYPE
  2
DOT
 70
    64
  3
...............................................
 72
    65
 73
     2
 40
0.000110
 49
0.000000
 49
-0.000110
  0
LTYPE
  2
DASHDOT
 70
    64
  3
__ . __ . __ . __ . __ . __ . __ . __ . __ . __
 72
    65
 73
     4
 40
0.000440
 49
0.000220
 49
-0.000110
 49
0.000000
 49
-0.000110
  0
LTYPE
  2
BORDER
 70
    64
  3
__ __ . __ __ . __ __ . __ __ . __ __ . __ __
 72
    65
 73
     6
 40
0.000770
 49
0.000220
 49
-0.000110
 49
0.000220
 49
-0.000110
 49
0.000000
 49
-0.000110
  0
LTYPE
  2
DIVIDE
 70
    64
  3
__ . . __ . . __ . . __ . . __ . . __ . . __
 72
    65
 73
     6
 40
0.000550
 49
0.000220
 49
-0.000110
 49
0.000000
 49
-0.000110
 49
0.000000
 49
-0.000110
  0
LTYPE
  2
DOTDOT
 70
    64
  3
 . .  . .  . .  . .  . .  . . 
 72
    65
 73
     5
 40
0.000242
 49
-0.000110
 49
0.000000
 49
-0.000110
 49
0.000000
 49
-0.000110
  0
ENDTAB
  0
TABLE
  2
STYLE
 70
     2
  0
STYLE
 70
     0
  2
SN0
 40
0.000000
 41
0.000440
 50
0.000000
 71
     0
 42
0.000000
  3
ROMAND
  0
STYLE
 70
    68
  2
SV0
 40
0.000000
 41
0.000440
 50
0.000000
 71
     0
 42
0.000000
  3
ROMAND
  0
ENDTAB
  0
TABLE
  2
LAYER
 70
     3
  0
LAYER
  2
FOREGROUND
 70
    64
 62
     7
  6
CONTINUOUS
  0
LAYER
  2
BACKGROUND
 70
    65
 62
    -7
  6
CONTINUOUS
  0
LAYER
  2
0
 70
    64
 62
     7
  6
CONTINUOUS
  0
ENDTAB
  0
ENDSEC
  0
SECTION
  2
ENTITIES
  0
POLYLINE
  8
FOREGROUND
  6
CONTINUOUS
 66
     1
 40
0.000000
 41
0.000000
  0
VERTEX
  8
FOREGROUND
  6
CONTINUOUS
 10
0.000000
 20
5.837040
  0
VERTEX
  8
FOREGROUND
  6
CONTINUOUS
 10
8.499920
 20
5.837040
  0
VERTEX
  8
FOREGROUND
  6
CONTINUOUS
 10
8.499920
 20
-5.162960
  0
VERTEX
  8
FOREGROUND
  6
CONTINUOUS
 10
0.000000
 20
-5.162960
  0
VERTEX
  8
FOREGROUND
  6
CONTINUOUS
 10
0.000000
 20
5.837040
  0
SEQEND
  8
0
  0
POLYLINE
  8
FOREGROUND
  6
CONTINUOUS
 66
     1
 40
0.000000
 41
0.000000
  0
VERTEX
  8
FOREGROUND
  6
CONTINUOUS
 10
0.000000
 20
5.837040
  0
VERTEX
  8
FOREGROUND
  6
CONTINUOUS
 10
8.499920
 20
5.837040
  0
VERTEX
  8
FOREGROUND
  6
CONTINUOUS
 10
8.499920
 20
-5.162960
  0
VERTEX
  8
FOREGROUND
  6
CONTINUOUS
 10
0.000000
 20
-5.162960
  0
VERTEX
  8
FOREGROUND
  6
CONTINUOUS
 10
0.000000
 20
5.837040
  0
SEQEND
  8
0
  0
POLYLINE
  8
0
  6
CONTINUOUS
 66
     1
 40
0.014080
 41
0.014080
  0
VERTEX
  8
0
  6
CONTINUOUS
 10
5.420800
 20
5.258880
  0
VERTEX
  8
0
  6
CONTINUOUS
 10
5.356560
 20
5.198600
  0
VERTEX
  8
0
  6
CONTINUOUS
 10
5.258440
 20
5.111920
  0
VERTEX
  8
0
  6
CONTINUOUS
 10
5.156800
 20
5.030960
  0
VERTEX
  8
0
  6
CONTINUOUS
 10
5.085960
 20
4.981240
  0
VERTEX
  8
0
  6
CONTINUOUS
 10
5.012480
 20
4.935920
  0
VERTEX
  8
0
  6
CONTINUOUS
 10
4.935480
 20
4.894560
  0
VERTEX
  8
0
  6
CONTINUOUS
 10
4.854080
 20
4.858480
  0
VERTEX
  8
0
  6
CONTINUOUS
 10
4.768720
 20
4.828120
  0
VERTEX
  8
0
  6
CONTINUOUS
 10
4.723840
 20
4.815360
  0
VERTEX
  8
0
  6
CONTINUOUS
 10
4.677640
 20
4.803920
  0
VERTEX
  8
0
  6
CONTINUOUS
 10
4.630120
 20
4.794240
  0
VERTEX
  8
0
  6
CONTINUOUS
 10
4.581280
 20
4.786760
  0
VERTEX
  8
0
  6
CONTINUOUS
 10
4.505160
 20
4.778400
  0
VERTEX
  8
0
  6
CONTINUOUS
 10
4.451920
 20
4.774880
  0
VERTEX
  8
0
  6
CONTINUOUS
 10
4.369200
 20
4.774000
  0
VERTEX
  8
0
  6
CONTINUOUS
 10
4.282520
 20
4.777520
  0
VERTEX
  8
0
  6
CONTINUOUS
 10
4.191440
 20
4.786320
  0
VERTEX
  8
0
  6
CONTINUOUS
 10
4.095960
 20
4.799960
  0
VERTEX
  8
0
  6
CONTINUOUS
 10
3.995640
 20
4.819320
  0
VERTEX
  8
0
  6
CONTINUOUS
 10
3.930960
 20
4.961000
  0
VERTEX
  8
0
  6
CONTINUOUS
 10
3.735160
 20
4.902040
  0
VERTEX
  8
0
  6
CONTINUOUS
 10
3.731200
 20
4.902480
  0
VERTEX
  8
0
  6
CONTINUOUS
 10
3.703480
 20
4.942080
  0
VERTEX
  8
0
  6
CONTINUOUS
 10
3.672240
 20
4.979480
  0
VERTEX
  8
0
  6
CONTINUOUS
 10
3.619440
 20
5.030960
  0
VERTEX
  8
0
  6
CONTINUOUS
 10
3.581600
 20
5.061760
  0
VERTEX
  8
0
  6
CONTINUOUS
 10
3.520880
 20
5.102240
  0
VERTEX
  8
0
  6
CONTINUOUS
 10
3.478640
 20
5.125120
  0
VERTEX
  8
0
  6
CONTINUOUS
 10
3.413960
 20
5.152840
  0
VERTEX
  8
0
  6
CONTINUOUS
 10
3.370400
 20
5.166480
  0
VERTEX
  8
0
  6
CONTINUOUS
 10
3.348840
 20
5.172200
  0
VERTEX
  8
0
  6
CONTINUOUS
 10
3.306160
 20
5.179680
  0
VERTEX
  8
0
  6
CONTINUOUS
 10
3.264360
 20
5.182760
  0
VERTEX
  8
0
  6
CONTINUOUS
 10
3.224320
 20
5.181000
  0
VERTEX
  8
0
  6
CONTINUOUS
 10
3.185600
 20
5.174400
  0
VERTEX
  8
0
  6
CONTINUOUS
 10
3.167560
 20
5.169560
  0
VERTEX
  8
0
  6
CONTINUOUS
 10
3.132800
 20
5.155480
  0
VERTEX
  8
0
  6
CONTINUOUS
 10
3.116520
 20
5.146240
  0
VERTEX
  8
0
  6
CONTINUOUS
 10
3.112120
 20
5.145800
  0
VERTEX
  8
0
  6
CONTINUOUS
 10
2.991560
 20
5.254480
  0
VERTEX
  8
0
  6
CONTINUOUS
 10
2.992000
 20
5.253600
  0
VERTEX
  8
0
  6
CONTINUOUS
 10
2.685320
 20
4.913040
  0
VERTEX
  8
0
  6
CONTINUOUS
 10
2.684880
 20
4.913920
  0
VERTEX
  8
0
  6
CONTINUOUS
 10
3.201880
 20
4.448400
  0
VERTEX
  8
0
  6
CONTINUOUS
 10
3.210240
 20
4.446200
  0
VERTEX
  8
0
  6
CONTINUOUS
 10
7.070800
 20
4.446200
  0
VERTEX
  8
0
  6
CONTINUOUS
 10
7.454040
 20
4.871240
  0
VERTEX
  8
0
  6
CONTINUOUS
 10
6.930880
 20
5.342480
  0
VERTEX
  8
0
  6
CONTINUOUS
 10
6.929120
 20
5.342040
  0
VERTEX
  8
0
  6
CONTINUOUS
 10
6.696360
 20
5.083320
  0
VERTEX
  8
0
  6
CONTINUOUS
 10
6.695480
 20
5.073200
  0
VERTEX
  8
0
  6
CONTINUOUS
 10
6.661160
 20
5.115880
  0
VERTEX
  8
0
  6
CONTINUOUS
 10
6.622440
 20
5.154600
  0
VERTEX
  8
0
  6
CONTINUOUS
 10
6.594280
 20
5.178360
  0
VERTEX
  8
0
  6
CONTINUOUS
 10
6.564800
 20
5.199920
  0
VERTEX
  8
0
  6
CONTINUOUS
 10
6.533560
 20
5.220160
  0
VERTEX
  8
0
  6
CONTINUOUS
 10
6.501000
 20
5.238200
  0
VERTEX
  8
0
  6
CONTINUOUS
 10
6.467120
 20
5.254480
  0
VERTEX
  8
0
  6
CONTINUOUS
 10
6.395840
 20
5.282200
  0
VERTEX
  8
0
  6
CONTINUOUS
 10
6.358440
 20
5.293200
  0
VERTEX
  8
0
  6
CONTINUOUS
 10
6.282320
 20
5.310360
  0
VERTEX
  8
0
  6
CONTINUOUS
 10
6.243160
 20
5.316520
  0
VERTEX
  8
0
  6
CONTINUOUS
 10
6.163960
 20
5.323120
  0
VERTEX
  8
0
  6
CONTINUOUS
 10
6.123920
 20
5.324000
  0
VERTEX
  8
0
  6
CONTINUOUS
 10
6.083880
 20
5.323120
  0
VERTEX
  8
0
  6
CONTINUOUS
 10
6.003800
 20
5.316520
  0
VERTEX
  8
0
  6
CONTINUOUS
 10
5.964640
 20
5.310800
  0
VERTEX
  8
0
  6
CONTINUOUS
 10
5.925480
 20
5.303320
  0
VERTEX
  8
0
  6
CONTINUOUS
 10
5.848920
 20
5.283520
  0
VERTEX
  8
0
  6
CONTINUOUS
 10
5.811960
 20
5.271200
  0
VERTEX
  8
0
  6
CONTINUOUS
 10
5.740680
 20
5.241720
  0
VERTEX
  8
0
  6
CONTINUOUS
 10
5.706800
 20
5.224560
  0
VERTEX
  8
0
  6
CONTINUOUS
 10
5.643000
 20
5.185400
  0
VERTEX
  8
0
  6
CONTINUOUS
 10
5.585360
 20
5.140080
  0
VERTEX
  8
0
  6
CONTINUOUS
 10
5.583160
 20
5.131720
  0
VERTEX
  8
0
  6
CONTINUOUS
 10
5.433120
 20
5.256680
  0
VERTEX
  8
0
  6
CONTINUOUS
 10
5.420800
 20
5.258880
  0
SEQEND
  8
0
  0
SOLID
  8
0
 62
    15
 10
6.269120
 20
3.529240
 11
6.922960
 21
3.150840
 12
6.215880
 22
3.470720
 13
6.869720
 23
3.091880
  0
POLYLINE
  8
0
  6
CONTINUOUS
 66
     1
 40
0.000000
 41
0.000000
  0
VERTEX
  8
0
  6
CONTINUOUS
 10
6.269120
 20
3.529240
  0
VERTEX
  8
0
  6
CONTINUOUS
 10
6.922960
 20
3.150840
  0
VERTEX
  8
0
  6
CONTINUOUS
 10
6.869720
 20
3.091880
  0
VERTEX
  8
0
  6
CONTINUOUS
 10
6.215880
 20
3.470720
  0
VERTEX
  8
0
  6
CONTINUOUS
 10
6.269120
 20
3.529240
  0
SEQEND
  8
0
  0
SOLID
  8
0
 62
    15
 10
4.460720
 20
1.958000
 11
5.115000
 21
1.579600
 12
4.463800
 22
1.949640
 13
5.118080
 23
1.570800
  0
POLYLINE
  8
0
  6
CONTINUOUS
 66
     1
 40
0.000000
 41
0.000000
  0
VERTEX
  8
0
  6
CONTINUOUS
 10
4.460720
 20
1.958000
  0
VERTEX
  8
0
  6
CONTINUOUS
 10
5.115000
 20
1.579600
  0
VERTEX
  8
0
  6
CONTINUOUS
 10
5.118080
 20
1.570800
  0
VERTEX
  8
0
  6
CONTINUOUS
 10
4.463800
 20
1.949640
  0
VERTEX
  8
0
  6
CONTINUOUS
 10
4.460720
 20
1.958000
  0
SEQEND
  8
0
  0
SOLID
  8
0
 62
    15
 10
4.463800
 20
1.949640
 11
5.118080
 21
1.570800
 12
4.429920
 22
1.805760
 13
5.084200
 23
1.426920
  0
POLYLINE
  8
0
  6
CONTINUOUS
 66
     1
 40
0.000000
 41
0.000000
  0
VERTEX
  8
0
  6
CONTINUOUS
 10
4.463800
 20
1.949640
  0
VERTEX
  8
0
  6
CONTINUOUS
 10
5.118080
 20
1.570800
  0
VERTEX
  8
0
  6
CONTINUOUS
 10
5.084200
 20
1.426920
  0
VERTEX
  8
0
  6
CONTINUOUS
 10
4.429920
 20
1.805760
  0
VERTEX
  8
0
  6
CONTINUOUS
 10
4.463800
 20
1.949640
  0
SEQEND
  8
0
  0
SOLID
  8
0
 62
    15
 10
4.429920
 20
1.805760
 11
5.084200
 21
1.426920
 12
4.363920
 22
1.666720
 13
5.017760
 23
1.287880
  0
POLYLINE
  8
0
  6
CONTINUOUS
 66
     1
 40
0.000000
 41
0.000000
  0
VERTEX
  8
0
  6
CONTINUOUS
 10
4.429920
 20
1.805760
  0
VERTEX
  8
0
  6
CONTINUOUS
 10
5.084200
 20
1.426920
  0
VERTEX
  8
0
  6
CONTINUOUS
 10
5.017760
 20
1.287880
  0
VERTEX
  8
0
  6
CONTINUOUS
 10
4.363920
 20
1.666720
  0
VERTEX
  8
0
  6
CONTINUOUS
 10
4.429920
 20
1.805760
  0
SEQEND
  8
0
  0
SOLID
  8
0
 62
    15
 10
4.363920
 20
1.666720
 11
5.017760
 21
1.287880
 12
4.270640
 22
1.538240
 13
4.924920
 23
1.159400
  0
POLYLINE
  8
0
  6
CONTINUOUS
 66
     1
 40
0.000000
 41
0.000000
  0
VERTEX
  8
0
  6
CONTINUOUS
 10
4.363920
 20
1.666720
  0
VERTEX
  8
0
  6
CONTINUOUS
 10
5.017760
 20
1.287880
  0
VERTEX
  8
0
  6
CONTINUOUS
 10
4.924920
 20
1.159400
  0
VERTEX
  8
0
  6
CONTINUOUS
 10
4.270640
 20
1.538240
  0
VERTEX
  8
0
  6
CONTINUOUS
 10
4.363920
 20
1.666720
  0
SEQEND
  8
0
  0
SOLID
  8
0
 62
    15
 10
4.270640
 20
1.538240
 11
4.924920
 21
1.159400
 12
4.156240
 22
1.426480
 13
4.810520
 23
1.047640
  0
POLYLINE
  8
0
  6
CONTINUOUS
 66
     1
 40
0.000000
 41
0.000000
  0
VERTEX
  8
0
  6
CONTINUOUS
 10
4.270640
 20
1.538240
  0
VERTEX
  8
0
  6
CONTINUOUS
 10
4.924920
 20
1.159400
  0
VERTEX
  8
0
  6
CONTINUOUS
 10
4.810520
 20
1.047640
  0
VERTEX
  8
0
  6
CONTINUOUS
 10
4.156240
 20
1.426480
  0
VERTEX
  8
0
  6
CONTINUOUS
 10
4.270640
 20
1.538240
  0
SEQEND
  8
0
  0
SOLID
  8
0
 62
    15
 10
4.156240
 20
1.426480
 11
4.810520
 21
1.047640
 12
4.026000
 22
1.336720
 13
4.679840
 23
0.957880
  0
POLYLINE
  8
0
  6
CONTINUOUS
 66
     1
 40
0.000000
 41
0.000000
  0
VERTEX
  8
0
  6
CONTINUOUS
 10
4.156240
 20
1.426480
  0
VERTEX
  8
0
  6
CONTINUOUS
 10
4.810520
 20
1.047640
  0
VERTEX
  8
0
  6
CONTINUOUS
 10
4.679840
 20
0.957880
  0
VERTEX
  8
0
  6
CONTINUOUS
 10
4.026000
 20
1.336720
  0
VERTEX
  8
0
  6
CONTINUOUS
 10
4.156240
 20
1.426480
  0
SEQEND
  8
0
  0
SOLID
  8
0
 62
    15
 10
4.026000
 20
1.336720
 11
4.679840
 21
0.957880
 12
3.885200
 22
1.274240
 13
4.539040
 23
0.895840
  0
POLYLINE
  8
0
  6
CONTINUOUS
 66
     1
 40
0.000000
 41
0.000000
  0
VERTEX
  8
0
  6
CONTINUOUS
 10
4.026000
 20
1.336720
  0
VERTEX
  8
0
  6
CONTINUOUS
 10
4.679840
 20
0.957880
  0
VERTEX
  8
0
  6
CONTINUOUS
 10
4.539040
 20
0.895840
  0
VERTEX
  8
0
  6
CONTINUOUS
 10
3.885200
 20
1.274240
  0
VERTEX
  8
0
  6
CONTINUOUS
 10
4.026000
 20
1.336720
  0
SEQEND
  8
0
  0
SOLID
  8
0
 62
    15
 10
3.885200
 20
1.274240
 11
4.539040
 21
0.895840
 12
3.739560
 22
1.245640
 13
4.393400
 23
0.867240
  0
POLYLINE
  8
0
  6
CONTINUOUS
 66
     1
 40
0.000000
 41
0.000000
  0
VERTEX
  8
0
  6
CONTINUOUS
 10
3.885200
 20
1.274240
  0
VERTEX
  8
0
  6
CONTINUOUS
 10
4.539040
 20
0.895840
  0
VERTEX
  8
0
  6
CONTINUOUS
 10
4.393400
 20
0.867240
  0
VERTEX
  8
0
  6
CONTINUOUS
 10
3.739560
 20
1.245640
  0
VERTEX
  8
0
  6
CONTINUOUS
 10
3.885200
 20
1.274240
  0
SEQEND
  8
0
  0
SOLID
  8
0
 62
    15
 10
3.739560
 20
1.245640
 11
4.393400
 21
0.867240
 12
3.594360
 22
1.256200
 13
4.248200
 23
0.877360
  0
POLYLINE
  8
0
  6
CONTINUOUS
 66
     1
 40
0.000000
 41
0.000000
  0
VERTEX
  8
0
  6
CONTINUOUS
 10
3.739560
 20
1.245640
  0
VERTEX
  8
0
  6
CONTINUOUS
 10
4.393400
 20
0.867240
  0
VERTEX
  8
0
  6
CONTINUOUS
 10
4.248200
 20
0.877360
  0
VERTEX
  8
0
  6
CONTINUOUS
 10
3.594360
 20
1.256200
  0
VERTEX
  8
0
  6
CONTINUOUS
 10
3.739560
 20
1.245640
  0
SEQEND
  8
0
  0
SOLID
  8
0
 62
    15
 10
3.594360
 20
1.256200
 11
4.248200
 21
0.877360
 12
3.600520
 22
1.247840
 13
4.254360
 23
0.869000
  0
POLYLINE
  8
0
  6
CONTINUOUS
 66
     1
 40
0.000000
 41
0.000000
  0
VERTEX
  8
0
  6
CONTINUOUS
 10
3.594360
 20
1.256200
  0
VERTEX
  8
0
  6
CONTINUOUS
 10
4.248200
 20
0.877360
  0
VERTEX
  8
0
  6
CONTINUOUS
 10
4.254360
 20
0.869000
  0
VERTEX
  8
0
  6
CONTINUOUS
 10
3.600520
 20
1.247840
  0
VERTEX
  8
0
  6
CONTINUOUS
 10
3.594360
 20
1.256200
  0
SEQEND
  8
0
  0
SOLID
  8
0
 62
    15
 10
3.600520
 20
1.247840
 11
4.254360
 21
0.869000
 12
3.600520
 22
0.899800
 13
4.254360
 23
0.520960
  0
POLYLINE
  8
0
  6
CONTINUOUS
 66
     1
 40
0.000000
 41
0.000000
  0
VERTEX
  8
0
  6
CONTINUOUS
 10
3.600520
 20
1.247840
  0
VERTEX
  8
0
  6
CONTINUOUS
 10
4.254360
 20
0.869000
  0
VERTEX
  8
0
  6
CONTINUOUS
 10
4.254360
 20
0.520960
  0
VERTEX
  8
0
  6
CONTINUOUS
 10
3.600520
 20
0.899800
  0
VERTEX
  8
0
  6
CONTINUOUS
 10
3.600520
 20
1.247840
  0
SEQEND
  8
0
  0
SOLID
  8
0
 62
    15
 10
3.600520
 20
0.899800
 11
4.254360
 21
0.520960
 12
2.896080
 22
0.899800
 13
3.550360
 23
0.520960
  0
POLYLINE
  8
0
  6
CONTINUOUS
 66
     1
 40
0.000000
 41
0.000000
  0
VERTEX
  8
0
  6
CONTINUOUS
 10
3.600520
 20
0.899800
  0
VERTEX
  8
0
  6
CONTINUOUS
 10
4.254360
 20
0.520960
  0
VERTEX
  8
0
  6
CONTINUOUS
 10
3.550360
 20
0.520960
  0
VERTEX
  8
0
  6
CONTINUOUS
 10
2.896080
 20
0.899800
  0
VERTEX
  8
0
  6
CONTINUOUS
 10
3.600520
 20
0.899800
  0
SEQEND
  8
0
  0
SOLID
  8
0
 62
    15
 10
6.467120
 20
4.058120
 11
7.120960
 21
3.679720
 12
6.467120
 22
3.599640
 13
7.120960
 23
3.221240
  0
POLYLINE
  8
0
  6
CONTINUOUS
 66
     1
 40
0.000000
 41
0.000000
  0
VERTEX
  8
0
  6
CONTINUOUS
 10
6.467120
 20
4.058120
  0
VERTEX
  8
0
  6
CONTINUOUS
 10
7.120960
 20
3.679720
  0
VERTEX
  8
0
  6
CONTINUOUS
 10
7.120960
 20
3.221240
  0
VERTEX
  8
0
  6
CONTINUOUS
 10
6.467120
 20
3.599640
  0
VERTEX
  8
0
  6
CONTINUOUS
 10
6.467120
 20
4.058120
  0
SEQEND
  8
0
  0
SOLID
  8
0
 62
    15
 10
6.467120
 20
3.599640
 11
7.120960
 21
3.221240
 12
6.304760
 22
3.599640
 13
6.958600
 23
3.221240
  0
POLYLINE
  8
0
  6
CONTINUOUS
 66
     1
 40
0.000000
 41
0.000000
  0
VERTEX
  8
0
  6
CONTINUOUS
 10
6.467120
 20
3.599640
  0
VERTEX
  8
0
  6
CONTINUOUS
 10
7.120960
 20
3.221240
  0
VERTEX
  8
0
  6
CONTINUOUS
 10
6.958600
 20
3.221240
  0
VERTEX
  8
0
  6
CONTINUOUS
 10
6.304760
 20
3.599640
  0
VERTEX
  8
0
  6
CONTINUOUS
 10
6.467120
 20
3.599640
  0
SEQEND
  8
0
  0
SOLID
  8
0
 62
    15
 10
6.304760
 20
3.599640
 11
6.958600
 21
3.221240
 12
6.301680
 22
3.596560
 13
6.955520
 23
3.218160
  0
POLYLINE
  8
0
  6
CONTINUOUS
 66
     1
 40
0.000000
 41
0.000000
  0
VERTEX
  8
0
  6
CONTINUOUS
 10
6.304760
 20
3.599640
  0
VERTEX
  8
0
  6
CONTINUOUS
 10
6.958600
 20
3.221240
  0
VERTEX
  8
0
  6
CONTINUOUS
 10
6.955520
 20
3.218160
  0
VERTEX
  8
0
  6
CONTINUOUS
 10
6.301680
 20
3.596560
  0
VERTEX
  8
0
  6
CONTINUOUS
 10
6.304760
 20
3.599640
  0
SEQEND
  8
0
  0
SOLID
  8
0
 62
    15
 10
6.301680
 20
3.596560
 11
6.955520
 21
3.218160
 12
6.269120
 22
3.529240
 13
6.922960
 23
3.150840
  0
POLYLINE
  8
0
  6
CONTINUOUS
 66
     1
 40
0.000000
 41
0.000000
  0
VERTEX
  8
0
  6
CONTINUOUS
 10
6.301680
 20
3.596560
  0
VERTEX
  8
0
  6
CONTINUOUS
 10
6.955520
 20
3.218160
  0
VERTEX
  8
0
  6
CONTINUOUS
 10
6.922960
 20
3.150840
  0
VERTEX
  8
0
  6
CONTINUOUS
 10
6.269120
 20
3.529240
  0
VERTEX
  8
0
  6
CONTINUOUS
 10
6.301680
 20
3.596560
  0
SEQEND
  8
0
  0
SOLID
  8
0
 62
    15
 10
4.656080
 20
1.965480
 11
5.309920
 21
1.587080
 12
4.460720
 22
1.958000
 13
5.115000
 23
1.579600
  0
POLYLINE
  8
0
  6
CONTINUOUS
 66
     1
 40
0.000000
 41
0.000000
  0
VERTEX
  8
0
  6
CONTINUOUS
 10
4.656080
 20
1.965480
  0
VERTEX
  8
0
  6
CONTINUOUS
 10
5.309920
 20
1.587080
  0
VERTEX
  8
0
  6
CONTINUOUS
 10
5.115000
 20
1.579600
  0
VERTEX
  8
0
  6
CONTINUOUS
 10
4.460720
 20
1.958000
  0
VERTEX
  8
0
  6
CONTINUOUS
 10
4.656080
 20
1.965480
  0
SEQEND
  8
0
  0
SOLID
  8
0
 62
    15
 10
6.215880
 20
3.470720
 11
6.869720
 21
3.091880
 12
6.145920
 22
3.421880
 13
6.800200
 23
3.043480
  0
POLYLINE
  8
0
  6
CONTINUOUS
 66
     1
 40
0.000000
 41
0.000000
  0
VERTEX
  8
0
  6
CONTINUOUS
 10
6.215880
 20
3.470720
  0
VERTEX
  8
0
  6
CONTINUOUS
 10
6.869720
 20
3.091880
  0
VERTEX
  8
0
  6
CONTINUOUS
 10
6.800200
 20
3.043480
  0
VERTEX
  8
0
  6
CONTINUOUS
 10
6.145920
 20
3.421880
  0
VERTEX
  8
0
  6
CONTINUOUS
 10
6.215880
 20
3.470720
  0
SEQEND
  8
0
  0
SOLID
  8
0
 62
    15
 10
6.145920
 20
3.421880
 11
6.800200
 21
3.043480
 12
6.063200
 22
3.384480
 13
6.717480
 23
3.005640
  0
POLYLINE
  8
0
  6
CONTINUOUS
 66
     1
 40
0.000000
 41
0.000000
  0
VERTEX
  8
0
  6
CONTINUOUS
 10
6.145920
 20
3.421880
  0
VERTEX
  8
0
  6
CONTINUOUS
 10
6.800200
 20
3.043480
  0
VERTEX
  8
0
  6
CONTINUOUS
 10
6.717480
 20
3.005640
  0
VERTEX
  8
0
  6
CONTINUOUS
 10
6.063200
 20
3.384480
  0
VERTEX
  8
0
  6
CONTINUOUS
 10
6.145920
 20
3.421880
  0
SEQEND
  8
0
  0
SOLID
  8
0
 62
    15
 10
6.063200
 20
3.384480
 11
6.717480
 21
3.005640
 12
5.874880
 22
3.346640
 13
6.528720
 23
2.967800
  0
POLYLINE
  8
0
  6
CONTINUOUS
 66
     1
 40
0.000000
 41
0.000000
  0
VERTEX
  8
0
  6
CONTINUOUS
 10
6.063200
 20
3.384480
  0
VERTEX
  8
0
  6
CONTINUOUS
 10
6.717480
 20
3.005640
  0
VERTEX
  8
0
  6
CONTINUOUS
 10
6.528720
 20
2.967800
  0
VERTEX
  8
0
  6
CONTINUOUS
 10
5.874880
 20
3.346640
  0
VERTEX
  8
0
  6
CONTINUOUS
 10
6.063200
 20
3.384480
  0
SEQEND
  8
0
  0
SOLID
  8
0
 62
    15
 10
5.874880
 20
3.346640
 11
6.528720
 21
2.967800
 12
5.776760
 22
3.348840
 13
6.431040
 23
2.970000
  0
POLYLINE
  8
0
  6
CONTINUOUS
 66
     1
 40
0.000000
 41
0.000000
  0
VERTEX
  8
0
  6
CONTINUOUS
 10
5.874880
 20
3.346640
  0
VERTEX
  8
0
  6
CONTINUOUS
 10
6.528720
 20
2.967800
  0
VERTEX
  8
0
  6
CONTINUOUS
 10
6.431040
 20
2.970000
  0
VERTEX
  8
0
  6
CONTINUOUS
 10
5.776760
 20
3.348840
  0
VERTEX
  8
0
  6
CONTINUOUS
 10
5.874880
 20
3.346640
  0
SEQEND
  8
0
  0
SOLID
  8
0
 62
    15
 10
5.776760
 20
3.348840
 11
6.431040
 21
2.970000
 12
5.681720
 22
3.366440
 13
6.335560
 23
2.988040
  0
POLYLINE
  8
0
  6
CONTINUOUS
 66
     1
 40
0.000000
 41
0.000000
  0
VERTEX
  8
0
  6
CONTINUOUS
 10
5.776760
 20
3.348840
  0
VERTEX
  8
0
  6
CONTINUOUS
 10
6.431040
 20
2.970000
  0
VERTEX
  8
0
  6
CONTINUOUS
 10
6.335560
 20
2.988040
  0
VERTEX
  8
0
  6
CONTINUOUS
 10
5.681720
 20
3.366440
  0
VERTEX
  8
0
  6
CONTINUOUS
 10
5.776760
 20
3.348840
  0
SEQEND
  8
0
  0
SOLID
  8
0
 62
    15
 10
5.681720
 20
3.366440
 11
6.335560
 21
2.988040
 12
5.679520
 22
3.364240
 13
6.333800
 23
2.985840
  0
POLYLINE
  8
0
  6
CONTINUOUS
 66
     1
 40
0.000000
 41
0.000000
  0
VERTEX
  8
0
  6
CONTINUOUS
 10
5.681720
 20
3.366440
  0
VERTEX
  8
0
  6
CONTINUOUS
 10
6.335560
 20
2.988040
  0
VERTEX
  8
0
  6
CONTINUOUS
 10
6.333800
 20
2.985840
  0
VERTEX
  8
0
  6
CONTINUOUS
 10
5.679520
 20
3.364240
  0
VERTEX
  8
0
  6
CONTINUOUS
 10
5.681720
 20
3.366440
  0
SEQEND
  8
0
  0
SOLID
  8
0
 62
    15
 10
5.679520
 20
3.364240
 11
6.333800
 21
2.985840
 12
5.573480
 22
3.189560
 13
6.227320
 23
2.810720
  0
POLYLINE
  8
0
  6
CONTINUOUS
 66
     1
 40
0.000000
 41
0.000000
  0
VERTEX
  8
0
  6
CONTINUOUS
 10
5.679520
 20
3.364240
  0
VERTEX
  8
0
  6
CONTINUOUS
 10
6.333800
 20
2.985840
  0
VERTEX
  8
0
  6
CONTINUOUS
 10
6.227320
 20
2.810720
  0
VERTEX
  8
0
  6
CONTINUOUS
 10
5.573480
 20
3.189560
  0
VERTEX
  8
0
  6
CONTINUOUS
 10
5.679520
 20
3.364240
  0
SEQEND
  8
0
  0
SOLID
  8
0
 62
    15
 10
5.573480
 20
3.189560
 11
6.227320
 21
2.810720
 12
5.572160
 22
3.189120
 13
6.226000
 23
2.810280
  0
POLYLINE
  8
0
  6
CONTINUOUS
 66
     1
 40
0.000000
 41
0.000000
  0
VERTEX
  8
0
  6
CONTINUOUS
 10
5.573480
 20
3.189560
  0
VERTEX
  8
0
  6
CONTINUOUS
 10
6.227320
 20
2.810720
  0
VERTEX
  8
0
  6
CONTINUOUS
 10
6.226000
 20
2.810280
  0
VERTEX
  8
0
  6
CONTINUOUS
 10
5.572160
 20
3.189120
  0
VERTEX
  8
0
  6
CONTINUOUS
 10
5.573480
 20
3.189560
  0
SEQEND
  8
0
  0
SOLID
  8
0
 62
    15
 10
5.431800
 20
3.252480
 11
6.085640
 21
2.874080
 12
5.214440
 22
3.109920
 13
5.868280
 23
2.731080
  0
POLYLINE
  8
0
  6
CONTINUOUS
 66
     1
 40
0.000000
 41
0.000000
  0
VERTEX
  8
0
  6
CONTINUOUS
 10
5.431800
 20
3.252480
  0
VERTEX
  8
0
  6
CONTINUOUS
 10
6.085640
 20
2.874080
  0
VERTEX
  8
0
  6
CONTINUOUS
 10
5.868280
 20
2.731080
  0
VERTEX
  8
0
  6
CONTINUOUS
 10
5.214440
 20
3.109920
  0
VERTEX
  8
0
  6
CONTINUOUS
 10
5.431800
 20
3.252480
  0
SEQEND
  8
0
  0
SOLID
  8
0
 62
    15
 10
5.572160
 20
3.189120
 11
6.226000
 21
2.810280
 12
5.437960
 22
3.247640
 13
6.091800
 23
2.869240
  0
POLYLINE
  8
0
  6
CONTINUOUS
 66
     1
 40
0.000000
 41
0.000000
  0
VERTEX
  8
0
  6
CONTINUOUS
 10
5.572160
 20
3.189120
  0
VERTEX
  8
0
  6
CONTINUOUS
 10
6.226000
 20
2.810280
  0
VERTEX
  8
0
  6
CONTINUOUS
 10
6.091800
 20
2.869240
  0
VERTEX
  8
0
  6
CONTINUOUS
 10
5.437960
 20
3.247640
  0
VERTEX
  8
0
  6
CONTINUOUS
 10
5.572160
 20
3.189120
  0
SEQEND
  8
0
  0
SOLID
  8
0
 62
    15
 10
5.214440
 20
3.109920
 11
5.868280
 21
2.731080
 12
5.044160
 22
2.961200
 13
5.698000
 23
2.582800
  0
POLYLINE
  8
0
  6
CONTINUOUS
 66
     1
 40
0.000000
 41
0.000000
  0
VERTEX
  8
0
  6
CONTINUOUS
 10
5.214440
 20
3.109920
  0
VERTEX
  8
0
  6
CONTINUOUS
 10
5.868280
 20
2.731080
  0
VERTEX
  8
0
  6
CONTINUOUS
 10
5.698000
 20
2.582800
  0
VERTEX
  8
0
  6
CONTINUOUS
 10
5.044160
 20
2.961200
  0
VERTEX
  8
0
  6
CONTINUOUS
 10
5.214440
 20
3.109920
  0
SEQEND
  8
0
  0
SOLID
  8
0
 62
    15
 10
5.044160
 20
2.961200
 11
5.698000
 21
2.582800
 12
4.914800
 22
2.807640
 13
5.568640
 23
2.428800
  0
POLYLINE
  8
0
  6
CONTINUOUS
 66
     1
 40
0.000000
 41
0.000000
  0
VERTEX
  8
0
  6
CONTINUOUS
 10
5.044160
 20
2.961200
  0
VERTEX
  8
0
  6
CONTINUOUS
 10
5.698000
 20
2.582800
  0
VERTEX
  8
0
  6
CONTINUOUS
 10
5.568640
 20
2.428800
  0
VERTEX
  8
0
  6
CONTINUOUS
 10
4.914800
 20
2.807640
  0
VERTEX
  8
0
  6
CONTINUOUS
 10
5.044160
 20
2.961200
  0
SEQEND
  8
0
  0
SOLID
  8
0
 62
    15
 10
4.914800
 20
2.807640
 11
5.568640
 21
2.428800
 12
4.820200
 22
2.648800
 13
5.474040
 23
2.270400
  0
POLYLINE
  8
0
  6
CONTINUOUS
 66
     1
 40
0.000000
 41
0.000000
  0
VERTEX
  8
0
  6
CONTINUOUS
 10
4.914800
 20
2.807640
  0
VERTEX
  8
0
  6
CONTINUOUS
 10
5.568640
 20
2.428800
  0
VERTEX
  8
0
  6
CONTINUOUS
 10
5.474040
 20
2.270400
  0
VERTEX
  8
0
  6
CONTINUOUS
 10
4.820200
 20
2.648800
  0
VERTEX
  8
0
  6
CONTINUOUS
 10
4.914800
 20
2.807640
  0
SEQEND
  8
0
  0
SOLID
  8
0
 62
    15
 10
4.820200
 20
2.648800
 11
5.474040
 21
2.270400
 12
4.754200
 22
2.485560
 13
5.408040
 23
2.107160
  0
POLYLINE
  8
0
  6
CONTINUOUS
 66
     1
 40
0.000000
 41
0.000000
  0
VERTEX
  8
0
  6
CONTINUOUS
 10
4.820200
 20
2.648800
  0
VERTEX
  8
0
  6
CONTINUOUS
 10
5.474040
 20
2.270400
  0
VERTEX
  8
0
  6
CONTINUOUS
 10
5.408040
 20
2.107160
  0
VERTEX
  8
0
  6
CONTINUOUS
 10
4.754200
 20
2.485560
  0
VERTEX
  8
0
  6
CONTINUOUS
 10
4.820200
 20
2.648800
  0
SEQEND
  8
0
  0
SOLID
  8
0
 62
    15
 10
4.754200
 20
2.485560
 11
5.408040
 21
2.107160
 12
4.710640
 22
2.318360
 13
5.364480
 23
1.939520
  0
POLYLINE
  8
0
  6
CONTINUOUS
 66
     1
 40
0.000000
 41
0.000000
  0
VERTEX
  8
0
  6
CONTINUOUS
 10
4.754200
 20
2.485560
  0
VERTEX
  8
0
  6
CONTINUOUS
 10
5.408040
 20
2.107160
  0
VERTEX
  8
0
  6
CONTINUOUS
 10
5.364480
 20
1.939520
  0
VERTEX
  8
0
  6
CONTINUOUS
 10
4.710640
 20
2.318360
  0
VERTEX
  8
0
  6
CONTINUOUS
 10
4.754200
 20
2.485560
  0
SEQEND
  8
0
  0
SOLID
  8
0
 62
    15
 10
4.710640
 20
2.318360
 11
5.364480
 21
1.939520
 12
4.667080
 22
1.972520
 13
5.320920
 23
1.593680
  0
POLYLINE
  8
0
  6
CONTINUOUS
 66
     1
 40
0.000000
 41
0.000000
  0
VERTEX
  8
0
  6
CONTINUOUS
 10
4.710640
 20
2.318360
  0
VERTEX
  8
0
  6
CONTINUOUS
 10
5.364480
 20
1.939520
  0
VERTEX
  8
0
  6
CONTINUOUS
 10
5.320920
 20
1.593680
  0
VERTEX
  8
0
  6
CONTINUOUS
 10
4.667080
 20
1.972520
  0
VERTEX
  8
0
  6
CONTINUOUS
 10
4.710640
 20
2.318360
  0
SEQEND
  8
0
  0
SOLID
  8
0
 62
    15
 10
4.667080
 20
1.972520
 11
5.320920
 21
1.593680
 12
4.656080
 22
1.965480
 13
5.309920
 23
1.587080
  0
POLYLINE
  8
0
  6
CONTINUOUS
 66
     1
 40
0.000000
 41
0.000000
  0
VERTEX
  8
0
  6
CONTINUOUS
 10
4.667080
 20
1.972520
  0
VERTEX
  8
0
  6
CONTINUOUS
 10
5.320920
 20
1.593680
  0
VERTEX
  8
0
  6
CONTINUOUS
 10
5.309920
 20
1.587080
  0
VERTEX
  8
0
  6
CONTINUOUS
 10
4.656080
 20
1.965480
  0
VERTEX
  8
0
  6
CONTINUOUS
 10
4.667080
 20
1.972520
  0
SEQEND
  8
0
  0
POLYLINE
  8
0
  6
CONTINUOUS
 66
     1
 40
0.000000
 41
0.000000
  0
VERTEX
  8
0
  6
CONTINUOUS
 10
4.656080
 20
1.965480
  0
VERTEX
  8
0
  6
CONTINUOUS
 10
4.460720
 20
1.958000
  0
VERTEX
  8
0
  6
CONTINUOUS
 10
4.463800
 20
1.949640
  0
VERTEX
  8
0
  6
CONTINUOUS
 10
4.429920
 20
1.805760
  0
VERTEX
  8
0
  6
CONTINUOUS
 10
4.363920
 20
1.666720
  0
VERTEX
  8
0
  6
CONTINUOUS
 10
4.270640
 20
1.538240
  0
VERTEX
  8
0
  6
CONTINUOUS
 10
4.156240
 20
1.426480
  0
VERTEX
  8
0
  6
CONTINUOUS
 10
4.026000
 20
1.336720
  0
VERTEX
  8
0
  6
CONTINUOUS
 10
3.885200
 20
1.274240
  0
VERTEX
  8
0
  6
CONTINUOUS
 10
3.739560
 20
1.245640
  0
VERTEX
  8
0
  6
CONTINUOUS
 10
3.594360
 20
1.256200
  0
VERTEX
  8
0
  6
CONTINUOUS
 10
3.600520
 20
1.247840
  0
VERTEX
  8
0
  6
CONTINUOUS
 10
3.600520
 20
0.899800
  0
VERTEX
  8
0
  6
CONTINUOUS
 10
2.896080
 20
0.899800
  0
VERTEX
  8
0
  6
CONTINUOUS
 10
2.896080
 20
1.472680
  0
VERTEX
  8
0
  6
CONTINUOUS
 10
5.764880
 20
4.055920
  0
VERTEX
  8
0
  6
CONTINUOUS
 10
5.771040
 20
4.058120
  0
VERTEX
  8
0
  6
CONTINUOUS
 10
6.467120
 20
4.058120
  0
VERTEX
  8
0
  6
CONTINUOUS
 10
6.467120
 20
3.599640
  0
VERTEX
  8
0
  6
CONTINUOUS
 10
6.304760
 20
3.599640
  0
VERTEX
  8
0
  6
CONTINUOUS
 10
6.301680
 20
3.596560
  0
VERTEX
  8
0
  6
CONTINUOUS
 10
6.269120
 20
3.529240
  0
VERTEX
  8
0
  6
CONTINUOUS
 10
6.215880
 20
3.470720
  0
VERTEX
  8
0
  6
CONTINUOUS
 10
6.145920
 20
3.421880
  0
VERTEX
  8
0
  6
CONTINUOUS
 10
6.063200
 20
3.384480
  0
VERTEX
  8
0
  6
CONTINUOUS
 10
5.874880
 20
3.346640
  0
VERTEX
  8
0
  6
CONTINUOUS
 10
5.776760
 20
3.348840
  0
VERTEX
  8
0
  6
CONTINUOUS
 10
5.681720
 20
3.366440
  0
VERTEX
  8
0
  6
CONTINUOUS
 10
5.679520
 20
3.364240
  0
VERTEX
  8
0
  6
CONTINUOUS
 10
5.573480
 20
3.189560
  0
VERTEX
  8
0
  6
CONTINUOUS
 10
5.572160
 20
3.189120
  0
VERTEX
  8
0
  6
CONTINUOUS
 10
5.437960
 20
3.247640
  0
VERTEX
  8
0
  6
CONTINUOUS
 10
5.431800
 20
3.252480
  0
VERTEX
  8
0
  6
CONTINUOUS
 10
5.214440
 20
3.109920
  0
VERTEX
  8
0
  6
CONTINUOUS
 10
5.044160
 20
2.961200
  0
VERTEX
  8
0
  6
CONTINUOUS
 10
4.914800
 20
2.807640
  0
VERTEX
  8
0
  6
CONTINUOUS
 10
4.820200
 20
2.648800
  0
VERTEX
  8
0
  6
CONTINUOUS
 10
4.754200
 20
2.485560
  0
VERTEX
  8
0
  6
CONTINUOUS
 10
4.710640
 20
2.318360
  0
VERTEX
  8
0
  6
CONTINUOUS
 10
4.667080
 20
1.972520
  0
VERTEX
  8
0
  6
CONTINUOUS
 10
4.656080
 20
1.965480
  0
SEQEND
  8
0
  0
TEXT
  8
0
 10
5.309480
 20
0.724680
 40
0.138092
  1
BA  664
 41
1.000000
  7
SN0
 71
     0
 72
     5
 11
5.900135
 21
0.724680
  0
TEXT
  8
0
 10
5.153720
 20
0.532840
 40
0.138092
  1
7/8" x 4-3/4"
 41
1.000000
  7
SN0
 71
     0
 72
     5
 11
6.055131
 21
0.532840
  0
ENDSEC
  0
EOF
