  0
SECTION
  2
HEADER
  9
$ACADVER
  1
AC1006
  9
$EXTMIN
 10
2.460920
 20
0.904640
  9
$EXTMAX
 10
7.043960
 20
5.708120
  9
$LTSCALE
 40
0.044000
  9
$PDMODE
 70
    35
  9
$PDSIZE
 40
0.035200
  0
ENDSEC
  0
SECTION
  2
TABLES
  0
TABLE
  2
LTYPE
 70
     9
  0
LTYPE
  2
CONTINUOUS
 70
    64
  3
Solid line
 72
    65
 73
     0
 40
0.000000
  0
LTYPE
  2
DASHED
 70
    64
  3
__ __ __ __ __ __ __ __ __ __ __ __ __ __ __
 72
    65
 73
     2
 40
0.000330
 49
0.000220
 49
-0.000110
  0
LTYPE
  2
HIDDEN
 70
    64
  3
 _ _ _ _ _ _ _ _ _ _ _ _ _ _ _ _ _ _ _ _ _ _
 72
    65
 73
     2
 40
0.000165
 49
0.000110
 49
-0.000055
  0
LTYPE
  2
CENTER
 70
    64
  3
____ _ ____ _ ____ _ ____ _ ____ _ ____ _ ____
 72
    65
 73
     4
 40
0.000880
 49
0.000550
 49
-0.000110
 49
0.000110
 49
-0.000110
  0
LTYPE
  2
PHANTOM
 70
    64
  3
_____ _ _ _____ _ _ _____ _ _ _____ _ _ ____
 72
    65
 73
     6
 40
0.001100
 49
0.000550
 49
-0.000110
 49
0.000110
 49
-0.000110
 49
0.000110
 49
-0.000110
  0
LTYPE
  2
DOT
 70
    64
  3
...............................................
 72
    65
 73
     2
 40
0.000110
 49
0.000000
 49
-0.000110
  0
LTYPE
  2
DASHDOT
 70
    64
  3
__ . __ . __ . __ . __ . __ . __ . __ . __ . __
 72
    65
 73
     4
 40
0.000440
 49
0.000220
 49
-0.000110
 49
0.000000
 49
-0.000110
  0
LTYPE
  2
BORDER
 70
    64
  3
__ __ . __ __ . __ __ . __ __ . __ __ . __ __
 72
    65
 73
     6
 40
0.000770
 49
0.000220
 49
-0.000110
 49
0.000220
 49
-0.000110
 49
0.000000
 49
-0.000110
  0
LTYPE
  2
DIVIDE
 70
    64
  3
__ . . __ . . __ . . __ . . __ . . __ . . __
 72
    65
 73
     6
 40
0.000550
 49
0.000220
 49
-0.000110
 49
0.000000
 49
-0.000110
 49
0.000000
 49
-0.000110
  0
LTYPE
  2
DOTDOT
 70
    64
  3
 . .  . .  . .  . .  . .  . . 
 72
    65
 73
     5
 40
0.000242
 49
-0.000110
 49
0.000000
 49
-0.000110
 49
0.000000
 49
-0.000110
  0
ENDTAB
  0
TABLE
  2
STYLE
 70
     2
  0
STYLE
 70
     0
  2
SN0
 40
0.000000
 41
0.000440
 50
0.000000
 71
     0
 42
0.000000
  3
ROMAND
  0
STYLE
 70
    68
  2
SV0
 40
0.000000
 41
0.000440
 50
0.000000
 71
     0
 42
0.000000
  3
ROMAND
  0
ENDTAB
  0
TABLE
  2
LAYER
 70
     3
  0
LAYER
  2
FOREGROUND
 70
    64
 62
     7
  6
CONTINUOUS
  0
LAYER
  2
BACKGROUND
 70
    65
 62
    -7
  6
CONTINUOUS
  0
LAYER
  2
0
 70
    64
 62
     7
  6
CONTINUOUS
  0
ENDTAB
  0
ENDSEC
  0
SECTION
  2
ENTITIES
  0
POLYLINE
  8
FOREGROUND
  6
CONTINUOUS
 66
     1
 40
0.000000
 41
0.000000
  0
VERTEX
  8
FOREGROUND
  6
CONTINUOUS
 10
0.000000
 20
6.612760
  0
VERTEX
  8
FOREGROUND
  6
CONTINUOUS
 10
8.499920
 20
6.612760
  0
VERTEX
  8
FOREGROUND
  6
CONTINUOUS
 10
8.499920
 20
-4.387240
  0
VERTEX
  8
FOREGROUND
  6
CONTINUOUS
 10
0.000000
 20
-4.387240
  0
VERTEX
  8
FOREGROUND
  6
CONTINUOUS
 10
0.000000
 20
6.612760
  0
SEQEND
  8
0
  0
POLYLINE
  8
FOREGROUND
  6
CONTINUOUS
 66
     1
 40
0.000000
 41
0.000000
  0
VERTEX
  8
FOREGROUND
  6
CONTINUOUS
 10
0.000000
 20
6.612760
  0
VERTEX
  8
FOREGROUND
  6
CONTINUOUS
 10
8.499920
 20
6.612760
  0
VERTEX
  8
FOREGROUND
  6
CONTINUOUS
 10
8.499920
 20
-4.387240
  0
VERTEX
  8
FOREGROUND
  6
CONTINUOUS
 10
0.000000
 20
-4.387240
  0
VERTEX
  8
FOREGROUND
  6
CONTINUOUS
 10
0.000000
 20
6.612760
  0
SEQEND
  8
0
  0
POLYLINE
  8
0
  6
CONTINUOUS
 66
     1
 40
0.014080
 41
0.014080
  0
VERTEX
  8
0
  6
CONTINUOUS
 10
6.829240
 20
5.633320
  0
VERTEX
  8
0
  6
CONTINUOUS
 10
7.038240
 20
5.401000
  0
VERTEX
  8
0
  6
CONTINUOUS
 10
7.037800
 20
5.401880
  0
VERTEX
  8
0
  6
CONTINUOUS
 10
6.533560
 20
4.947800
  0
VERTEX
  8
0
  6
CONTINUOUS
 10
2.734160
 20
4.961000
  0
VERTEX
  8
0
  6
CONTINUOUS
 10
2.731520
 20
4.960120
  0
VERTEX
  8
0
  6
CONTINUOUS
 10
2.466640
 20
5.254040
  0
VERTEX
  8
0
  6
CONTINUOUS
 10
2.466640
 20
5.250080
  0
VERTEX
  8
0
  6
CONTINUOUS
 10
2.966920
 20
5.701960
  0
VERTEX
  8
0
  6
CONTINUOUS
 10
2.969120
 20
5.701960
  0
VERTEX
  8
0
  6
CONTINUOUS
 10
3.044360
 20
5.637720
  0
VERTEX
  8
0
  6
CONTINUOUS
 10
3.094960
 20
5.599880
  0
VERTEX
  8
0
  6
CONTINUOUS
 10
3.171960
 20
5.550600
  0
VERTEX
  8
0
  6
CONTINUOUS
 10
3.249400
 20
5.509680
  0
VERTEX
  8
0
  6
CONTINUOUS
 10
3.327280
 20
5.476680
  0
VERTEX
  8
0
  6
CONTINUOUS
 10
3.379200
 20
5.458640
  0
VERTEX
  8
0
  6
CONTINUOUS
 10
3.431120
 20
5.443240
  0
VERTEX
  8
0
  6
CONTINUOUS
 10
3.483040
 20
5.430920
  0
VERTEX
  8
0
  6
CONTINUOUS
 10
3.534960
 20
5.421680
  0
VERTEX
  8
0
  6
CONTINUOUS
 10
3.586440
 20
5.414200
  0
VERTEX
  8
0
  6
CONTINUOUS
 10
3.637920
 20
5.409800
  0
VERTEX
  8
0
  6
CONTINUOUS
 10
3.688520
 20
5.407160
  0
VERTEX
  8
0
  6
CONTINUOUS
 10
3.739120
 20
5.406720
  0
VERTEX
  8
0
  6
CONTINUOUS
 10
3.838560
 20
5.410680
  0
VERTEX
  8
0
  6
CONTINUOUS
 10
3.934920
 20
5.421240
  0
VERTEX
  8
0
  6
CONTINUOUS
 10
4.028640
 20
5.436200
  0
VERTEX
  8
0
  6
CONTINUOUS
 10
4.118400
 20
5.454240
  0
VERTEX
  8
0
  6
CONTINUOUS
 10
4.244680
 20
5.485040
  0
VERTEX
  8
0
  6
CONTINUOUS
 10
4.460720
 20
5.541800
  0
VERTEX
  8
0
  6
CONTINUOUS
 10
4.706680
 20
5.599880
  0
VERTEX
  8
0
  6
CONTINUOUS
 10
4.824160
 20
5.623200
  0
VERTEX
  8
0
  6
CONTINUOUS
 10
4.903800
 20
5.636400
  0
VERTEX
  8
0
  6
CONTINUOUS
 10
4.984320
 20
5.646520
  0
VERTEX
  8
0
  6
CONTINUOUS
 10
5.064400
 20
5.652680
  0
VERTEX
  8
0
  6
CONTINUOUS
 10
5.143160
 20
5.654880
  0
VERTEX
  8
0
  6
CONTINUOUS
 10
5.181880
 20
5.654000
  0
VERTEX
  8
0
  6
CONTINUOUS
 10
5.257560
 20
5.647840
  0
VERTEX
  8
0
  6
CONTINUOUS
 10
5.294080
 20
5.642120
  0
VERTEX
  8
0
  6
CONTINUOUS
 10
5.364480
 20
5.625840
  0
VERTEX
  8
0
  6
CONTINUOUS
 10
5.414200
 20
5.608240
  0
VERTEX
  8
0
  6
CONTINUOUS
 10
5.461280
 20
5.586240
  0
VERTEX
  8
0
  6
CONTINUOUS
 10
5.504840
 20
5.559400
  0
VERTEX
  8
0
  6
CONTINUOUS
 10
5.544880
 20
5.526840
  0
VERTEX
  8
0
  6
CONTINUOUS
 10
5.580960
 20
5.489000
  0
VERTEX
  8
0
  6
CONTINUOUS
 10
5.591960
 20
5.474920
  0
VERTEX
  8
0
  6
CONTINUOUS
 10
5.602080
 20
5.468760
  0
VERTEX
  8
0
  6
CONTINUOUS
 10
5.843640
 20
5.686120
  0
VERTEX
  8
0
  6
CONTINUOUS
 10
5.853320
 20
5.689200
  0
VERTEX
  8
0
  6
CONTINUOUS
 10
5.909200
 20
5.632000
  0
VERTEX
  8
0
  6
CONTINUOUS
 10
5.967280
 20
5.583160
  0
VERTEX
  8
0
  6
CONTINUOUS
 10
5.997200
 20
5.561600
  0
VERTEX
  8
0
  6
CONTINUOUS
 10
6.058360
 20
5.524640
  0
VERTEX
  8
0
  6
CONTINUOUS
 10
6.089160
 20
5.508800
  0
VERTEX
  8
0
  6
CONTINUOUS
 10
6.120400
 20
5.494720
  0
VERTEX
  8
0
  6
CONTINUOUS
 10
6.183760
 20
5.472720
  0
VERTEX
  8
0
  6
CONTINUOUS
 10
6.215880
 20
5.464360
  0
VERTEX
  8
0
  6
CONTINUOUS
 10
6.248000
 20
5.457760
  0
VERTEX
  8
0
  6
CONTINUOUS
 10
6.280120
 20
5.452920
  0
VERTEX
  8
0
  6
CONTINUOUS
 10
6.312240
 20
5.449840
  0
VERTEX
  8
0
  6
CONTINUOUS
 10
6.376040
 20
5.448520
  0
VERTEX
  8
0
  6
CONTINUOUS
 10
6.408160
 20
5.450280
  0
VERTEX
  8
0
  6
CONTINUOUS
 10
6.439840
 20
5.453800
  0
VERTEX
  8
0
  6
CONTINUOUS
 10
6.502320
 20
5.465680
  0
VERTEX
  8
0
  6
CONTINUOUS
 10
6.563920
 20
5.483720
  0
VERTEX
  8
0
  6
CONTINUOUS
 10
6.623760
 20
5.507480
  0
VERTEX
  8
0
  6
CONTINUOUS
 10
6.681840
 20
5.537400
  0
VERTEX
  8
0
  6
CONTINUOUS
 10
6.737280
 20
5.572600
  0
VERTEX
  8
0
  6
CONTINUOUS
 10
6.790080
 20
5.613080
  0
VERTEX
  8
0
  6
CONTINUOUS
 10
6.815160
 20
5.635520
  0
VERTEX
  8
0
  6
CONTINUOUS
 10
6.829240
 20
5.633320
  0
SEQEND
  8
0
  0
SOLID
  8
0
 62
    15
 10
3.994760
 20
2.513720
 11
4.646840
 21
2.141480
 12
3.879040
 22
2.423960
 13
4.531120
 23
2.051280
  0
POLYLINE
  8
0
  6
CONTINUOUS
 66
     1
 40
0.000000
 41
0.000000
  0
VERTEX
  8
0
  6
CONTINUOUS
 10
3.994760
 20
2.513720
  0
VERTEX
  8
0
  6
CONTINUOUS
 10
4.646840
 20
2.141480
  0
VERTEX
  8
0
  6
CONTINUOUS
 10
4.531120
 20
2.051280
  0
VERTEX
  8
0
  6
CONTINUOUS
 10
3.879040
 20
2.423960
  0
VERTEX
  8
0
  6
CONTINUOUS
 10
3.994760
 20
2.513720
  0
SEQEND
  8
0
  0
SOLID
  8
0
 62
    15
 10
5.540920
 20
4.155800
 11
6.193440
 21
3.783560
 12
5.538720
 22
4.152720
 13
6.190800
 23
3.780480
  0
POLYLINE
  8
0
  6
CONTINUOUS
 66
     1
 40
0.000000
 41
0.000000
  0
VERTEX
  8
0
  6
CONTINUOUS
 10
5.540920
 20
4.155800
  0
VERTEX
  8
0
  6
CONTINUOUS
 10
6.193440
 20
3.783560
  0
VERTEX
  8
0
  6
CONTINUOUS
 10
6.190800
 20
3.780480
  0
VERTEX
  8
0
  6
CONTINUOUS
 10
5.538720
 20
4.152720
  0
VERTEX
  8
0
  6
CONTINUOUS
 10
5.540920
 20
4.155800
  0
SEQEND
  8
0
  0
SOLID
  8
0
 62
    15
 10
5.538720
 20
4.152720
 11
6.190800
 21
3.780480
 12
5.408920
 22
4.134240
 13
6.061440
 23
3.761560
  0
POLYLINE
  8
0
  6
CONTINUOUS
 66
     1
 40
0.000000
 41
0.000000
  0
VERTEX
  8
0
  6
CONTINUOUS
 10
5.538720
 20
4.152720
  0
VERTEX
  8
0
  6
CONTINUOUS
 10
6.190800
 20
3.780480
  0
VERTEX
  8
0
  6
CONTINUOUS
 10
6.061440
 20
3.761560
  0
VERTEX
  8
0
  6
CONTINUOUS
 10
5.408920
 20
4.134240
  0
VERTEX
  8
0
  6
CONTINUOUS
 10
5.538720
 20
4.152720
  0
SEQEND
  8
0
  0
SOLID
  8
0
 62
    15
 10
5.408920
 20
4.134240
 11
6.061440
 21
3.761560
 12
5.290120
 22
4.103440
 13
5.942640
 23
3.731200
  0
POLYLINE
  8
0
  6
CONTINUOUS
 66
     1
 40
0.000000
 41
0.000000
  0
VERTEX
  8
0
  6
CONTINUOUS
 10
5.408920
 20
4.134240
  0
VERTEX
  8
0
  6
CONTINUOUS
 10
6.061440
 20
3.761560
  0
VERTEX
  8
0
  6
CONTINUOUS
 10
5.942640
 20
3.731200
  0
VERTEX
  8
0
  6
CONTINUOUS
 10
5.290120
 20
4.103440
  0
VERTEX
  8
0
  6
CONTINUOUS
 10
5.408920
 20
4.134240
  0
SEQEND
  8
0
  0
SOLID
  8
0
 62
    15
 10
5.290120
 20
4.103440
 11
5.942640
 21
3.731200
 12
5.082880
 22
4.011040
 13
5.735400
 23
3.638800
  0
POLYLINE
  8
0
  6
CONTINUOUS
 66
     1
 40
0.000000
 41
0.000000
  0
VERTEX
  8
0
  6
CONTINUOUS
 10
5.290120
 20
4.103440
  0
VERTEX
  8
0
  6
CONTINUOUS
 10
5.942640
 20
3.731200
  0
VERTEX
  8
0
  6
CONTINUOUS
 10
5.735400
 20
3.638800
  0
VERTEX
  8
0
  6
CONTINUOUS
 10
5.082880
 20
4.011040
  0
VERTEX
  8
0
  6
CONTINUOUS
 10
5.290120
 20
4.103440
  0
SEQEND
  8
0
  0
SOLID
  8
0
 62
    15
 10
5.082880
 20
4.011040
 11
5.735400
 21
3.638800
 12
4.911720
 22
3.886520
 13
5.563800
 23
3.514280
  0
POLYLINE
  8
0
  6
CONTINUOUS
 66
     1
 40
0.000000
 41
0.000000
  0
VERTEX
  8
0
  6
CONTINUOUS
 10
5.082880
 20
4.011040
  0
VERTEX
  8
0
  6
CONTINUOUS
 10
5.735400
 20
3.638800
  0
VERTEX
  8
0
  6
CONTINUOUS
 10
5.563800
 20
3.514280
  0
VERTEX
  8
0
  6
CONTINUOUS
 10
4.911720
 20
3.886520
  0
VERTEX
  8
0
  6
CONTINUOUS
 10
5.082880
 20
4.011040
  0
SEQEND
  8
0
  0
SOLID
  8
0
 62
    15
 10
4.911720
 20
3.886520
 11
5.563800
 21
3.514280
 12
4.771360
 22
3.740440
 13
5.423440
 23
3.368200
  0
POLYLINE
  8
0
  6
CONTINUOUS
 66
     1
 40
0.000000
 41
0.000000
  0
VERTEX
  8
0
  6
CONTINUOUS
 10
4.911720
 20
3.886520
  0
VERTEX
  8
0
  6
CONTINUOUS
 10
5.563800
 20
3.514280
  0
VERTEX
  8
0
  6
CONTINUOUS
 10
5.423440
 20
3.368200
  0
VERTEX
  8
0
  6
CONTINUOUS
 10
4.771360
 20
3.740440
  0
VERTEX
  8
0
  6
CONTINUOUS
 10
4.911720
 20
3.886520
  0
SEQEND
  8
0
  0
SOLID
  8
0
 62
    15
 10
4.771360
 20
3.740440
 11
5.423440
 21
3.368200
 12
4.656960
 22
3.583360
 13
5.309040
 23
3.211120
  0
POLYLINE
  8
0
  6
CONTINUOUS
 66
     1
 40
0.000000
 41
0.000000
  0
VERTEX
  8
0
  6
CONTINUOUS
 10
4.771360
 20
3.740440
  0
VERTEX
  8
0
  6
CONTINUOUS
 10
5.423440
 20
3.368200
  0
VERTEX
  8
0
  6
CONTINUOUS
 10
5.309040
 20
3.211120
  0
VERTEX
  8
0
  6
CONTINUOUS
 10
4.656960
 20
3.583360
  0
VERTEX
  8
0
  6
CONTINUOUS
 10
4.771360
 20
3.740440
  0
SEQEND
  8
0
  0
SOLID
  8
0
 62
    15
 10
4.656960
 20
3.583360
 11
5.309040
 21
3.211120
 12
4.563680
 22
3.425840
 13
5.216200
 23
3.053600
  0
POLYLINE
  8
0
  6
CONTINUOUS
 66
     1
 40
0.000000
 41
0.000000
  0
VERTEX
  8
0
  6
CONTINUOUS
 10
4.656960
 20
3.583360
  0
VERTEX
  8
0
  6
CONTINUOUS
 10
5.309040
 20
3.211120
  0
VERTEX
  8
0
  6
CONTINUOUS
 10
5.216200
 20
3.053600
  0
VERTEX
  8
0
  6
CONTINUOUS
 10
4.563680
 20
3.425840
  0
VERTEX
  8
0
  6
CONTINUOUS
 10
4.656960
 20
3.583360
  0
SEQEND
  8
0
  0
SOLID
  8
0
 62
    15
 10
4.563680
 20
3.425840
 11
5.216200
 21
3.053600
 12
4.486680
 22
3.278440
 13
5.139200
 23
2.906200
  0
POLYLINE
  8
0
  6
CONTINUOUS
 66
     1
 40
0.000000
 41
0.000000
  0
VERTEX
  8
0
  6
CONTINUOUS
 10
4.563680
 20
3.425840
  0
VERTEX
  8
0
  6
CONTINUOUS
 10
5.216200
 20
3.053600
  0
VERTEX
  8
0
  6
CONTINUOUS
 10
5.139200
 20
2.906200
  0
VERTEX
  8
0
  6
CONTINUOUS
 10
4.486680
 20
3.278440
  0
VERTEX
  8
0
  6
CONTINUOUS
 10
4.563680
 20
3.425840
  0
SEQEND
  8
0
  0
SOLID
  8
0
 62
    15
 10
4.486680
 20
3.278440
 11
5.139200
 21
2.906200
 12
4.421120
 22
3.151720
 13
5.073640
 23
2.779480
  0
POLYLINE
  8
0
  6
CONTINUOUS
 66
     1
 40
0.000000
 41
0.000000
  0
VERTEX
  8
0
  6
CONTINUOUS
 10
4.486680
 20
3.278440
  0
VERTEX
  8
0
  6
CONTINUOUS
 10
5.139200
 20
2.906200
  0
VERTEX
  8
0
  6
CONTINUOUS
 10
5.073640
 20
2.779480
  0
VERTEX
  8
0
  6
CONTINUOUS
 10
4.421120
 20
3.151720
  0
VERTEX
  8
0
  6
CONTINUOUS
 10
4.486680
 20
3.278440
  0
SEQEND
  8
0
  0
SOLID
  8
0
 62
    15
 10
4.421120
 20
3.151720
 11
5.073640
 21
2.779480
 12
4.355120
 22
3.029840
 13
5.007640
 23
2.657600
  0
POLYLINE
  8
0
  6
CONTINUOUS
 66
     1
 40
0.000000
 41
0.000000
  0
VERTEX
  8
0
  6
CONTINUOUS
 10
4.421120
 20
3.151720
  0
VERTEX
  8
0
  6
CONTINUOUS
 10
5.073640
 20
2.779480
  0
VERTEX
  8
0
  6
CONTINUOUS
 10
5.007640
 20
2.657600
  0
VERTEX
  8
0
  6
CONTINUOUS
 10
4.355120
 20
3.029840
  0
VERTEX
  8
0
  6
CONTINUOUS
 10
4.421120
 20
3.151720
  0
SEQEND
  8
0
  0
SOLID
  8
0
 62
    15
 10
4.355120
 20
3.029840
 11
5.007640
 21
2.657600
 12
4.279880
 22
2.895640
 13
4.931960
 23
2.523400
  0
POLYLINE
  8
0
  6
CONTINUOUS
 66
     1
 40
0.000000
 41
0.000000
  0
VERTEX
  8
0
  6
CONTINUOUS
 10
4.355120
 20
3.029840
  0
VERTEX
  8
0
  6
CONTINUOUS
 10
5.007640
 20
2.657600
  0
VERTEX
  8
0
  6
CONTINUOUS
 10
4.931960
 20
2.523400
  0
VERTEX
  8
0
  6
CONTINUOUS
 10
4.279880
 20
2.895640
  0
VERTEX
  8
0
  6
CONTINUOUS
 10
4.355120
 20
3.029840
  0
SEQEND
  8
0
  0
SOLID
  8
0
 62
    15
 10
4.279880
 20
2.895640
 11
4.931960
 21
2.523400
 12
4.099920
 22
2.628560
 13
4.752000
 23
2.256320
  0
POLYLINE
  8
0
  6
CONTINUOUS
 66
     1
 40
0.000000
 41
0.000000
  0
VERTEX
  8
0
  6
CONTINUOUS
 10
4.279880
 20
2.895640
  0
VERTEX
  8
0
  6
CONTINUOUS
 10
4.931960
 20
2.523400
  0
VERTEX
  8
0
  6
CONTINUOUS
 10
4.752000
 20
2.256320
  0
VERTEX
  8
0
  6
CONTINUOUS
 10
4.099920
 20
2.628560
  0
VERTEX
  8
0
  6
CONTINUOUS
 10
4.279880
 20
2.895640
  0
SEQEND
  8
0
  0
SOLID
  8
0
 62
    15
 10
4.099920
 20
2.628560
 11
4.752000
 21
2.256320
 12
3.994760
 22
2.513720
 13
4.646840
 23
2.141480
  0
POLYLINE
  8
0
  6
CONTINUOUS
 66
     1
 40
0.000000
 41
0.000000
  0
VERTEX
  8
0
  6
CONTINUOUS
 10
4.099920
 20
2.628560
  0
VERTEX
  8
0
  6
CONTINUOUS
 10
4.752000
 20
2.256320
  0
VERTEX
  8
0
  6
CONTINUOUS
 10
4.646840
 20
2.141480
  0
VERTEX
  8
0
  6
CONTINUOUS
 10
3.994760
 20
2.513720
  0
VERTEX
  8
0
  6
CONTINUOUS
 10
4.099920
 20
2.628560
  0
SEQEND
  8
0
  0
SOLID
  8
0
 62
    15
 10
5.542680
 20
4.829880
 11
6.194760
 21
4.457640
 12
5.540920
 22
4.155800
 13
6.193440
 23
3.783560
  0
POLYLINE
  8
0
  6
CONTINUOUS
 66
     1
 40
0.000000
 41
0.000000
  0
VERTEX
  8
0
  6
CONTINUOUS
 10
5.542680
 20
4.829880
  0
VERTEX
  8
0
  6
CONTINUOUS
 10
6.194760
 20
4.457640
  0
VERTEX
  8
0
  6
CONTINUOUS
 10
6.193440
 20
3.783560
  0
VERTEX
  8
0
  6
CONTINUOUS
 10
5.540920
 20
4.155800
  0
VERTEX
  8
0
  6
CONTINUOUS
 10
5.542680
 20
4.829880
  0
SEQEND
  8
0
  0
SOLID
  8
0
 62
    15
 10
3.879040
 20
2.423960
 11
4.531120
 21
2.051280
 12
3.752320
 22
2.368080
 13
4.404840
 23
1.995400
  0
POLYLINE
  8
0
  6
CONTINUOUS
 66
     1
 40
0.000000
 41
0.000000
  0
VERTEX
  8
0
  6
CONTINUOUS
 10
3.879040
 20
2.423960
  0
VERTEX
  8
0
  6
CONTINUOUS
 10
4.531120
 20
2.051280
  0
VERTEX
  8
0
  6
CONTINUOUS
 10
4.404840
 20
1.995400
  0
VERTEX
  8
0
  6
CONTINUOUS
 10
3.752320
 20
2.368080
  0
VERTEX
  8
0
  6
CONTINUOUS
 10
3.879040
 20
2.423960
  0
SEQEND
  8
0
  0
SOLID
  8
0
 62
    15
 10
3.752320
 20
2.368080
 11
4.404840
 21
1.995400
 12
3.614600
 22
2.355760
 13
4.267120
 23
1.983080
  0
POLYLINE
  8
0
  6
CONTINUOUS
 66
     1
 40
0.000000
 41
0.000000
  0
VERTEX
  8
0
  6
CONTINUOUS
 10
3.752320
 20
2.368080
  0
VERTEX
  8
0
  6
CONTINUOUS
 10
4.404840
 20
1.995400
  0
VERTEX
  8
0
  6
CONTINUOUS
 10
4.267120
 20
1.983080
  0
VERTEX
  8
0
  6
CONTINUOUS
 10
3.614600
 20
2.355760
  0
VERTEX
  8
0
  6
CONTINUOUS
 10
3.752320
 20
2.368080
  0
SEQEND
  8
0
  0
SOLID
  8
0
 62
    15
 10
3.614600
 20
2.355760
 11
4.267120
 21
1.983080
 12
3.604040
 22
2.354880
 13
4.256560
 23
1.982640
  0
POLYLINE
  8
0
  6
CONTINUOUS
 66
     1
 40
0.000000
 41
0.000000
  0
VERTEX
  8
0
  6
CONTINUOUS
 10
3.614600
 20
2.355760
  0
VERTEX
  8
0
  6
CONTINUOUS
 10
4.267120
 20
1.983080
  0
VERTEX
  8
0
  6
CONTINUOUS
 10
4.256560
 20
1.982640
  0
VERTEX
  8
0
  6
CONTINUOUS
 10
3.604040
 20
2.354880
  0
VERTEX
  8
0
  6
CONTINUOUS
 10
3.614600
 20
2.355760
  0
SEQEND
  8
0
  0
SOLID
  8
0
 62
    15
 10
3.604040
 20
2.354880
 11
4.256560
 21
1.982640
 12
3.604040
 22
2.030160
 13
4.256560
 23
1.657480
  0
POLYLINE
  8
0
  6
CONTINUOUS
 66
     1
 40
0.000000
 41
0.000000
  0
VERTEX
  8
0
  6
CONTINUOUS
 10
3.604040
 20
2.354880
  0
VERTEX
  8
0
  6
CONTINUOUS
 10
4.256560
 20
1.982640
  0
VERTEX
  8
0
  6
CONTINUOUS
 10
4.256560
 20
1.657480
  0
VERTEX
  8
0
  6
CONTINUOUS
 10
3.604040
 20
2.030160
  0
VERTEX
  8
0
  6
CONTINUOUS
 10
3.604040
 20
2.354880
  0
SEQEND
  8
0
  0
SOLID
  8
0
 62
    15
 10
3.604040
 20
2.030160
 11
4.256560
 21
1.657480
 12
3.600080
 22
2.019600
 13
4.252160
 23
1.647360
  0
POLYLINE
  8
0
  6
CONTINUOUS
 66
     1
 40
0.000000
 41
0.000000
  0
VERTEX
  8
0
  6
CONTINUOUS
 10
3.604040
 20
2.030160
  0
VERTEX
  8
0
  6
CONTINUOUS
 10
4.256560
 20
1.657480
  0
VERTEX
  8
0
  6
CONTINUOUS
 10
4.252160
 20
1.647360
  0
VERTEX
  8
0
  6
CONTINUOUS
 10
3.600080
 20
2.019600
  0
VERTEX
  8
0
  6
CONTINUOUS
 10
3.604040
 20
2.030160
  0
SEQEND
  8
0
  0
SOLID
  8
0
 62
    15
 10
3.600080
 20
2.019600
 11
4.252160
 21
1.647360
 12
3.444760
 22
2.005960
 13
4.096840
 23
1.633280
  0
POLYLINE
  8
0
  6
CONTINUOUS
 66
     1
 40
0.000000
 41
0.000000
  0
VERTEX
  8
0
  6
CONTINUOUS
 10
3.600080
 20
2.019600
  0
VERTEX
  8
0
  6
CONTINUOUS
 10
4.252160
 20
1.647360
  0
VERTEX
  8
0
  6
CONTINUOUS
 10
4.096840
 20
1.633280
  0
VERTEX
  8
0
  6
CONTINUOUS
 10
3.444760
 20
2.005960
  0
VERTEX
  8
0
  6
CONTINUOUS
 10
3.600080
 20
2.019600
  0
SEQEND
  8
0
  0
SOLID
  8
0
 62
    15
 10
3.444760
 20
2.005960
 11
4.096840
 21
1.633280
 12
3.307920
 22
1.965040
 13
3.960440
 23
1.592800
  0
POLYLINE
  8
0
  6
CONTINUOUS
 66
     1
 40
0.000000
 41
0.000000
  0
VERTEX
  8
0
  6
CONTINUOUS
 10
3.444760
 20
2.005960
  0
VERTEX
  8
0
  6
CONTINUOUS
 10
4.096840
 20
1.633280
  0
VERTEX
  8
0
  6
CONTINUOUS
 10
3.960440
 20
1.592800
  0
VERTEX
  8
0
  6
CONTINUOUS
 10
3.307920
 20
1.965040
  0
VERTEX
  8
0
  6
CONTINUOUS
 10
3.444760
 20
2.005960
  0
SEQEND
  8
0
  0
SOLID
  8
0
 62
    15
 10
3.307920
 20
1.965040
 11
3.960440
 21
1.592800
 12
3.190440
 22
1.900800
 13
3.842520
 23
1.528120
  0
POLYLINE
  8
0
  6
CONTINUOUS
 66
     1
 40
0.000000
 41
0.000000
  0
VERTEX
  8
0
  6
CONTINUOUS
 10
3.307920
 20
1.965040
  0
VERTEX
  8
0
  6
CONTINUOUS
 10
3.960440
 20
1.592800
  0
VERTEX
  8
0
  6
CONTINUOUS
 10
3.842520
 20
1.528120
  0
VERTEX
  8
0
  6
CONTINUOUS
 10
3.190440
 20
1.900800
  0
VERTEX
  8
0
  6
CONTINUOUS
 10
3.307920
 20
1.965040
  0
SEQEND
  8
0
  0
SOLID
  8
0
 62
    15
 10
3.190440
 20
1.900800
 11
3.842520
 21
1.528120
 12
3.092760
 22
1.815880
 13
3.744840
 23
1.443640
  0
POLYLINE
  8
0
  6
CONTINUOUS
 66
     1
 40
0.000000
 41
0.000000
  0
VERTEX
  8
0
  6
CONTINUOUS
 10
3.190440
 20
1.900800
  0
VERTEX
  8
0
  6
CONTINUOUS
 10
3.842520
 20
1.528120
  0
VERTEX
  8
0
  6
CONTINUOUS
 10
3.744840
 20
1.443640
  0
VERTEX
  8
0
  6
CONTINUOUS
 10
3.092760
 20
1.815880
  0
VERTEX
  8
0
  6
CONTINUOUS
 10
3.190440
 20
1.900800
  0
SEQEND
  8
0
  0
SOLID
  8
0
 62
    15
 10
3.092760
 20
1.815880
 11
3.744840
 21
1.443640
 12
3.015760
 22
1.714240
 13
3.667840
 23
1.342000
  0
POLYLINE
  8
0
  6
CONTINUOUS
 66
     1
 40
0.000000
 41
0.000000
  0
VERTEX
  8
0
  6
CONTINUOUS
 10
3.092760
 20
1.815880
  0
VERTEX
  8
0
  6
CONTINUOUS
 10
3.744840
 20
1.443640
  0
VERTEX
  8
0
  6
CONTINUOUS
 10
3.667840
 20
1.342000
  0
VERTEX
  8
0
  6
CONTINUOUS
 10
3.015760
 20
1.714240
  0
VERTEX
  8
0
  6
CONTINUOUS
 10
3.092760
 20
1.815880
  0
SEQEND
  8
0
  0
SOLID
  8
0
 62
    15
 10
3.015760
 20
1.714240
 11
3.667840
 21
1.342000
 12
2.960320
 22
1.598960
 13
3.612400
 23
1.226720
  0
POLYLINE
  8
0
  6
CONTINUOUS
 66
     1
 40
0.000000
 41
0.000000
  0
VERTEX
  8
0
  6
CONTINUOUS
 10
3.015760
 20
1.714240
  0
VERTEX
  8
0
  6
CONTINUOUS
 10
3.667840
 20
1.342000
  0
VERTEX
  8
0
  6
CONTINUOUS
 10
3.612400
 20
1.226720
  0
VERTEX
  8
0
  6
CONTINUOUS
 10
2.960320
 20
1.598960
  0
VERTEX
  8
0
  6
CONTINUOUS
 10
3.015760
 20
1.714240
  0
SEQEND
  8
0
  0
SOLID
  8
0
 62
    15
 10
2.960320
 20
1.598960
 11
3.612400
 21
1.226720
 12
2.926880
 22
1.473120
 13
3.578960
 23
1.100880
  0
POLYLINE
  8
0
  6
CONTINUOUS
 66
     1
 40
0.000000
 41
0.000000
  0
VERTEX
  8
0
  6
CONTINUOUS
 10
2.960320
 20
1.598960
  0
VERTEX
  8
0
  6
CONTINUOUS
 10
3.612400
 20
1.226720
  0
VERTEX
  8
0
  6
CONTINUOUS
 10
3.578960
 20
1.100880
  0
VERTEX
  8
0
  6
CONTINUOUS
 10
2.926880
 20
1.473120
  0
VERTEX
  8
0
  6
CONTINUOUS
 10
2.960320
 20
1.598960
  0
SEQEND
  8
0
  0
SOLID
  8
0
 62
    15
 10
2.926880
 20
1.473120
 11
3.578960
 21
1.100880
 12
2.916760
 22
1.340240
 13
3.568840
 23
0.968000
  0
POLYLINE
  8
0
  6
CONTINUOUS
 66
     1
 40
0.000000
 41
0.000000
  0
VERTEX
  8
0
  6
CONTINUOUS
 10
2.926880
 20
1.473120
  0
VERTEX
  8
0
  6
CONTINUOUS
 10
3.578960
 20
1.100880
  0
VERTEX
  8
0
  6
CONTINUOUS
 10
3.568840
 20
0.968000
  0
VERTEX
  8
0
  6
CONTINUOUS
 10
2.916760
 20
1.340240
  0
VERTEX
  8
0
  6
CONTINUOUS
 10
2.926880
 20
1.473120
  0
SEQEND
  8
0
  0
SOLID
  8
0
 62
    15
 10
2.916760
 20
1.340240
 11
3.568840
 21
0.968000
 12
2.906200
 22
1.331880
 13
3.558720
 23
0.959640
  0
POLYLINE
  8
0
  6
CONTINUOUS
 66
     1
 40
0.000000
 41
0.000000
  0
VERTEX
  8
0
  6
CONTINUOUS
 10
2.916760
 20
1.340240
  0
VERTEX
  8
0
  6
CONTINUOUS
 10
3.568840
 20
0.968000
  0
VERTEX
  8
0
  6
CONTINUOUS
 10
3.558720
 20
0.959640
  0
VERTEX
  8
0
  6
CONTINUOUS
 10
2.906200
 20
1.331880
  0
VERTEX
  8
0
  6
CONTINUOUS
 10
2.916760
 20
1.340240
  0
SEQEND
  8
0
  0
SOLID
  8
0
 62
    15
 10
2.906200
 20
1.331880
 11
3.558720
 21
0.959640
 12
2.593800
 22
1.331880
 13
3.245880
 23
0.959640
  0
POLYLINE
  8
0
  6
CONTINUOUS
 66
     1
 40
0.000000
 41
0.000000
  0
VERTEX
  8
0
  6
CONTINUOUS
 10
2.906200
 20
1.331880
  0
VERTEX
  8
0
  6
CONTINUOUS
 10
3.558720
 20
0.959640
  0
VERTEX
  8
0
  6
CONTINUOUS
 10
3.245880
 20
0.959640
  0
VERTEX
  8
0
  6
CONTINUOUS
 10
2.593800
 20
1.331880
  0
VERTEX
  8
0
  6
CONTINUOUS
 10
2.906200
 20
1.331880
  0
SEQEND
  8
0
  0
POLYLINE
  8
0
  6
CONTINUOUS
 66
     1
 40
0.000000
 41
0.000000
  0
VERTEX
  8
0
  6
CONTINUOUS
 10
5.542680
 20
4.829880
  0
VERTEX
  8
0
  6
CONTINUOUS
 10
5.540920
 20
4.155800
  0
VERTEX
  8
0
  6
CONTINUOUS
 10
5.538720
 20
4.152720
  0
VERTEX
  8
0
  6
CONTINUOUS
 10
5.408920
 20
4.134240
  0
VERTEX
  8
0
  6
CONTINUOUS
 10
5.290120
 20
4.103440
  0
VERTEX
  8
0
  6
CONTINUOUS
 10
5.082880
 20
4.011040
  0
VERTEX
  8
0
  6
CONTINUOUS
 10
4.911720
 20
3.886520
  0
VERTEX
  8
0
  6
CONTINUOUS
 10
4.771360
 20
3.740440
  0
VERTEX
  8
0
  6
CONTINUOUS
 10
4.656960
 20
3.583360
  0
VERTEX
  8
0
  6
CONTINUOUS
 10
4.563680
 20
3.425840
  0
VERTEX
  8
0
  6
CONTINUOUS
 10
4.486680
 20
3.278440
  0
VERTEX
  8
0
  6
CONTINUOUS
 10
4.421120
 20
3.151720
  0
VERTEX
  8
0
  6
CONTINUOUS
 10
4.355120
 20
3.029840
  0
VERTEX
  8
0
  6
CONTINUOUS
 10
4.279880
 20
2.895640
  0
VERTEX
  8
0
  6
CONTINUOUS
 10
4.099920
 20
2.628560
  0
VERTEX
  8
0
  6
CONTINUOUS
 10
3.994760
 20
2.513720
  0
VERTEX
  8
0
  6
CONTINUOUS
 10
3.879040
 20
2.423960
  0
VERTEX
  8
0
  6
CONTINUOUS
 10
3.752320
 20
2.368080
  0
VERTEX
  8
0
  6
CONTINUOUS
 10
3.614600
 20
2.355760
  0
VERTEX
  8
0
  6
CONTINUOUS
 10
3.604040
 20
2.354880
  0
VERTEX
  8
0
  6
CONTINUOUS
 10
3.604040
 20
2.030160
  0
VERTEX
  8
0
  6
CONTINUOUS
 10
3.600080
 20
2.019600
  0
VERTEX
  8
0
  6
CONTINUOUS
 10
3.444760
 20
2.005960
  0
VERTEX
  8
0
  6
CONTINUOUS
 10
3.307920
 20
1.965040
  0
VERTEX
  8
0
  6
CONTINUOUS
 10
3.190440
 20
1.900800
  0
VERTEX
  8
0
  6
CONTINUOUS
 10
3.092760
 20
1.815880
  0
VERTEX
  8
0
  6
CONTINUOUS
 10
3.015760
 20
1.714240
  0
VERTEX
  8
0
  6
CONTINUOUS
 10
2.960320
 20
1.598960
  0
VERTEX
  8
0
  6
CONTINUOUS
 10
2.926880
 20
1.473120
  0
VERTEX
  8
0
  6
CONTINUOUS
 10
2.916760
 20
1.340240
  0
VERTEX
  8
0
  6
CONTINUOUS
 10
2.906200
 20
1.331880
  0
VERTEX
  8
0
  6
CONTINUOUS
 10
2.593800
 20
1.331880
  0
VERTEX
  8
0
  6
CONTINUOUS
 10
2.593800
 20
2.011240
  0
VERTEX
  8
0
  6
CONTINUOUS
 10
5.145800
 20
4.825920
  0
VERTEX
  8
0
  6
CONTINUOUS
 10
5.542680
 20
4.826360
  0
VERTEX
  8
0
  6
CONTINUOUS
 10
5.542680
 20
4.829880
  0
SEQEND
  8
0
  0
TEXT
  8
0
 10
4.269320
 20
1.140480
 40
0.138045
  1
BA  663
 41
1.000000
  7
SN0
 71
     0
 72
     5
 11
4.859908
 21
1.140480
  0
TEXT
  8
0
 10
4.113560
 20
0.949080
 40
0.138045
  1
3/4" x 4-1/2"
 41
1.000000
  7
SN0
 71
     0
 72
     5
 11
5.015413
 21
0.949080
  0
ENDSEC
  0
EOF
