  0
SECTION
  2
HEADER
  9
$ACADVER
  1
AC1006
  9
$EXTMIN
 10
1.674200
 20
0.449680
  9
$EXTMAX
 10
7.791520
 20
7.105120
  9
$LTSCALE
 40
0.044000
  9
$PDMODE
 70
    35
  9
$PDSIZE
 40
0.035200
  0
ENDSEC
  0
SECTION
  2
TABLES
  0
TABLE
  2
LTYPE
 70
     9
  0
LTYPE
  2
CONTINUOUS
 70
    64
  3
Solid line
 72
    65
 73
     0
 40
0.000000
  0
LTYPE
  2
DASHED
 70
    64
  3
__ __ __ __ __ __ __ __ __ __ __ __ __ __ __
 72
    65
 73
     2
 40
0.000330
 49
0.000220
 49
-0.000110
  0
LTYPE
  2
HIDDEN
 70
    64
  3
 _ _ _ _ _ _ _ _ _ _ _ _ _ _ _ _ _ _ _ _ _ _
 72
    65
 73
     2
 40
0.000165
 49
0.000110
 49
-0.000055
  0
LTYPE
  2
CENTER
 70
    64
  3
____ _ ____ _ ____ _ ____ _ ____ _ ____ _ ____
 72
    65
 73
     4
 40
0.000880
 49
0.000550
 49
-0.000110
 49
0.000110
 49
-0.000110
  0
LTYPE
  2
PHANTOM
 70
    64
  3
_____ _ _ _____ _ _ _____ _ _ _____ _ _ ____
 72
    65
 73
     6
 40
0.001100
 49
0.000550
 49
-0.000110
 49
0.000110
 49
-0.000110
 49
0.000110
 49
-0.000110
  0
LTYPE
  2
DOT
 70
    64
  3
...............................................
 72
    65
 73
     2
 40
0.000110
 49
0.000000
 49
-0.000110
  0
LTYPE
  2
DASHDOT
 70
    64
  3
__ . __ . __ . __ . __ . __ . __ . __ . __ . __
 72
    65
 73
     4
 40
0.000440
 49
0.000220
 49
-0.000110
 49
0.000000
 49
-0.000110
  0
LTYPE
  2
BORDER
 70
    64
  3
__ __ . __ __ . __ __ . __ __ . __ __ . __ __
 72
    65
 73
     6
 40
0.000770
 49
0.000220
 49
-0.000110
 49
0.000220
 49
-0.000110
 49
0.000000
 49
-0.000110
  0
LTYPE
  2
DIVIDE
 70
    64
  3
__ . . __ . . __ . . __ . . __ . . __ . . __
 72
    65
 73
     6
 40
0.000550
 49
0.000220
 49
-0.000110
 49
0.000000
 49
-0.000110
 49
0.000000
 49
-0.000110
  0
LTYPE
  2
DOTDOT
 70
    64
  3
 . .  . .  . .  . .  . .  . . 
 72
    65
 73
     5
 40
0.000242
 49
-0.000110
 49
0.000000
 49
-0.000110
 49
0.000000
 49
-0.000110
  0
ENDTAB
  0
TABLE
  2
STYLE
 70
     2
  0
STYLE
 70
     0
  2
SN0
 40
0.000000
 41
0.000440
 50
0.000000
 71
     0
 42
0.000000
  3
ROMAND
  0
STYLE
 70
    68
  2
SV0
 40
0.000000
 41
0.000440
 50
0.000000
 71
     0
 42
0.000000
  3
ROMAND
  0
ENDTAB
  0
TABLE
  2
LAYER
 70
     3
  0
LAYER
  2
FOREGROUND
 70
    64
 62
     7
  6
CONTINUOUS
  0
LAYER
  2
BACKGROUND
 70
    65
 62
    -7
  6
CONTINUOUS
  0
LAYER
  2
0
 70
    64
 62
     7
  6
CONTINUOUS
  0
ENDTAB
  0
ENDSEC
  0
SECTION
  2
ENTITIES
  0
POLYLINE
  8
FOREGROUND
  6
CONTINUOUS
 66
     1
 40
0.000000
 41
0.000000
  0
VERTEX
  8
FOREGROUND
  6
CONTINUOUS
 10
0.000000
 20
7.554800
  0
VERTEX
  8
FOREGROUND
  6
CONTINUOUS
 10
8.499920
 20
7.554800
  0
VERTEX
  8
FOREGROUND
  6
CONTINUOUS
 10
8.499920
 20
-3.445200
  0
VERTEX
  8
FOREGROUND
  6
CONTINUOUS
 10
0.000000
 20
-3.445200
  0
VERTEX
  8
FOREGROUND
  6
CONTINUOUS
 10
0.000000
 20
7.554800
  0
SEQEND
  8
0
  0
POLYLINE
  8
FOREGROUND
  6
CONTINUOUS
 66
     1
 40
0.000000
 41
0.000000
  0
VERTEX
  8
FOREGROUND
  6
CONTINUOUS
 10
0.000000
 20
7.554800
  0
VERTEX
  8
FOREGROUND
  6
CONTINUOUS
 10
8.499920
 20
7.554800
  0
VERTEX
  8
FOREGROUND
  6
CONTINUOUS
 10
8.499920
 20
-3.445200
  0
VERTEX
  8
FOREGROUND
  6
CONTINUOUS
 10
0.000000
 20
-3.445200
  0
VERTEX
  8
FOREGROUND
  6
CONTINUOUS
 10
0.000000
 20
7.554800
  0
SEQEND
  8
0
  0
POLYLINE
  8
0
  6
CONTINUOUS
 66
     1
 40
0.014080
 41
0.014080
  0
VERTEX
  8
0
  6
CONTINUOUS
 10
2.071960
 20
5.991480
  0
VERTEX
  8
0
  6
CONTINUOUS
 10
1.680800
 20
6.594280
  0
VERTEX
  8
0
  6
CONTINUOUS
 10
1.680360
 20
6.593840
  0
VERTEX
  8
0
  6
CONTINUOUS
 10
2.290200
 20
6.989840
  0
VERTEX
  8
0
  6
CONTINUOUS
 10
2.296360
 20
6.992040
  0
VERTEX
  8
0
  6
CONTINUOUS
 10
2.397120
 20
6.934840
  0
VERTEX
  8
0
  6
CONTINUOUS
 10
2.495680
 20
6.883800
  0
VERTEX
  8
0
  6
CONTINUOUS
 10
2.592040
 20
6.838480
  0
VERTEX
  8
0
  6
CONTINUOUS
 10
2.686200
 20
6.798440
  0
VERTEX
  8
0
  6
CONTINUOUS
 10
2.779040
 20
6.764120
  0
VERTEX
  8
0
  6
CONTINUOUS
 10
2.869680
 20
6.734640
  0
VERTEX
  8
0
  6
CONTINUOUS
 10
2.914120
 20
6.721440
  0
VERTEX
  8
0
  6
CONTINUOUS
 10
3.002120
 20
6.699000
  0
VERTEX
  8
0
  6
CONTINUOUS
 10
3.131040
 20
6.673920
  0
VERTEX
  8
0
  6
CONTINUOUS
 10
3.215080
 20
6.662040
  0
VERTEX
  8
0
  6
CONTINUOUS
 10
3.297360
 20
6.654120
  0
VERTEX
  8
0
  6
CONTINUOUS
 10
3.378760
 20
6.649720
  0
VERTEX
  8
0
  6
CONTINUOUS
 10
3.458400
 20
6.648400
  0
VERTEX
  8
0
  6
CONTINUOUS
 10
3.575440
 20
6.652360
  0
VERTEX
  8
0
  6
CONTINUOUS
 10
3.651560
 20
6.658520
  0
VERTEX
  8
0
  6
CONTINUOUS
 10
3.764200
 20
6.672600
  0
VERTEX
  8
0
  6
CONTINUOUS
 10
3.838120
 20
6.684480
  0
VERTEX
  8
0
  6
CONTINUOUS
 10
3.911160
 20
6.698120
  0
VERTEX
  8
0
  6
CONTINUOUS
 10
4.054160
 20
6.730240
  0
VERTEX
  8
0
  6
CONTINUOUS
 10
4.194520
 20
6.767200
  0
VERTEX
  8
0
  6
CONTINUOUS
 10
4.602400
 20
6.884680
  0
VERTEX
  8
0
  6
CONTINUOUS
 10
4.735720
 20
6.919880
  0
VERTEX
  8
0
  6
CONTINUOUS
 10
5.071000
 20
6.996000
  0
VERTEX
  8
0
  6
CONTINUOUS
 10
5.273840
 20
7.037800
  0
VERTEX
  8
0
  6
CONTINUOUS
 10
5.410240
 20
7.061120
  0
VERTEX
  8
0
  6
CONTINUOUS
 10
5.546640
 20
7.080040
  0
VERTEX
  8
0
  6
CONTINUOUS
 10
5.615280
 20
7.087080
  0
VERTEX
  8
0
  6
CONTINUOUS
 10
5.683920
 20
7.092360
  0
VERTEX
  8
0
  6
CONTINUOUS
 10
5.752560
 20
7.095880
  0
VERTEX
  8
0
  6
CONTINUOUS
 10
5.821640
 20
7.097640
  0
VERTEX
  8
0
  6
CONTINUOUS
 10
5.890720
 20
7.096760
  0
VERTEX
  8
0
  6
CONTINUOUS
 10
5.959800
 20
7.093680
  0
VERTEX
  8
0
  6
CONTINUOUS
 10
6.028880
 20
7.088400
  0
VERTEX
  8
0
  6
CONTINUOUS
 10
6.132720
 20
7.074760
  0
VERTEX
  8
0
  6
CONTINUOUS
 10
6.202240
 20
7.062440
  0
VERTEX
  8
0
  6
CONTINUOUS
 10
6.306520
 20
7.037800
  0
VERTEX
  8
0
  6
CONTINUOUS
 10
6.375600
 20
7.017120
  0
VERTEX
  8
0
  6
CONTINUOUS
 10
6.479880
 20
6.979720
  0
VERTEX
  8
0
  6
CONTINUOUS
 10
6.549840
 20
6.949800
  0
VERTEX
  8
0
  6
CONTINUOUS
 10
6.654120
 20
6.898320
  0
VERTEX
  8
0
  6
CONTINUOUS
 10
6.758400
 20
6.837160
  0
VERTEX
  8
0
  6
CONTINUOUS
 10
6.827920
 20
6.790960
  0
VERTEX
  8
0
  6
CONTINUOUS
 10
6.932640
 20
6.713080
  0
VERTEX
  8
0
  6
CONTINUOUS
 10
7.002160
 20
6.655000
  0
VERTEX
  8
0
  6
CONTINUOUS
 10
7.018000
 20
6.660280
  0
VERTEX
  8
0
  6
CONTINUOUS
 10
7.390680
 20
6.902280
  0
VERTEX
  8
0
  6
CONTINUOUS
 10
7.785800
 20
6.294200
  0
VERTEX
  8
0
  6
CONTINUOUS
 10
7.309280
 20
5.985320
  0
VERTEX
  8
0
  6
CONTINUOUS
 10
7.305320
 20
5.981360
  0
VERTEX
  8
0
  6
CONTINUOUS
 10
2.093080
 20
5.983120
  0
VERTEX
  8
0
  6
CONTINUOUS
 10
2.071960
 20
5.991480
  0
SEQEND
  8
0
  0
SOLID
  8
0
 62
    15
 10
4.630560
 20
3.799840
 11
5.286160
 21
3.424080
 12
4.539040
 22
3.524840
 13
5.194640
 23
3.149520
  0
POLYLINE
  8
0
  6
CONTINUOUS
 66
     1
 40
0.000000
 41
0.000000
  0
VERTEX
  8
0
  6
CONTINUOUS
 10
4.630560
 20
3.799840
  0
VERTEX
  8
0
  6
CONTINUOUS
 10
5.286160
 20
3.424080
  0
VERTEX
  8
0
  6
CONTINUOUS
 10
5.194640
 20
3.149520
  0
VERTEX
  8
0
  6
CONTINUOUS
 10
4.539040
 20
3.524840
  0
VERTEX
  8
0
  6
CONTINUOUS
 10
4.630560
 20
3.799840
  0
SEQEND
  8
0
  0
SOLID
  8
0
 62
    15
 10
2.932600
 20
0.840840
 11
3.588640
 21
0.465520
 12
2.207920
 22
0.840840
 13
2.863520
 23
0.465520
  0
POLYLINE
  8
0
  6
CONTINUOUS
 66
     1
 40
0.000000
 41
0.000000
  0
VERTEX
  8
0
  6
CONTINUOUS
 10
2.932600
 20
0.840840
  0
VERTEX
  8
0
  6
CONTINUOUS
 10
3.588640
 20
0.465520
  0
VERTEX
  8
0
  6
CONTINUOUS
 10
2.863520
 20
0.465520
  0
VERTEX
  8
0
  6
CONTINUOUS
 10
2.207920
 20
0.840840
  0
VERTEX
  8
0
  6
CONTINUOUS
 10
2.932600
 20
0.840840
  0
SEQEND
  8
0
  0
SOLID
  8
0
 62
    15
 10
5.784680
 20
5.797000
 11
6.440720
 21
5.421680
 12
5.784680
 22
5.070120
 13
6.440720
 23
4.694360
  0
POLYLINE
  8
0
  6
CONTINUOUS
 66
     1
 40
0.000000
 41
0.000000
  0
VERTEX
  8
0
  6
CONTINUOUS
 10
5.784680
 20
5.797000
  0
VERTEX
  8
0
  6
CONTINUOUS
 10
6.440720
 20
5.421680
  0
VERTEX
  8
0
  6
CONTINUOUS
 10
6.440720
 20
4.694360
  0
VERTEX
  8
0
  6
CONTINUOUS
 10
5.784680
 20
5.070120
  0
VERTEX
  8
0
  6
CONTINUOUS
 10
5.784680
 20
5.797000
  0
SEQEND
  8
0
  0
SOLID
  8
0
 62
    15
 10
5.784680
 20
5.070120
 11
6.440720
 21
4.694360
 12
5.782920
 22
5.062200
 13
6.438520
 23
4.686880
  0
POLYLINE
  8
0
  6
CONTINUOUS
 66
     1
 40
0.000000
 41
0.000000
  0
VERTEX
  8
0
  6
CONTINUOUS
 10
5.784680
 20
5.070120
  0
VERTEX
  8
0
  6
CONTINUOUS
 10
6.440720
 20
4.694360
  0
VERTEX
  8
0
  6
CONTINUOUS
 10
6.438520
 20
4.686880
  0
VERTEX
  8
0
  6
CONTINUOUS
 10
5.782920
 20
5.062200
  0
VERTEX
  8
0
  6
CONTINUOUS
 10
5.784680
 20
5.070120
  0
SEQEND
  8
0
  0
SOLID
  8
0
 62
    15
 10
5.782920
 20
5.062200
 11
6.438520
 21
4.686880
 12
5.583600
 22
4.954400
 13
6.239200
 23
4.579080
  0
POLYLINE
  8
0
  6
CONTINUOUS
 66
     1
 40
0.000000
 41
0.000000
  0
VERTEX
  8
0
  6
CONTINUOUS
 10
5.782920
 20
5.062200
  0
VERTEX
  8
0
  6
CONTINUOUS
 10
6.438520
 20
4.686880
  0
VERTEX
  8
0
  6
CONTINUOUS
 10
6.239200
 20
4.579080
  0
VERTEX
  8
0
  6
CONTINUOUS
 10
5.583600
 20
4.954400
  0
VERTEX
  8
0
  6
CONTINUOUS
 10
5.782920
 20
5.062200
  0
SEQEND
  8
0
  0
SOLID
  8
0
 62
    15
 10
5.583600
 20
4.954400
 11
6.239200
 21
4.579080
 12
5.408040
 22
4.840440
 13
6.063640
 23
4.465120
  0
POLYLINE
  8
0
  6
CONTINUOUS
 66
     1
 40
0.000000
 41
0.000000
  0
VERTEX
  8
0
  6
CONTINUOUS
 10
5.583600
 20
4.954400
  0
VERTEX
  8
0
  6
CONTINUOUS
 10
6.239200
 20
4.579080
  0
VERTEX
  8
0
  6
CONTINUOUS
 10
6.063640
 20
4.465120
  0
VERTEX
  8
0
  6
CONTINUOUS
 10
5.408040
 20
4.840440
  0
VERTEX
  8
0
  6
CONTINUOUS
 10
5.583600
 20
4.954400
  0
SEQEND
  8
0
  0
SOLID
  8
0
 62
    15
 10
5.408040
 20
4.840440
 11
6.063640
 21
4.465120
 12
5.254480
 22
4.722080
 13
5.910080
 23
4.346320
  0
POLYLINE
  8
0
  6
CONTINUOUS
 66
     1
 40
0.000000
 41
0.000000
  0
VERTEX
  8
0
  6
CONTINUOUS
 10
5.408040
 20
4.840440
  0
VERTEX
  8
0
  6
CONTINUOUS
 10
6.063640
 20
4.465120
  0
VERTEX
  8
0
  6
CONTINUOUS
 10
5.910080
 20
4.346320
  0
VERTEX
  8
0
  6
CONTINUOUS
 10
5.254480
 20
4.722080
  0
VERTEX
  8
0
  6
CONTINUOUS
 10
5.408040
 20
4.840440
  0
SEQEND
  8
0
  0
SOLID
  8
0
 62
    15
 10
5.254480
 20
4.722080
 11
5.910080
 21
4.346320
 12
5.121160
 22
4.598880
 13
5.776760
 23
4.223120
  0
POLYLINE
  8
0
  6
CONTINUOUS
 66
     1
 40
0.000000
 41
0.000000
  0
VERTEX
  8
0
  6
CONTINUOUS
 10
5.254480
 20
4.722080
  0
VERTEX
  8
0
  6
CONTINUOUS
 10
5.910080
 20
4.346320
  0
VERTEX
  8
0
  6
CONTINUOUS
 10
5.776760
 20
4.223120
  0
VERTEX
  8
0
  6
CONTINUOUS
 10
5.121160
 20
4.598880
  0
VERTEX
  8
0
  6
CONTINUOUS
 10
5.254480
 20
4.722080
  0
SEQEND
  8
0
  0
SOLID
  8
0
 62
    15
 10
5.121160
 20
4.598880
 11
5.776760
 21
4.223120
 12
4.906000
 22
4.341480
 13
5.561600
 23
3.966160
  0
POLYLINE
  8
0
  6
CONTINUOUS
 66
     1
 40
0.000000
 41
0.000000
  0
VERTEX
  8
0
  6
CONTINUOUS
 10
5.121160
 20
4.598880
  0
VERTEX
  8
0
  6
CONTINUOUS
 10
5.776760
 20
4.223120
  0
VERTEX
  8
0
  6
CONTINUOUS
 10
5.561600
 20
3.966160
  0
VERTEX
  8
0
  6
CONTINUOUS
 10
4.906000
 20
4.341480
  0
VERTEX
  8
0
  6
CONTINUOUS
 10
5.121160
 20
4.598880
  0
SEQEND
  8
0
  0
SOLID
  8
0
 62
    15
 10
4.906000
 20
4.341480
 11
5.561600
 21
3.966160
 12
4.748040
 22
4.073520
 13
5.403640
 23
3.698200
  0
POLYLINE
  8
0
  6
CONTINUOUS
 66
     1
 40
0.000000
 41
0.000000
  0
VERTEX
  8
0
  6
CONTINUOUS
 10
4.906000
 20
4.341480
  0
VERTEX
  8
0
  6
CONTINUOUS
 10
5.561600
 20
3.966160
  0
VERTEX
  8
0
  6
CONTINUOUS
 10
5.403640
 20
3.698200
  0
VERTEX
  8
0
  6
CONTINUOUS
 10
4.748040
 20
4.073520
  0
VERTEX
  8
0
  6
CONTINUOUS
 10
4.906000
 20
4.341480
  0
SEQEND
  8
0
  0
SOLID
  8
0
 62
    15
 10
4.748040
 20
4.073520
 11
5.403640
 21
3.698200
 12
4.630560
 22
3.799840
 13
5.286160
 23
3.424080
  0
POLYLINE
  8
0
  6
CONTINUOUS
 66
     1
 40
0.000000
 41
0.000000
  0
VERTEX
  8
0
  6
CONTINUOUS
 10
4.748040
 20
4.073520
  0
VERTEX
  8
0
  6
CONTINUOUS
 10
5.403640
 20
3.698200
  0
VERTEX
  8
0
  6
CONTINUOUS
 10
5.286160
 20
3.424080
  0
VERTEX
  8
0
  6
CONTINUOUS
 10
4.630560
 20
3.799840
  0
VERTEX
  8
0
  6
CONTINUOUS
 10
4.748040
 20
4.073520
  0
SEQEND
  8
0
  0
SOLID
  8
0
 62
    15
 10
2.932600
 20
1.284360
 11
3.588640
 21
0.909040
 12
2.932600
 22
0.840840
 13
3.588640
 23
0.465520
  0
POLYLINE
  8
0
  6
CONTINUOUS
 66
     1
 40
0.000000
 41
0.000000
  0
VERTEX
  8
0
  6
CONTINUOUS
 10
2.932600
 20
1.284360
  0
VERTEX
  8
0
  6
CONTINUOUS
 10
3.588640
 20
0.909040
  0
VERTEX
  8
0
  6
CONTINUOUS
 10
3.588640
 20
0.465520
  0
VERTEX
  8
0
  6
CONTINUOUS
 10
2.932600
 20
0.840840
  0
VERTEX
  8
0
  6
CONTINUOUS
 10
2.932600
 20
1.284360
  0
SEQEND
  8
0
  0
SOLID
  8
0
 62
    15
 10
4.539040
 20
3.524840
 11
5.194640
 21
3.149520
 12
4.370520
 22
2.991560
 13
5.026120
 23
2.616240
  0
POLYLINE
  8
0
  6
CONTINUOUS
 66
     1
 40
0.000000
 41
0.000000
  0
VERTEX
  8
0
  6
CONTINUOUS
 10
4.539040
 20
3.524840
  0
VERTEX
  8
0
  6
CONTINUOUS
 10
5.194640
 20
3.149520
  0
VERTEX
  8
0
  6
CONTINUOUS
 10
5.026120
 20
2.616240
  0
VERTEX
  8
0
  6
CONTINUOUS
 10
4.370520
 20
2.991560
  0
VERTEX
  8
0
  6
CONTINUOUS
 10
4.539040
 20
3.524840
  0
SEQEND
  8
0
  0
SOLID
  8
0
 62
    15
 10
4.370520
 20
2.991560
 11
5.026120
 21
2.616240
 12
4.172520
 22
2.476760
 13
4.828120
 23
2.101440
  0
POLYLINE
  8
0
  6
CONTINUOUS
 66
     1
 40
0.000000
 41
0.000000
  0
VERTEX
  8
0
  6
CONTINUOUS
 10
4.370520
 20
2.991560
  0
VERTEX
  8
0
  6
CONTINUOUS
 10
5.026120
 20
2.616240
  0
VERTEX
  8
0
  6
CONTINUOUS
 10
4.828120
 20
2.101440
  0
VERTEX
  8
0
  6
CONTINUOUS
 10
4.172520
 20
2.476760
  0
VERTEX
  8
0
  6
CONTINUOUS
 10
4.370520
 20
2.991560
  0
SEQEND
  8
0
  0
SOLID
  8
0
 62
    15
 10
4.172520
 20
2.476760
 11
4.828120
 21
2.101440
 12
4.054600
 22
2.227280
 13
4.710640
 23
1.851960
  0
POLYLINE
  8
0
  6
CONTINUOUS
 66
     1
 40
0.000000
 41
0.000000
  0
VERTEX
  8
0
  6
CONTINUOUS
 10
4.172520
 20
2.476760
  0
VERTEX
  8
0
  6
CONTINUOUS
 10
4.828120
 20
2.101440
  0
VERTEX
  8
0
  6
CONTINUOUS
 10
4.710640
 20
1.851960
  0
VERTEX
  8
0
  6
CONTINUOUS
 10
4.054600
 20
2.227280
  0
VERTEX
  8
0
  6
CONTINUOUS
 10
4.172520
 20
2.476760
  0
SEQEND
  8
0
  0
SOLID
  8
0
 62
    15
 10
4.054600
 20
2.227280
 11
4.710640
 21
1.851960
 12
3.912920
 22
1.991000
 13
4.568520
 23
1.615680
  0
POLYLINE
  8
0
  6
CONTINUOUS
 66
     1
 40
0.000000
 41
0.000000
  0
VERTEX
  8
0
  6
CONTINUOUS
 10
4.054600
 20
2.227280
  0
VERTEX
  8
0
  6
CONTINUOUS
 10
4.710640
 20
1.851960
  0
VERTEX
  8
0
  6
CONTINUOUS
 10
4.568520
 20
1.615680
  0
VERTEX
  8
0
  6
CONTINUOUS
 10
3.912920
 20
1.991000
  0
VERTEX
  8
0
  6
CONTINUOUS
 10
4.054600
 20
2.227280
  0
SEQEND
  8
0
  0
SOLID
  8
0
 62
    15
 10
3.912920
 20
1.991000
 11
4.568520
 21
1.615680
 12
3.738680
 22
1.774080
 13
4.394280
 23
1.398760
  0
POLYLINE
  8
0
  6
CONTINUOUS
 66
     1
 40
0.000000
 41
0.000000
  0
VERTEX
  8
0
  6
CONTINUOUS
 10
3.912920
 20
1.991000
  0
VERTEX
  8
0
  6
CONTINUOUS
 10
4.568520
 20
1.615680
  0
VERTEX
  8
0
  6
CONTINUOUS
 10
4.394280
 20
1.398760
  0
VERTEX
  8
0
  6
CONTINUOUS
 10
3.738680
 20
1.774080
  0
VERTEX
  8
0
  6
CONTINUOUS
 10
3.912920
 20
1.991000
  0
SEQEND
  8
0
  0
SOLID
  8
0
 62
    15
 10
3.738680
 20
1.774080
 11
4.394280
 21
1.398760
 12
3.523960
 22
1.582240
 13
4.179560
 23
1.206920
  0
POLYLINE
  8
0
  6
CONTINUOUS
 66
     1
 40
0.000000
 41
0.000000
  0
VERTEX
  8
0
  6
CONTINUOUS
 10
3.738680
 20
1.774080
  0
VERTEX
  8
0
  6
CONTINUOUS
 10
4.394280
 20
1.398760
  0
VERTEX
  8
0
  6
CONTINUOUS
 10
4.179560
 20
1.206920
  0
VERTEX
  8
0
  6
CONTINUOUS
 10
3.523960
 20
1.582240
  0
VERTEX
  8
0
  6
CONTINUOUS
 10
3.738680
 20
1.774080
  0
SEQEND
  8
0
  0
SOLID
  8
0
 62
    15
 10
3.523960
 20
1.582240
 11
4.179560
 21
1.206920
 12
3.259080
 22
1.422080
 13
3.915120
 23
1.046760
  0
POLYLINE
  8
0
  6
CONTINUOUS
 66
     1
 40
0.000000
 41
0.000000
  0
VERTEX
  8
0
  6
CONTINUOUS
 10
3.523960
 20
1.582240
  0
VERTEX
  8
0
  6
CONTINUOUS
 10
4.179560
 20
1.206920
  0
VERTEX
  8
0
  6
CONTINUOUS
 10
3.915120
 20
1.046760
  0
VERTEX
  8
0
  6
CONTINUOUS
 10
3.259080
 20
1.422080
  0
VERTEX
  8
0
  6
CONTINUOUS
 10
3.523960
 20
1.582240
  0
SEQEND
  8
0
  0
SOLID
  8
0
 62
    15
 10
3.259080
 20
1.422080
 11
3.915120
 21
1.046760
 12
3.105960
 22
1.355640
 13
3.761560
 23
0.980320
  0
POLYLINE
  8
0
  6
CONTINUOUS
 66
     1
 40
0.000000
 41
0.000000
  0
VERTEX
  8
0
  6
CONTINUOUS
 10
3.259080
 20
1.422080
  0
VERTEX
  8
0
  6
CONTINUOUS
 10
3.915120
 20
1.046760
  0
VERTEX
  8
0
  6
CONTINUOUS
 10
3.761560
 20
0.980320
  0
VERTEX
  8
0
  6
CONTINUOUS
 10
3.105960
 20
1.355640
  0
VERTEX
  8
0
  6
CONTINUOUS
 10
3.259080
 20
1.422080
  0
SEQEND
  8
0
  0
SOLID
  8
0
 62
    15
 10
3.105960
 20
1.355640
 11
3.761560
 21
0.980320
 12
2.937000
 22
1.299320
 13
3.592600
 23
0.924000
  0
POLYLINE
  8
0
  6
CONTINUOUS
 66
     1
 40
0.000000
 41
0.000000
  0
VERTEX
  8
0
  6
CONTINUOUS
 10
3.105960
 20
1.355640
  0
VERTEX
  8
0
  6
CONTINUOUS
 10
3.761560
 20
0.980320
  0
VERTEX
  8
0
  6
CONTINUOUS
 10
3.592600
 20
0.924000
  0
VERTEX
  8
0
  6
CONTINUOUS
 10
2.937000
 20
1.299320
  0
VERTEX
  8
0
  6
CONTINUOUS
 10
3.105960
 20
1.355640
  0
SEQEND
  8
0
  0
SOLID
  8
0
 62
    15
 10
2.937000
 20
1.299320
 11
3.592600
 21
0.924000
 12
2.932600
 22
1.284360
 13
3.588640
 23
0.909040
  0
POLYLINE
  8
0
  6
CONTINUOUS
 66
     1
 40
0.000000
 41
0.000000
  0
VERTEX
  8
0
  6
CONTINUOUS
 10
2.937000
 20
1.299320
  0
VERTEX
  8
0
  6
CONTINUOUS
 10
3.592600
 20
0.924000
  0
VERTEX
  8
0
  6
CONTINUOUS
 10
3.588640
 20
0.909040
  0
VERTEX
  8
0
  6
CONTINUOUS
 10
2.932600
 20
1.284360
  0
VERTEX
  8
0
  6
CONTINUOUS
 10
2.937000
 20
1.299320
  0
SEQEND
  8
0
  0
POLYLINE
  8
0
  6
CONTINUOUS
 66
     1
 40
0.000000
 41
0.000000
  0
VERTEX
  8
0
  6
CONTINUOUS
 10
2.932600
 20
1.284360
  0
VERTEX
  8
0
  6
CONTINUOUS
 10
2.932600
 20
0.840840
  0
VERTEX
  8
0
  6
CONTINUOUS
 10
2.207920
 20
0.840840
  0
VERTEX
  8
0
  6
CONTINUOUS
 10
2.207920
 20
1.413720
  0
VERTEX
  8
0
  6
CONTINUOUS
 10
5.066160
 20
5.797000
  0
VERTEX
  8
0
  6
CONTINUOUS
 10
5.784680
 20
5.797000
  0
VERTEX
  8
0
  6
CONTINUOUS
 10
5.784680
 20
5.070120
  0
VERTEX
  8
0
  6
CONTINUOUS
 10
5.782920
 20
5.062200
  0
VERTEX
  8
0
  6
CONTINUOUS
 10
5.583600
 20
4.954400
  0
VERTEX
  8
0
  6
CONTINUOUS
 10
5.408040
 20
4.840440
  0
VERTEX
  8
0
  6
CONTINUOUS
 10
5.254480
 20
4.722080
  0
VERTEX
  8
0
  6
CONTINUOUS
 10
5.121160
 20
4.598880
  0
VERTEX
  8
0
  6
CONTINUOUS
 10
4.906000
 20
4.341480
  0
VERTEX
  8
0
  6
CONTINUOUS
 10
4.748040
 20
4.073520
  0
VERTEX
  8
0
  6
CONTINUOUS
 10
4.630560
 20
3.799840
  0
VERTEX
  8
0
  6
CONTINUOUS
 10
4.539040
 20
3.524840
  0
VERTEX
  8
0
  6
CONTINUOUS
 10
4.370520
 20
2.991560
  0
VERTEX
  8
0
  6
CONTINUOUS
 10
4.172520
 20
2.476760
  0
VERTEX
  8
0
  6
CONTINUOUS
 10
4.054600
 20
2.227280
  0
VERTEX
  8
0
  6
CONTINUOUS
 10
3.912920
 20
1.991000
  0
VERTEX
  8
0
  6
CONTINUOUS
 10
3.738680
 20
1.774080
  0
VERTEX
  8
0
  6
CONTINUOUS
 10
3.523960
 20
1.582240
  0
VERTEX
  8
0
  6
CONTINUOUS
 10
3.259080
 20
1.422080
  0
VERTEX
  8
0
  6
CONTINUOUS
 10
3.105960
 20
1.355640
  0
VERTEX
  8
0
  6
CONTINUOUS
 10
2.937000
 20
1.299320
  0
VERTEX
  8
0
  6
CONTINUOUS
 10
2.932600
 20
1.284360
  0
SEQEND
  8
0
  0
TEXT
  8
0
 10
4.572920
 20
0.684640
 40
0.138189
  1
BA  662
 41
1.000000
  7
SN0
 71
     0
 72
     5
 11
5.162592
 21
0.684640
  0
TEXT
  8
0
 10
4.343240
 20
0.492800
 40
0.138189
  1
1-1/8" x 6-1/8"
 41
1.000000
  7
SN0
 71
     0
 72
     5
 11
5.390806
 21
0.492800
  0
ENDSEC
  0
EOF
