  0
SECTION
  2
HEADER
  9
$ACADVER
  1
AC1006
  9
$EXTMIN
 10
1.242120
 20
0.926640
  9
$EXTMAX
 10
7.784920
 20
5.183640
  9
$LTSCALE
 40
0.044000
  9
$PDMODE
 70
    35
  9
$PDSIZE
 40
0.035200
  0
ENDSEC
  0
SECTION
  2
TABLES
  0
TABLE
  2
LTYPE
 70
     9
  0
LTYPE
  2
CONTINUOUS
 70
    64
  3
Solid line
 72
    65
 73
     0
 40
0.000000
  0
LTYPE
  2
DASHED
 70
    64
  3
__ __ __ __ __ __ __ __ __ __ __ __ __ __ __
 72
    65
 73
     2
 40
0.000330
 49
0.000220
 49
-0.000110
  0
LTYPE
  2
HIDDEN
 70
    64
  3
 _ _ _ _ _ _ _ _ _ _ _ _ _ _ _ _ _ _ _ _ _ _
 72
    65
 73
     2
 40
0.000165
 49
0.000110
 49
-0.000055
  0
LTYPE
  2
CENTER
 70
    64
  3
____ _ ____ _ ____ _ ____ _ ____ _ ____ _ ____
 72
    65
 73
     4
 40
0.000880
 49
0.000550
 49
-0.000110
 49
0.000110
 49
-0.000110
  0
LTYPE
  2
PHANTOM
 70
    64
  3
_____ _ _ _____ _ _ _____ _ _ _____ _ _ ____
 72
    65
 73
     6
 40
0.001100
 49
0.000550
 49
-0.000110
 49
0.000110
 49
-0.000110
 49
0.000110
 49
-0.000110
  0
LTYPE
  2
DOT
 70
    64
  3
...............................................
 72
    65
 73
     2
 40
0.000110
 49
0.000000
 49
-0.000110
  0
LTYPE
  2
DASHDOT
 70
    64
  3
__ . __ . __ . __ . __ . __ . __ . __ . __ . __
 72
    65
 73
     4
 40
0.000440
 49
0.000220
 49
-0.000110
 49
0.000000
 49
-0.000110
  0
LTYPE
  2
BORDER
 70
    64
  3
__ __ . __ __ . __ __ . __ __ . __ __ . __ __
 72
    65
 73
     6
 40
0.000770
 49
0.000220
 49
-0.000110
 49
0.000220
 49
-0.000110
 49
0.000000
 49
-0.000110
  0
LTYPE
  2
DIVIDE
 70
    64
  3
__ . . __ . . __ . . __ . . __ . . __ . . __
 72
    65
 73
     6
 40
0.000550
 49
0.000220
 49
-0.000110
 49
0.000000
 49
-0.000110
 49
0.000000
 49
-0.000110
  0
LTYPE
  2
DOTDOT
 70
    64
  3
 . .  . .  . .  . .  . .  . . 
 72
    65
 73
     5
 40
0.000242
 49
-0.000110
 49
0.000000
 49
-0.000110
 49
0.000000
 49
-0.000110
  0
ENDTAB
  0
TABLE
  2
STYLE
 70
     2
  0
STYLE
 70
     0
  2
SN0
 40
0.000000
 41
0.000440
 50
0.000000
 71
     0
 42
0.000000
  3
ROMAND
  0
STYLE
 70
    68
  2
SV0
 40
0.000000
 41
0.000440
 50
0.000000
 71
     0
 42
0.000000
  3
ROMAND
  0
ENDTAB
  0
TABLE
  2
LAYER
 70
     3
  0
LAYER
  2
FOREGROUND
 70
    64
 62
     7
  6
CONTINUOUS
  0
LAYER
  2
BACKGROUND
 70
    65
 62
    -7
  6
CONTINUOUS
  0
LAYER
  2
0
 70
    64
 62
     7
  6
CONTINUOUS
  0
ENDTAB
  0
ENDSEC
  0
SECTION
  2
ENTITIES
  0
POLYLINE
  8
FOREGROUND
  6
CONTINUOUS
 66
     1
 40
0.000000
 41
0.000000
  0
VERTEX
  8
FOREGROUND
  6
CONTINUOUS
 10
0.000000
 20
6.110280
  0
VERTEX
  8
FOREGROUND
  6
CONTINUOUS
 10
8.499920
 20
6.110280
  0
VERTEX
  8
FOREGROUND
  6
CONTINUOUS
 10
8.499920
 20
-4.889720
  0
VERTEX
  8
FOREGROUND
  6
CONTINUOUS
 10
0.000000
 20
-4.889720
  0
VERTEX
  8
FOREGROUND
  6
CONTINUOUS
 10
0.000000
 20
6.110280
  0
SEQEND
  8
0
  0
POLYLINE
  8
FOREGROUND
  6
CONTINUOUS
 66
     1
 40
0.000000
 41
0.000000
  0
VERTEX
  8
FOREGROUND
  6
CONTINUOUS
 10
0.000000
 20
6.110280
  0
VERTEX
  8
FOREGROUND
  6
CONTINUOUS
 10
8.499920
 20
6.110280
  0
VERTEX
  8
FOREGROUND
  6
CONTINUOUS
 10
8.499920
 20
-4.889720
  0
VERTEX
  8
FOREGROUND
  6
CONTINUOUS
 10
0.000000
 20
-4.889720
  0
VERTEX
  8
FOREGROUND
  6
CONTINUOUS
 10
0.000000
 20
6.110280
  0
SEQEND
  8
0
  0
POLYLINE
  8
0
  6
CONTINUOUS
 66
     1
 40
0.014080
 41
0.014080
  0
VERTEX
  8
0
  6
CONTINUOUS
 10
7.467240
 20
4.007080
  0
VERTEX
  8
0
  6
CONTINUOUS
 10
7.467240
 20
3.926120
  0
VERTEX
  8
0
  6
CONTINUOUS
 10
1.546160
 20
3.926120
  0
VERTEX
  8
0
  6
CONTINUOUS
 10
1.546160
 20
5.175720
  0
VERTEX
  8
0
  6
CONTINUOUS
 10
2.704680
 20
5.175720
  0
VERTEX
  8
0
  6
CONTINUOUS
 10
2.704680
 20
4.955280
  0
VERTEX
  8
0
  6
CONTINUOUS
 10
2.710840
 20
4.955280
  0
VERTEX
  8
0
  6
CONTINUOUS
 10
2.820400
 20
5.003680
  0
VERTEX
  8
0
  6
CONTINUOUS
 10
2.925120
 20
5.045480
  0
VERTEX
  8
0
  6
CONTINUOUS
 10
3.025000
 20
5.080680
  0
VERTEX
  8
0
  6
CONTINUOUS
 10
3.120480
 20
5.110160
  0
VERTEX
  8
0
  6
CONTINUOUS
 10
3.212440
 20
5.133480
  0
VERTEX
  8
0
  6
CONTINUOUS
 10
3.300880
 20
5.150640
  0
VERTEX
  8
0
  6
CONTINUOUS
 10
3.386240
 20
5.162080
  0
VERTEX
  8
0
  6
CONTINUOUS
 10
3.442120
 20
5.166480
  0
VERTEX
  8
0
  6
CONTINUOUS
 10
3.497120
 20
5.168240
  0
VERTEX
  8
0
  6
CONTINUOUS
 10
3.578080
 20
5.166920
  0
VERTEX
  8
0
  6
CONTINUOUS
 10
3.631320
 20
5.162520
  0
VERTEX
  8
0
  6
CONTINUOUS
 10
3.684560
 20
5.156360
  0
VERTEX
  8
0
  6
CONTINUOUS
 10
3.736920
 20
5.147560
  0
VERTEX
  8
0
  6
CONTINUOUS
 10
3.789720
 20
5.136560
  0
VERTEX
  8
0
  6
CONTINUOUS
 10
3.842520
 20
5.122920
  0
VERTEX
  8
0
  6
CONTINUOUS
 10
3.894880
 20
5.107520
  0
VERTEX
  8
0
  6
CONTINUOUS
 10
3.948120
 20
5.089920
  0
VERTEX
  8
0
  6
CONTINUOUS
 10
4.001800
 20
5.070120
  0
VERTEX
  8
0
  6
CONTINUOUS
 10
4.110920
 20
5.024360
  0
VERTEX
  8
0
  6
CONTINUOUS
 10
4.223560
 20
4.970240
  0
VERTEX
  8
0
  6
CONTINUOUS
 10
4.340600
 20
4.908640
  0
VERTEX
  8
0
  6
CONTINUOUS
 10
4.463800
 20
4.839560
  0
VERTEX
  8
0
  6
CONTINUOUS
 10
4.631000
 20
4.742320
  0
VERTEX
  8
0
  6
CONTINUOUS
 10
4.709320
 20
4.702280
  0
VERTEX
  8
0
  6
CONTINUOUS
 10
4.792480
 20
4.665320
  0
VERTEX
  8
0
  6
CONTINUOUS
 10
4.879160
 20
4.631440
  0
VERTEX
  8
0
  6
CONTINUOUS
 10
4.969800
 20
4.600640
  0
VERTEX
  8
0
  6
CONTINUOUS
 10
5.062200
 20
4.572920
  0
VERTEX
  8
0
  6
CONTINUOUS
 10
5.204320
 20
4.536400
  0
VERTEX
  8
0
  6
CONTINUOUS
 10
5.347760
 20
4.505600
  0
VERTEX
  8
0
  6
CONTINUOUS
 10
5.489880
 20
4.480960
  0
VERTEX
  8
0
  6
CONTINUOUS
 10
5.582280
 20
4.466880
  0
VERTEX
  8
0
  6
CONTINUOUS
 10
5.716480
 20
4.450600
  0
VERTEX
  8
0
  6
CONTINUOUS
 10
5.841880
 20
4.438720
  0
VERTEX
  8
0
  6
CONTINUOUS
 10
5.956720
 20
4.431680
  0
VERTEX
  8
0
  6
CONTINUOUS
 10
5.991920
 20
4.429920
  0
VERTEX
  8
0
  6
CONTINUOUS
 10
6.000280
 20
4.434320
  0
VERTEX
  8
0
  6
CONTINUOUS
 10
6.015240
 20
4.484920
  0
VERTEX
  8
0
  6
CONTINUOUS
 10
6.034600
 20
4.531120
  0
VERTEX
  8
0
  6
CONTINUOUS
 10
6.050000
 20
4.559720
  0
VERTEX
  8
0
  6
CONTINUOUS
 10
6.067600
 20
4.586560
  0
VERTEX
  8
0
  6
CONTINUOUS
 10
6.086520
 20
4.611200
  0
VERTEX
  8
0
  6
CONTINUOUS
 10
6.106760
 20
4.634520
  0
VERTEX
  8
0
  6
CONTINUOUS
 10
6.128760
 20
4.655640
  0
VERTEX
  8
0
  6
CONTINUOUS
 10
6.152080
 20
4.675000
  0
VERTEX
  8
0
  6
CONTINUOUS
 10
6.176280
 20
4.692600
  0
VERTEX
  8
0
  6
CONTINUOUS
 10
6.228200
 20
4.722080
  0
VERTEX
  8
0
  6
CONTINUOUS
 10
6.255040
 20
4.733520
  0
VERTEX
  8
0
  6
CONTINUOUS
 10
6.283200
 20
4.743640
  0
VERTEX
  8
0
  6
CONTINUOUS
 10
6.311360
 20
4.751560
  0
VERTEX
  8
0
  6
CONTINUOUS
 10
6.340400
 20
4.757720
  0
VERTEX
  8
0
  6
CONTINUOUS
 10
6.369440
 20
4.761680
  0
VERTEX
  8
0
  6
CONTINUOUS
 10
6.398480
 20
4.763880
  0
VERTEX
  8
0
  6
CONTINUOUS
 10
6.427960
 20
4.764320
  0
VERTEX
  8
0
  6
CONTINUOUS
 10
6.457000
 20
4.762560
  0
VERTEX
  8
0
  6
CONTINUOUS
 10
6.486040
 20
4.758600
  0
VERTEX
  8
0
  6
CONTINUOUS
 10
6.514640
 20
4.752880
  0
VERTEX
  8
0
  6
CONTINUOUS
 10
6.543240
 20
4.745400
  0
VERTEX
  8
0
  6
CONTINUOUS
 10
6.597800
 20
4.723840
  0
VERTEX
  8
0
  6
CONTINUOUS
 10
6.649280
 20
4.694360
  0
VERTEX
  8
0
  6
CONTINUOUS
 10
6.673480
 20
4.676320
  0
VERTEX
  8
0
  6
CONTINUOUS
 10
6.707360
 20
4.645520
  0
VERTEX
  8
0
  6
CONTINUOUS
 10
6.738160
 20
4.610320
  0
VERTEX
  8
0
  6
CONTINUOUS
 10
6.788760
 20
4.538600
  0
VERTEX
  8
0
  6
CONTINUOUS
 10
6.827920
 20
4.492400
  0
VERTEX
  8
0
  6
CONTINUOUS
 10
6.872800
 20
4.447960
  0
VERTEX
  8
0
  6
CONTINUOUS
 10
6.897440
 20
4.426400
  0
VERTEX
  8
0
  6
CONTINUOUS
 10
6.950240
 20
4.387680
  0
VERTEX
  8
0
  6
CONTINUOUS
 10
7.007880
 20
4.355560
  0
VERTEX
  8
0
  6
CONTINUOUS
 10
7.054080
 20
4.337080
  0
VERTEX
  8
0
  6
CONTINUOUS
 10
7.102040
 20
4.324320
  0
VERTEX
  8
0
  6
CONTINUOUS
 10
7.152200
 20
4.318160
  0
VERTEX
  8
0
  6
CONTINUOUS
 10
7.169360
 20
4.317720
  0
VERTEX
  8
0
  6
CONTINUOUS
 10
7.173320
 20
4.315520
  0
VERTEX
  8
0
  6
CONTINUOUS
 10
7.175080
 20
4.345880
  0
VERTEX
  8
0
  6
CONTINUOUS
 10
7.179480
 20
4.375800
  0
VERTEX
  8
0
  6
CONTINUOUS
 10
7.191800
 20
4.418480
  0
VERTEX
  8
0
  6
CONTINUOUS
 10
7.210280
 20
4.458520
  0
VERTEX
  8
0
  6
CONTINUOUS
 10
7.234040
 20
4.495040
  0
VERTEX
  8
0
  6
CONTINUOUS
 10
7.262640
 20
4.528040
  0
VERTEX
  8
0
  6
CONTINUOUS
 10
7.295640
 20
4.556640
  0
VERTEX
  8
0
  6
CONTINUOUS
 10
7.319840
 20
4.573360
  0
VERTEX
  8
0
  6
CONTINUOUS
 10
7.359000
 20
4.593160
  0
VERTEX
  8
0
  6
CONTINUOUS
 10
7.386720
 20
4.603720
  0
VERTEX
  8
0
  6
CONTINUOUS
 10
7.415320
 20
4.611200
  0
VERTEX
  8
0
  6
CONTINUOUS
 10
7.460200
 20
4.616920
  0
VERTEX
  8
0
  6
CONTINUOUS
 10
7.491000
 20
4.616920
  0
VERTEX
  8
0
  6
CONTINUOUS
 10
7.535880
 20
4.611200
  0
VERTEX
  8
0
  6
CONTINUOUS
 10
7.578560
 20
4.598880
  0
VERTEX
  8
0
  6
CONTINUOUS
 10
7.618600
 20
4.580400
  0
VERTEX
  8
0
  6
CONTINUOUS
 10
7.643240
 20
4.565440
  0
VERTEX
  8
0
  6
CONTINUOUS
 10
7.677560
 20
4.538160
  0
VERTEX
  8
0
  6
CONTINUOUS
 10
7.707920
 20
4.506480
  0
VERTEX
  8
0
  6
CONTINUOUS
 10
7.733440
 20
4.471280
  0
VERTEX
  8
0
  6
CONTINUOUS
 10
7.753240
 20
4.432120
  0
VERTEX
  8
0
  6
CONTINUOUS
 10
7.763800
 20
4.404400
  0
VERTEX
  8
0
  6
CONTINUOUS
 10
7.771280
 20
4.375800
  0
VERTEX
  8
0
  6
CONTINUOUS
 10
7.777000
 20
4.330920
  0
VERTEX
  8
0
  6
CONTINUOUS
 10
7.777000
 20
4.300120
  0
VERTEX
  8
0
  6
CONTINUOUS
 10
7.771280
 20
4.255240
  0
VERTEX
  8
0
  6
CONTINUOUS
 10
7.758960
 20
4.212560
  0
VERTEX
  8
0
  6
CONTINUOUS
 10
7.740480
 20
4.172520
  0
VERTEX
  8
0
  6
CONTINUOUS
 10
7.725520
 20
4.147440
  0
VERTEX
  8
0
  6
CONTINUOUS
 10
7.698240
 20
4.113120
  0
VERTEX
  8
0
  6
CONTINUOUS
 10
7.666560
 20
4.083200
  0
VERTEX
  8
0
  6
CONTINUOUS
 10
7.631360
 20
4.057680
  0
VERTEX
  8
0
  6
CONTINUOUS
 10
7.592200
 20
4.037440
  0
VERTEX
  8
0
  6
CONTINUOUS
 10
7.564480
 20
4.026880
  0
VERTEX
  8
0
  6
CONTINUOUS
 10
7.535880
 20
4.019400
  0
VERTEX
  8
0
  6
CONTINUOUS
 10
7.491000
 20
4.013680
  0
VERTEX
  8
0
  6
CONTINUOUS
 10
7.475600
 20
4.013240
  0
VERTEX
  8
0
  6
CONTINUOUS
 10
7.467240
 20
4.007080
  0
SEQEND
  8
0
  0
SOLID
  8
0
 62
    15
 10
5.873120
 20
2.213200
 11
5.878840
 21
2.954600
 12
5.924600
 22
2.242240
 13
5.930320
 23
2.984080
  0
POLYLINE
  8
0
  6
CONTINUOUS
 66
     1
 40
0.000000
 41
0.000000
  0
VERTEX
  8
0
  6
CONTINUOUS
 10
5.873120
 20
2.213200
  0
VERTEX
  8
0
  6
CONTINUOUS
 10
5.878840
 20
2.954600
  0
VERTEX
  8
0
  6
CONTINUOUS
 10
5.930320
 20
2.984080
  0
VERTEX
  8
0
  6
CONTINUOUS
 10
5.924600
 20
2.242240
  0
VERTEX
  8
0
  6
CONTINUOUS
 10
5.873120
 20
2.213200
  0
SEQEND
  8
0
  0
SOLID
  8
0
 62
    15
 10
1.243000
 20
2.696320
 11
1.248720
 21
3.438160
 12
2.401080
 22
2.696320
 13
2.406800
 23
3.438160
  0
POLYLINE
  8
0
  6
CONTINUOUS
 66
     1
 40
0.000000
 41
0.000000
  0
VERTEX
  8
0
  6
CONTINUOUS
 10
1.243000
 20
2.696320
  0
VERTEX
  8
0
  6
CONTINUOUS
 10
1.248720
 20
3.438160
  0
VERTEX
  8
0
  6
CONTINUOUS
 10
2.406800
 20
3.438160
  0
VERTEX
  8
0
  6
CONTINUOUS
 10
2.401080
 20
2.696320
  0
VERTEX
  8
0
  6
CONTINUOUS
 10
1.243000
 20
2.696320
  0
SEQEND
  8
0
  0
SOLID
  8
0
 62
    15
 10
2.401080
 20
2.696320
 11
2.406800
 21
3.438160
 12
2.401080
 22
2.475440
 13
2.406800
 23
3.217280
  0
POLYLINE
  8
0
  6
CONTINUOUS
 66
     1
 40
0.000000
 41
0.000000
  0
VERTEX
  8
0
  6
CONTINUOUS
 10
2.401080
 20
2.696320
  0
VERTEX
  8
0
  6
CONTINUOUS
 10
2.406800
 20
3.438160
  0
VERTEX
  8
0
  6
CONTINUOUS
 10
2.406800
 20
3.217280
  0
VERTEX
  8
0
  6
CONTINUOUS
 10
2.401080
 20
2.475440
  0
VERTEX
  8
0
  6
CONTINUOUS
 10
2.401080
 20
2.696320
  0
SEQEND
  8
0
  0
SOLID
  8
0
 62
    15
 10
2.401080
 20
2.475440
 11
2.406800
 21
3.217280
 12
2.407680
 22
2.475440
 13
2.413400
 23
3.217280
  0
POLYLINE
  8
0
  6
CONTINUOUS
 66
     1
 40
0.000000
 41
0.000000
  0
VERTEX
  8
0
  6
CONTINUOUS
 10
2.401080
 20
2.475440
  0
VERTEX
  8
0
  6
CONTINUOUS
 10
2.406800
 20
3.217280
  0
VERTEX
  8
0
  6
CONTINUOUS
 10
2.413400
 20
3.217280
  0
VERTEX
  8
0
  6
CONTINUOUS
 10
2.407680
 20
2.475440
  0
VERTEX
  8
0
  6
CONTINUOUS
 10
2.401080
 20
2.475440
  0
SEQEND
  8
0
  0
SOLID
  8
0
 62
    15
 10
2.407680
 20
2.475440
 11
2.413400
 21
3.217280
 12
2.552440
 22
2.538360
 13
2.558160
 23
3.280200
  0
POLYLINE
  8
0
  6
CONTINUOUS
 66
     1
 40
0.000000
 41
0.000000
  0
VERTEX
  8
0
  6
CONTINUOUS
 10
2.407680
 20
2.475440
  0
VERTEX
  8
0
  6
CONTINUOUS
 10
2.413400
 20
3.217280
  0
VERTEX
  8
0
  6
CONTINUOUS
 10
2.558160
 20
3.280200
  0
VERTEX
  8
0
  6
CONTINUOUS
 10
2.552440
 20
2.538360
  0
VERTEX
  8
0
  6
CONTINUOUS
 10
2.407680
 20
2.475440
  0
SEQEND
  8
0
  0
SOLID
  8
0
 62
    15
 10
2.552440
 20
2.538360
 11
2.558160
 21
3.280200
 12
2.688840
 22
2.589840
 13
2.694560
 23
3.331680
  0
POLYLINE
  8
0
  6
CONTINUOUS
 66
     1
 40
0.000000
 41
0.000000
  0
VERTEX
  8
0
  6
CONTINUOUS
 10
2.552440
 20
2.538360
  0
VERTEX
  8
0
  6
CONTINUOUS
 10
2.558160
 20
3.280200
  0
VERTEX
  8
0
  6
CONTINUOUS
 10
2.694560
 20
3.331680
  0
VERTEX
  8
0
  6
CONTINUOUS
 10
2.688840
 20
2.589840
  0
VERTEX
  8
0
  6
CONTINUOUS
 10
2.552440
 20
2.538360
  0
SEQEND
  8
0
  0
SOLID
  8
0
 62
    15
 10
2.688840
 20
2.589840
 11
2.694560
 21
3.331680
 12
2.816880
 22
2.630320
 13
2.822600
 23
3.372160
  0
POLYLINE
  8
0
  6
CONTINUOUS
 66
     1
 40
0.000000
 41
0.000000
  0
VERTEX
  8
0
  6
CONTINUOUS
 10
2.688840
 20
2.589840
  0
VERTEX
  8
0
  6
CONTINUOUS
 10
2.694560
 20
3.331680
  0
VERTEX
  8
0
  6
CONTINUOUS
 10
2.822600
 20
3.372160
  0
VERTEX
  8
0
  6
CONTINUOUS
 10
2.816880
 20
2.630320
  0
VERTEX
  8
0
  6
CONTINUOUS
 10
2.688840
 20
2.589840
  0
SEQEND
  8
0
  0
SOLID
  8
0
 62
    15
 10
2.816880
 20
2.630320
 11
2.822600
 21
3.372160
 12
2.938760
 22
2.659800
 13
2.944480
 23
3.401640
  0
POLYLINE
  8
0
  6
CONTINUOUS
 66
     1
 40
0.000000
 41
0.000000
  0
VERTEX
  8
0
  6
CONTINUOUS
 10
2.816880
 20
2.630320
  0
VERTEX
  8
0
  6
CONTINUOUS
 10
2.822600
 20
3.372160
  0
VERTEX
  8
0
  6
CONTINUOUS
 10
2.944480
 20
3.401640
  0
VERTEX
  8
0
  6
CONTINUOUS
 10
2.938760
 20
2.659800
  0
VERTEX
  8
0
  6
CONTINUOUS
 10
2.816880
 20
2.630320
  0
SEQEND
  8
0
  0
SOLID
  8
0
 62
    15
 10
2.938760
 20
2.659800
 11
2.944480
 21
3.401640
 12
3.054920
 22
2.679160
 13
3.060640
 23
3.421000
  0
POLYLINE
  8
0
  6
CONTINUOUS
 66
     1
 40
0.000000
 41
0.000000
  0
VERTEX
  8
0
  6
CONTINUOUS
 10
2.938760
 20
2.659800
  0
VERTEX
  8
0
  6
CONTINUOUS
 10
2.944480
 20
3.401640
  0
VERTEX
  8
0
  6
CONTINUOUS
 10
3.060640
 20
3.421000
  0
VERTEX
  8
0
  6
CONTINUOUS
 10
3.054920
 20
2.679160
  0
VERTEX
  8
0
  6
CONTINUOUS
 10
2.938760
 20
2.659800
  0
SEQEND
  8
0
  0
SOLID
  8
0
 62
    15
 10
3.054920
 20
2.679160
 11
3.060640
 21
3.421000
 12
3.166240
 22
2.687960
 13
3.172400
 23
3.429800
  0
POLYLINE
  8
0
  6
CONTINUOUS
 66
     1
 40
0.000000
 41
0.000000
  0
VERTEX
  8
0
  6
CONTINUOUS
 10
3.054920
 20
2.679160
  0
VERTEX
  8
0
  6
CONTINUOUS
 10
3.060640
 20
3.421000
  0
VERTEX
  8
0
  6
CONTINUOUS
 10
3.172400
 20
3.429800
  0
VERTEX
  8
0
  6
CONTINUOUS
 10
3.166240
 20
2.687960
  0
VERTEX
  8
0
  6
CONTINUOUS
 10
3.054920
 20
2.679160
  0
SEQEND
  8
0
  0
SOLID
  8
0
 62
    15
 10
3.166240
 20
2.687960
 11
3.172400
 21
3.429800
 12
3.274920
 22
2.687080
 13
3.280640
 23
3.428920
  0
POLYLINE
  8
0
  6
CONTINUOUS
 66
     1
 40
0.000000
 41
0.000000
  0
VERTEX
  8
0
  6
CONTINUOUS
 10
3.166240
 20
2.687960
  0
VERTEX
  8
0
  6
CONTINUOUS
 10
3.172400
 20
3.429800
  0
VERTEX
  8
0
  6
CONTINUOUS
 10
3.280640
 20
3.428920
  0
VERTEX
  8
0
  6
CONTINUOUS
 10
3.274920
 20
2.687080
  0
VERTEX
  8
0
  6
CONTINUOUS
 10
3.166240
 20
2.687960
  0
SEQEND
  8
0
  0
SOLID
  8
0
 62
    15
 10
3.274920
 20
2.687080
 11
3.280640
 21
3.428920
 12
3.380960
 22
2.676520
 13
3.386680
 23
3.418360
  0
POLYLINE
  8
0
  6
CONTINUOUS
 66
     1
 40
0.000000
 41
0.000000
  0
VERTEX
  8
0
  6
CONTINUOUS
 10
3.274920
 20
2.687080
  0
VERTEX
  8
0
  6
CONTINUOUS
 10
3.280640
 20
3.428920
  0
VERTEX
  8
0
  6
CONTINUOUS
 10
3.386680
 20
3.418360
  0
VERTEX
  8
0
  6
CONTINUOUS
 10
3.380960
 20
2.676520
  0
VERTEX
  8
0
  6
CONTINUOUS
 10
3.274920
 20
2.687080
  0
SEQEND
  8
0
  0
SOLID
  8
0
 62
    15
 10
3.380960
 20
2.676520
 11
3.386680
 21
3.418360
 12
3.486120
 22
2.656720
 13
3.492280
 23
3.398560
  0
POLYLINE
  8
0
  6
CONTINUOUS
 66
     1
 40
0.000000
 41
0.000000
  0
VERTEX
  8
0
  6
CONTINUOUS
 10
3.380960
 20
2.676520
  0
VERTEX
  8
0
  6
CONTINUOUS
 10
3.386680
 20
3.418360
  0
VERTEX
  8
0
  6
CONTINUOUS
 10
3.492280
 20
3.398560
  0
VERTEX
  8
0
  6
CONTINUOUS
 10
3.486120
 20
2.656720
  0
VERTEX
  8
0
  6
CONTINUOUS
 10
3.380960
 20
2.676520
  0
SEQEND
  8
0
  0
SOLID
  8
0
 62
    15
 10
3.486120
 20
2.656720
 11
3.492280
 21
3.398560
 12
3.591720
 22
2.628120
 13
3.597440
 23
3.369520
  0
POLYLINE
  8
0
  6
CONTINUOUS
 66
     1
 40
0.000000
 41
0.000000
  0
VERTEX
  8
0
  6
CONTINUOUS
 10
3.486120
 20
2.656720
  0
VERTEX
  8
0
  6
CONTINUOUS
 10
3.492280
 20
3.398560
  0
VERTEX
  8
0
  6
CONTINUOUS
 10
3.597440
 20
3.369520
  0
VERTEX
  8
0
  6
CONTINUOUS
 10
3.591720
 20
2.628120
  0
VERTEX
  8
0
  6
CONTINUOUS
 10
3.486120
 20
2.656720
  0
SEQEND
  8
0
  0
SOLID
  8
0
 62
    15
 10
3.591720
 20
2.628120
 11
3.597440
 21
3.369520
 12
3.698640
 22
2.590280
 13
3.704360
 23
3.332120
  0
POLYLINE
  8
0
  6
CONTINUOUS
 66
     1
 40
0.000000
 41
0.000000
  0
VERTEX
  8
0
  6
CONTINUOUS
 10
3.591720
 20
2.628120
  0
VERTEX
  8
0
  6
CONTINUOUS
 10
3.597440
 20
3.369520
  0
VERTEX
  8
0
  6
CONTINUOUS
 10
3.704360
 20
3.332120
  0
VERTEX
  8
0
  6
CONTINUOUS
 10
3.698640
 20
2.590280
  0
VERTEX
  8
0
  6
CONTINUOUS
 10
3.591720
 20
2.628120
  0
SEQEND
  8
0
  0
SOLID
  8
0
 62
    15
 10
3.698640
 20
2.590280
 11
3.704360
 21
3.332120
 12
3.807320
 22
2.544520
 13
3.813480
 23
3.286360
  0
POLYLINE
  8
0
  6
CONTINUOUS
 66
     1
 40
0.000000
 41
0.000000
  0
VERTEX
  8
0
  6
CONTINUOUS
 10
3.698640
 20
2.590280
  0
VERTEX
  8
0
  6
CONTINUOUS
 10
3.704360
 20
3.332120
  0
VERTEX
  8
0
  6
CONTINUOUS
 10
3.813480
 20
3.286360
  0
VERTEX
  8
0
  6
CONTINUOUS
 10
3.807320
 20
2.544520
  0
VERTEX
  8
0
  6
CONTINUOUS
 10
3.698640
 20
2.590280
  0
SEQEND
  8
0
  0
SOLID
  8
0
 62
    15
 10
3.807320
 20
2.544520
 11
3.813480
 21
3.286360
 12
3.919960
 22
2.490840
 13
3.925680
 23
3.232680
  0
POLYLINE
  8
0
  6
CONTINUOUS
 66
     1
 40
0.000000
 41
0.000000
  0
VERTEX
  8
0
  6
CONTINUOUS
 10
3.807320
 20
2.544520
  0
VERTEX
  8
0
  6
CONTINUOUS
 10
3.813480
 20
3.286360
  0
VERTEX
  8
0
  6
CONTINUOUS
 10
3.925680
 20
3.232680
  0
VERTEX
  8
0
  6
CONTINUOUS
 10
3.919960
 20
2.490840
  0
VERTEX
  8
0
  6
CONTINUOUS
 10
3.807320
 20
2.544520
  0
SEQEND
  8
0
  0
SOLID
  8
0
 62
    15
 10
3.919960
 20
2.490840
 11
3.925680
 21
3.232680
 12
4.037440
 22
2.429240
 13
4.043160
 23
3.171080
  0
POLYLINE
  8
0
  6
CONTINUOUS
 66
     1
 40
0.000000
 41
0.000000
  0
VERTEX
  8
0
  6
CONTINUOUS
 10
3.919960
 20
2.490840
  0
VERTEX
  8
0
  6
CONTINUOUS
 10
3.925680
 20
3.232680
  0
VERTEX
  8
0
  6
CONTINUOUS
 10
4.043160
 20
3.171080
  0
VERTEX
  8
0
  6
CONTINUOUS
 10
4.037440
 20
2.429240
  0
VERTEX
  8
0
  6
CONTINUOUS
 10
3.919960
 20
2.490840
  0
SEQEND
  8
0
  0
SOLID
  8
0
 62
    15
 10
4.037440
 20
2.429240
 11
4.043160
 21
3.171080
 12
4.160640
 22
2.360160
 13
4.166360
 23
3.101560
  0
POLYLINE
  8
0
  6
CONTINUOUS
 66
     1
 40
0.000000
 41
0.000000
  0
VERTEX
  8
0
  6
CONTINUOUS
 10
4.037440
 20
2.429240
  0
VERTEX
  8
0
  6
CONTINUOUS
 10
4.043160
 20
3.171080
  0
VERTEX
  8
0
  6
CONTINUOUS
 10
4.166360
 20
3.101560
  0
VERTEX
  8
0
  6
CONTINUOUS
 10
4.160640
 20
2.360160
  0
VERTEX
  8
0
  6
CONTINUOUS
 10
4.037440
 20
2.429240
  0
SEQEND
  8
0
  0
SOLID
  8
0
 62
    15
 10
4.160640
 20
2.360160
 11
4.166360
 21
3.101560
 12
4.290880
 22
2.283600
 13
4.296600
 23
3.025440
  0
POLYLINE
  8
0
  6
CONTINUOUS
 66
     1
 40
0.000000
 41
0.000000
  0
VERTEX
  8
0
  6
CONTINUOUS
 10
4.160640
 20
2.360160
  0
VERTEX
  8
0
  6
CONTINUOUS
 10
4.166360
 20
3.101560
  0
VERTEX
  8
0
  6
CONTINUOUS
 10
4.296600
 20
3.025440
  0
VERTEX
  8
0
  6
CONTINUOUS
 10
4.290880
 20
2.283600
  0
VERTEX
  8
0
  6
CONTINUOUS
 10
4.160640
 20
2.360160
  0
SEQEND
  8
0
  0
SOLID
  8
0
 62
    15
 10
4.290880
 20
2.283600
 11
4.296600
 21
3.025440
 12
4.366120
 22
2.242240
 13
4.371840
 23
2.984080
  0
POLYLINE
  8
0
  6
CONTINUOUS
 66
     1
 40
0.000000
 41
0.000000
  0
VERTEX
  8
0
  6
CONTINUOUS
 10
4.290880
 20
2.283600
  0
VERTEX
  8
0
  6
CONTINUOUS
 10
4.296600
 20
3.025440
  0
VERTEX
  8
0
  6
CONTINUOUS
 10
4.371840
 20
2.984080
  0
VERTEX
  8
0
  6
CONTINUOUS
 10
4.366120
 20
2.242240
  0
VERTEX
  8
0
  6
CONTINUOUS
 10
4.290880
 20
2.283600
  0
SEQEND
  8
0
  0
SOLID
  8
0
 62
    15
 10
4.366120
 20
2.242240
 11
4.371840
 21
2.984080
 12
4.447080
 22
2.203520
 13
4.452800
 23
2.945360
  0
POLYLINE
  8
0
  6
CONTINUOUS
 66
     1
 40
0.000000
 41
0.000000
  0
VERTEX
  8
0
  6
CONTINUOUS
 10
4.366120
 20
2.242240
  0
VERTEX
  8
0
  6
CONTINUOUS
 10
4.371840
 20
2.984080
  0
VERTEX
  8
0
  6
CONTINUOUS
 10
4.452800
 20
2.945360
  0
VERTEX
  8
0
  6
CONTINUOUS
 10
4.447080
 20
2.203520
  0
VERTEX
  8
0
  6
CONTINUOUS
 10
4.366120
 20
2.242240
  0
SEQEND
  8
0
  0
SOLID
  8
0
 62
    15
 10
4.447080
 20
2.203520
 11
4.452800
 21
2.945360
 12
4.620880
 22
2.136200
 13
4.626600
 23
2.878040
  0
POLYLINE
  8
0
  6
CONTINUOUS
 66
     1
 40
0.000000
 41
0.000000
  0
VERTEX
  8
0
  6
CONTINUOUS
 10
4.447080
 20
2.203520
  0
VERTEX
  8
0
  6
CONTINUOUS
 10
4.452800
 20
2.945360
  0
VERTEX
  8
0
  6
CONTINUOUS
 10
4.626600
 20
2.878040
  0
VERTEX
  8
0
  6
CONTINUOUS
 10
4.620880
 20
2.136200
  0
VERTEX
  8
0
  6
CONTINUOUS
 10
4.447080
 20
2.203520
  0
SEQEND
  8
0
  0
SOLID
  8
0
 62
    15
 10
4.620880
 20
2.136200
 11
4.626600
 21
2.878040
 12
4.806120
 22
2.080320
 13
4.811840
 23
2.822160
  0
POLYLINE
  8
0
  6
CONTINUOUS
 66
     1
 40
0.000000
 41
0.000000
  0
VERTEX
  8
0
  6
CONTINUOUS
 10
4.620880
 20
2.136200
  0
VERTEX
  8
0
  6
CONTINUOUS
 10
4.626600
 20
2.878040
  0
VERTEX
  8
0
  6
CONTINUOUS
 10
4.811840
 20
2.822160
  0
VERTEX
  8
0
  6
CONTINUOUS
 10
4.806120
 20
2.080320
  0
VERTEX
  8
0
  6
CONTINUOUS
 10
4.620880
 20
2.136200
  0
SEQEND
  8
0
  0
SOLID
  8
0
 62
    15
 10
4.806120
 20
2.080320
 11
4.811840
 21
2.822160
 12
4.996640
 22
2.035880
 13
5.002360
 23
2.777720
  0
POLYLINE
  8
0
  6
CONTINUOUS
 66
     1
 40
0.000000
 41
0.000000
  0
VERTEX
  8
0
  6
CONTINUOUS
 10
4.806120
 20
2.080320
  0
VERTEX
  8
0
  6
CONTINUOUS
 10
4.811840
 20
2.822160
  0
VERTEX
  8
0
  6
CONTINUOUS
 10
5.002360
 20
2.777720
  0
VERTEX
  8
0
  6
CONTINUOUS
 10
4.996640
 20
2.035880
  0
VERTEX
  8
0
  6
CONTINUOUS
 10
4.806120
 20
2.080320
  0
SEQEND
  8
0
  0
SOLID
  8
0
 62
    15
 10
4.996640
 20
2.035880
 11
5.002360
 21
2.777720
 12
5.186280
 22
2.001560
 13
5.192440
 23
2.742960
  0
POLYLINE
  8
0
  6
CONTINUOUS
 66
     1
 40
0.000000
 41
0.000000
  0
VERTEX
  8
0
  6
CONTINUOUS
 10
4.996640
 20
2.035880
  0
VERTEX
  8
0
  6
CONTINUOUS
 10
5.002360
 20
2.777720
  0
VERTEX
  8
0
  6
CONTINUOUS
 10
5.192440
 20
2.742960
  0
VERTEX
  8
0
  6
CONTINUOUS
 10
5.186280
 20
2.001560
  0
VERTEX
  8
0
  6
CONTINUOUS
 10
4.996640
 20
2.035880
  0
SEQEND
  8
0
  0
SOLID
  8
0
 62
    15
 10
5.186280
 20
2.001560
 11
5.192440
 21
2.742960
 12
5.369320
 22
1.976040
 13
5.375040
 23
2.717880
  0
POLYLINE
  8
0
  6
CONTINUOUS
 66
     1
 40
0.000000
 41
0.000000
  0
VERTEX
  8
0
  6
CONTINUOUS
 10
5.186280
 20
2.001560
  0
VERTEX
  8
0
  6
CONTINUOUS
 10
5.192440
 20
2.742960
  0
VERTEX
  8
0
  6
CONTINUOUS
 10
5.375040
 20
2.717880
  0
VERTEX
  8
0
  6
CONTINUOUS
 10
5.369320
 20
1.976040
  0
VERTEX
  8
0
  6
CONTINUOUS
 10
5.186280
 20
2.001560
  0
SEQEND
  8
0
  0
SOLID
  8
0
 62
    15
 10
5.369320
 20
1.976040
 11
5.375040
 21
2.717880
 12
5.538720
 22
1.959320
 13
5.544440
 23
2.701160
  0
POLYLINE
  8
0
  6
CONTINUOUS
 66
     1
 40
0.000000
 41
0.000000
  0
VERTEX
  8
0
  6
CONTINUOUS
 10
5.369320
 20
1.976040
  0
VERTEX
  8
0
  6
CONTINUOUS
 10
5.375040
 20
2.717880
  0
VERTEX
  8
0
  6
CONTINUOUS
 10
5.544440
 20
2.701160
  0
VERTEX
  8
0
  6
CONTINUOUS
 10
5.538720
 20
1.959320
  0
VERTEX
  8
0
  6
CONTINUOUS
 10
5.369320
 20
1.976040
  0
SEQEND
  8
0
  0
SOLID
  8
0
 62
    15
 10
5.538720
 20
1.959320
 11
5.544440
 21
2.701160
 12
5.616600
 22
1.954040
 13
5.622320
 23
2.695880
  0
POLYLINE
  8
0
  6
CONTINUOUS
 66
     1
 40
0.000000
 41
0.000000
  0
VERTEX
  8
0
  6
CONTINUOUS
 10
5.538720
 20
1.959320
  0
VERTEX
  8
0
  6
CONTINUOUS
 10
5.544440
 20
2.701160
  0
VERTEX
  8
0
  6
CONTINUOUS
 10
5.622320
 20
2.695880
  0
VERTEX
  8
0
  6
CONTINUOUS
 10
5.616600
 20
1.954040
  0
VERTEX
  8
0
  6
CONTINUOUS
 10
5.538720
 20
1.959320
  0
SEQEND
  8
0
  0
SOLID
  8
0
 62
    15
 10
5.616600
 20
1.954040
 11
5.622320
 21
2.695880
 12
5.688760
 22
1.950520
 13
5.694480
 23
2.692360
  0
POLYLINE
  8
0
  6
CONTINUOUS
 66
     1
 40
0.000000
 41
0.000000
  0
VERTEX
  8
0
  6
CONTINUOUS
 10
5.616600
 20
1.954040
  0
VERTEX
  8
0
  6
CONTINUOUS
 10
5.622320
 20
2.695880
  0
VERTEX
  8
0
  6
CONTINUOUS
 10
5.694480
 20
2.692360
  0
VERTEX
  8
0
  6
CONTINUOUS
 10
5.688760
 20
1.950520
  0
VERTEX
  8
0
  6
CONTINUOUS
 10
5.616600
 20
1.954040
  0
SEQEND
  8
0
  0
SOLID
  8
0
 62
    15
 10
5.688760
 20
1.950520
 11
5.694480
 21
2.692360
 12
5.697120
 22
1.954480
 13
5.702840
 23
2.696320
  0
POLYLINE
  8
0
  6
CONTINUOUS
 66
     1
 40
0.000000
 41
0.000000
  0
VERTEX
  8
0
  6
CONTINUOUS
 10
5.688760
 20
1.950520
  0
VERTEX
  8
0
  6
CONTINUOUS
 10
5.694480
 20
2.692360
  0
VERTEX
  8
0
  6
CONTINUOUS
 10
5.702840
 20
2.696320
  0
VERTEX
  8
0
  6
CONTINUOUS
 10
5.697120
 20
1.954480
  0
VERTEX
  8
0
  6
CONTINUOUS
 10
5.688760
 20
1.950520
  0
SEQEND
  8
0
  0
SOLID
  8
0
 62
    15
 10
5.697120
 20
1.954480
 11
5.702840
 21
2.696320
 12
5.717800
 22
2.020920
 13
5.723520
 23
2.762760
  0
POLYLINE
  8
0
  6
CONTINUOUS
 66
     1
 40
0.000000
 41
0.000000
  0
VERTEX
  8
0
  6
CONTINUOUS
 10
5.697120
 20
1.954480
  0
VERTEX
  8
0
  6
CONTINUOUS
 10
5.702840
 20
2.696320
  0
VERTEX
  8
0
  6
CONTINUOUS
 10
5.723520
 20
2.762760
  0
VERTEX
  8
0
  6
CONTINUOUS
 10
5.717800
 20
2.020920
  0
VERTEX
  8
0
  6
CONTINUOUS
 10
5.697120
 20
1.954480
  0
SEQEND
  8
0
  0
SOLID
  8
0
 62
    15
 10
5.717800
 20
2.020920
 11
5.723520
 21
2.762760
 12
5.746840
 22
2.079880
 13
5.752560
 23
2.821720
  0
POLYLINE
  8
0
  6
CONTINUOUS
 66
     1
 40
0.000000
 41
0.000000
  0
VERTEX
  8
0
  6
CONTINUOUS
 10
5.717800
 20
2.020920
  0
VERTEX
  8
0
  6
CONTINUOUS
 10
5.723520
 20
2.762760
  0
VERTEX
  8
0
  6
CONTINUOUS
 10
5.752560
 20
2.821720
  0
VERTEX
  8
0
  6
CONTINUOUS
 10
5.746840
 20
2.079880
  0
VERTEX
  8
0
  6
CONTINUOUS
 10
5.717800
 20
2.020920
  0
SEQEND
  8
0
  0
SOLID
  8
0
 62
    15
 10
5.746840
 20
2.079880
 11
5.752560
 21
2.821720
 12
5.782920
 22
2.131800
 13
5.788640
 23
2.873640
  0
POLYLINE
  8
0
  6
CONTINUOUS
 66
     1
 40
0.000000
 41
0.000000
  0
VERTEX
  8
0
  6
CONTINUOUS
 10
5.746840
 20
2.079880
  0
VERTEX
  8
0
  6
CONTINUOUS
 10
5.752560
 20
2.821720
  0
VERTEX
  8
0
  6
CONTINUOUS
 10
5.788640
 20
2.873640
  0
VERTEX
  8
0
  6
CONTINUOUS
 10
5.782920
 20
2.131800
  0
VERTEX
  8
0
  6
CONTINUOUS
 10
5.746840
 20
2.079880
  0
SEQEND
  8
0
  0
SOLID
  8
0
 62
    15
 10
5.782920
 20
2.131800
 11
5.788640
 21
2.873640
 12
5.825600
 22
2.176240
 13
5.831320
 23
2.917640
  0
POLYLINE
  8
0
  6
CONTINUOUS
 66
     1
 40
0.000000
 41
0.000000
  0
VERTEX
  8
0
  6
CONTINUOUS
 10
5.782920
 20
2.131800
  0
VERTEX
  8
0
  6
CONTINUOUS
 10
5.788640
 20
2.873640
  0
VERTEX
  8
0
  6
CONTINUOUS
 10
5.831320
 20
2.917640
  0
VERTEX
  8
0
  6
CONTINUOUS
 10
5.825600
 20
2.176240
  0
VERTEX
  8
0
  6
CONTINUOUS
 10
5.782920
 20
2.131800
  0
SEQEND
  8
0
  0
SOLID
  8
0
 62
    15
 10
5.825600
 20
2.176240
 11
5.831320
 21
2.917640
 12
5.873120
 22
2.213200
 13
5.878840
 23
2.954600
  0
POLYLINE
  8
0
  6
CONTINUOUS
 66
     1
 40
0.000000
 41
0.000000
  0
VERTEX
  8
0
  6
CONTINUOUS
 10
5.825600
 20
2.176240
  0
VERTEX
  8
0
  6
CONTINUOUS
 10
5.831320
 20
2.917640
  0
VERTEX
  8
0
  6
CONTINUOUS
 10
5.878840
 20
2.954600
  0
VERTEX
  8
0
  6
CONTINUOUS
 10
5.873120
 20
2.213200
  0
VERTEX
  8
0
  6
CONTINUOUS
 10
5.825600
 20
2.176240
  0
SEQEND
  8
0
  0
SOLID
  8
0
 62
    15
 10
7.163640
 20
1.527680
 11
7.169360
 21
2.269080
 12
7.163640
 22
1.446280
 13
7.169360
 23
2.188120
  0
POLYLINE
  8
0
  6
CONTINUOUS
 66
     1
 40
0.000000
 41
0.000000
  0
VERTEX
  8
0
  6
CONTINUOUS
 10
7.163640
 20
1.527680
  0
VERTEX
  8
0
  6
CONTINUOUS
 10
7.169360
 20
2.269080
  0
VERTEX
  8
0
  6
CONTINUOUS
 10
7.169360
 20
2.188120
  0
VERTEX
  8
0
  6
CONTINUOUS
 10
7.163640
 20
1.446280
  0
VERTEX
  8
0
  6
CONTINUOUS
 10
7.163640
 20
1.527680
  0
SEQEND
  8
0
  0
SOLID
  8
0
 62
    15
 10
5.924600
 20
2.242240
 11
5.930320
 21
2.984080
 12
5.979600
 22
2.264240
 13
5.985320
 23
3.005640
  0
POLYLINE
  8
0
  6
CONTINUOUS
 66
     1
 40
0.000000
 41
0.000000
  0
VERTEX
  8
0
  6
CONTINUOUS
 10
5.924600
 20
2.242240
  0
VERTEX
  8
0
  6
CONTINUOUS
 10
5.930320
 20
2.984080
  0
VERTEX
  8
0
  6
CONTINUOUS
 10
5.985320
 20
3.005640
  0
VERTEX
  8
0
  6
CONTINUOUS
 10
5.979600
 20
2.264240
  0
VERTEX
  8
0
  6
CONTINUOUS
 10
5.924600
 20
2.242240
  0
SEQEND
  8
0
  0
SOLID
  8
0
 62
    15
 10
5.979600
 20
2.264240
 11
5.985320
 21
3.005640
 12
6.036800
 22
2.277880
 13
6.042520
 23
3.019720
  0
POLYLINE
  8
0
  6
CONTINUOUS
 66
     1
 40
0.000000
 41
0.000000
  0
VERTEX
  8
0
  6
CONTINUOUS
 10
5.979600
 20
2.264240
  0
VERTEX
  8
0
  6
CONTINUOUS
 10
5.985320
 20
3.005640
  0
VERTEX
  8
0
  6
CONTINUOUS
 10
6.042520
 20
3.019720
  0
VERTEX
  8
0
  6
CONTINUOUS
 10
6.036800
 20
2.277880
  0
VERTEX
  8
0
  6
CONTINUOUS
 10
5.979600
 20
2.264240
  0
SEQEND
  8
0
  0
SOLID
  8
0
 62
    15
 10
6.036800
 20
2.277880
 11
6.042520
 21
3.019720
 12
6.095320
 22
2.284480
 13
6.101040
 23
3.026320
  0
POLYLINE
  8
0
  6
CONTINUOUS
 66
     1
 40
0.000000
 41
0.000000
  0
VERTEX
  8
0
  6
CONTINUOUS
 10
6.036800
 20
2.277880
  0
VERTEX
  8
0
  6
CONTINUOUS
 10
6.042520
 20
3.019720
  0
VERTEX
  8
0
  6
CONTINUOUS
 10
6.101040
 20
3.026320
  0
VERTEX
  8
0
  6
CONTINUOUS
 10
6.095320
 20
2.284480
  0
VERTEX
  8
0
  6
CONTINUOUS
 10
6.036800
 20
2.277880
  0
SEQEND
  8
0
  0
SOLID
  8
0
 62
    15
 10
6.095320
 20
2.284480
 11
6.101040
 21
3.026320
 12
6.153840
 22
2.282720
 13
6.159560
 23
3.024560
  0
POLYLINE
  8
0
  6
CONTINUOUS
 66
     1
 40
0.000000
 41
0.000000
  0
VERTEX
  8
0
  6
CONTINUOUS
 10
6.095320
 20
2.284480
  0
VERTEX
  8
0
  6
CONTINUOUS
 10
6.101040
 20
3.026320
  0
VERTEX
  8
0
  6
CONTINUOUS
 10
6.159560
 20
3.024560
  0
VERTEX
  8
0
  6
CONTINUOUS
 10
6.153840
 20
2.282720
  0
VERTEX
  8
0
  6
CONTINUOUS
 10
6.095320
 20
2.284480
  0
SEQEND
  8
0
  0
SOLID
  8
0
 62
    15
 10
6.153840
 20
2.282720
 11
6.159560
 21
3.024560
 12
6.211480
 22
2.273480
 13
6.217200
 23
3.014880
  0
POLYLINE
  8
0
  6
CONTINUOUS
 66
     1
 40
0.000000
 41
0.000000
  0
VERTEX
  8
0
  6
CONTINUOUS
 10
6.153840
 20
2.282720
  0
VERTEX
  8
0
  6
CONTINUOUS
 10
6.159560
 20
3.024560
  0
VERTEX
  8
0
  6
CONTINUOUS
 10
6.217200
 20
3.014880
  0
VERTEX
  8
0
  6
CONTINUOUS
 10
6.211480
 20
2.273480
  0
VERTEX
  8
0
  6
CONTINUOUS
 10
6.153840
 20
2.282720
  0
SEQEND
  8
0
  0
SOLID
  8
0
 62
    15
 10
6.211480
 20
2.273480
 11
6.217200
 21
3.014880
 12
6.267360
 22
2.255880
 13
6.273080
 23
2.997720
  0
POLYLINE
  8
0
  6
CONTINUOUS
 66
     1
 40
0.000000
 41
0.000000
  0
VERTEX
  8
0
  6
CONTINUOUS
 10
6.211480
 20
2.273480
  0
VERTEX
  8
0
  6
CONTINUOUS
 10
6.217200
 20
3.014880
  0
VERTEX
  8
0
  6
CONTINUOUS
 10
6.273080
 20
2.997720
  0
VERTEX
  8
0
  6
CONTINUOUS
 10
6.267360
 20
2.255880
  0
VERTEX
  8
0
  6
CONTINUOUS
 10
6.211480
 20
2.273480
  0
SEQEND
  8
0
  0
SOLID
  8
0
 62
    15
 10
6.267360
 20
2.255880
 11
6.273080
 21
2.997720
 12
6.320600
 22
2.230360
 13
6.326320
 23
2.972200
  0
POLYLINE
  8
0
  6
CONTINUOUS
 66
     1
 40
0.000000
 41
0.000000
  0
VERTEX
  8
0
  6
CONTINUOUS
 10
6.267360
 20
2.255880
  0
VERTEX
  8
0
  6
CONTINUOUS
 10
6.273080
 20
2.997720
  0
VERTEX
  8
0
  6
CONTINUOUS
 10
6.326320
 20
2.972200
  0
VERTEX
  8
0
  6
CONTINUOUS
 10
6.320600
 20
2.230360
  0
VERTEX
  8
0
  6
CONTINUOUS
 10
6.267360
 20
2.255880
  0
SEQEND
  8
0
  0
SOLID
  8
0
 62
    15
 10
6.320600
 20
2.230360
 11
6.326320
 21
2.972200
 12
6.369880
 22
2.196480
 13
6.375600
 23
2.938320
  0
POLYLINE
  8
0
  6
CONTINUOUS
 66
     1
 40
0.000000
 41
0.000000
  0
VERTEX
  8
0
  6
CONTINUOUS
 10
6.320600
 20
2.230360
  0
VERTEX
  8
0
  6
CONTINUOUS
 10
6.326320
 20
2.972200
  0
VERTEX
  8
0
  6
CONTINUOUS
 10
6.375600
 20
2.938320
  0
VERTEX
  8
0
  6
CONTINUOUS
 10
6.369880
 20
2.196480
  0
VERTEX
  8
0
  6
CONTINUOUS
 10
6.320600
 20
2.230360
  0
SEQEND
  8
0
  0
SOLID
  8
0
 62
    15
 10
6.369880
 20
2.196480
 11
6.375600
 21
2.938320
 12
6.414320
 22
2.154680
 13
6.420040
 23
2.896520
  0
POLYLINE
  8
0
  6
CONTINUOUS
 66
     1
 40
0.000000
 41
0.000000
  0
VERTEX
  8
0
  6
CONTINUOUS
 10
6.369880
 20
2.196480
  0
VERTEX
  8
0
  6
CONTINUOUS
 10
6.375600
 20
2.938320
  0
VERTEX
  8
0
  6
CONTINUOUS
 10
6.420040
 20
2.896520
  0
VERTEX
  8
0
  6
CONTINUOUS
 10
6.414320
 20
2.154680
  0
VERTEX
  8
0
  6
CONTINUOUS
 10
6.369880
 20
2.196480
  0
SEQEND
  8
0
  0
SOLID
  8
0
 62
    15
 10
6.414320
 20
2.154680
 11
6.420040
 21
2.896520
 12
6.453480
 22
2.104520
 13
6.459200
 23
2.846360
  0
POLYLINE
  8
0
  6
CONTINUOUS
 66
     1
 40
0.000000
 41
0.000000
  0
VERTEX
  8
0
  6
CONTINUOUS
 10
6.414320
 20
2.154680
  0
VERTEX
  8
0
  6
CONTINUOUS
 10
6.420040
 20
2.896520
  0
VERTEX
  8
0
  6
CONTINUOUS
 10
6.459200
 20
2.846360
  0
VERTEX
  8
0
  6
CONTINUOUS
 10
6.453480
 20
2.104520
  0
VERTEX
  8
0
  6
CONTINUOUS
 10
6.414320
 20
2.154680
  0
SEQEND
  8
0
  0
SOLID
  8
0
 62
    15
 10
6.453480
 20
2.104520
 11
6.459200
 21
2.846360
 12
6.485600
 22
2.059200
 13
6.491320
 23
2.801040
  0
POLYLINE
  8
0
  6
CONTINUOUS
 66
     1
 40
0.000000
 41
0.000000
  0
VERTEX
  8
0
  6
CONTINUOUS
 10
6.453480
 20
2.104520
  0
VERTEX
  8
0
  6
CONTINUOUS
 10
6.459200
 20
2.846360
  0
VERTEX
  8
0
  6
CONTINUOUS
 10
6.491320
 20
2.801040
  0
VERTEX
  8
0
  6
CONTINUOUS
 10
6.485600
 20
2.059200
  0
VERTEX
  8
0
  6
CONTINUOUS
 10
6.453480
 20
2.104520
  0
SEQEND
  8
0
  0
SOLID
  8
0
 62
    15
 10
6.485600
 20
2.059200
 11
6.491320
 21
2.801040
 12
6.524320
 22
2.013000
 13
6.530040
 23
2.754400
  0
POLYLINE
  8
0
  6
CONTINUOUS
 66
     1
 40
0.000000
 41
0.000000
  0
VERTEX
  8
0
  6
CONTINUOUS
 10
6.485600
 20
2.059200
  0
VERTEX
  8
0
  6
CONTINUOUS
 10
6.491320
 20
2.801040
  0
VERTEX
  8
0
  6
CONTINUOUS
 10
6.530040
 20
2.754400
  0
VERTEX
  8
0
  6
CONTINUOUS
 10
6.524320
 20
2.013000
  0
VERTEX
  8
0
  6
CONTINUOUS
 10
6.485600
 20
2.059200
  0
SEQEND
  8
0
  0
SOLID
  8
0
 62
    15
 10
6.524320
 20
2.013000
 11
6.530040
 21
2.754400
 12
6.569200
 22
1.968120
 13
6.574920
 23
2.709960
  0
POLYLINE
  8
0
  6
CONTINUOUS
 66
     1
 40
0.000000
 41
0.000000
  0
VERTEX
  8
0
  6
CONTINUOUS
 10
6.524320
 20
2.013000
  0
VERTEX
  8
0
  6
CONTINUOUS
 10
6.530040
 20
2.754400
  0
VERTEX
  8
0
  6
CONTINUOUS
 10
6.574920
 20
2.709960
  0
VERTEX
  8
0
  6
CONTINUOUS
 10
6.569200
 20
1.968120
  0
VERTEX
  8
0
  6
CONTINUOUS
 10
6.524320
 20
2.013000
  0
SEQEND
  8
0
  0
SOLID
  8
0
 62
    15
 10
6.569200
 20
1.968120
 11
6.574920
 21
2.709960
 12
6.619800
 22
1.926760
 13
6.625520
 23
2.668600
  0
POLYLINE
  8
0
  6
CONTINUOUS
 66
     1
 40
0.000000
 41
0.000000
  0
VERTEX
  8
0
  6
CONTINUOUS
 10
6.569200
 20
1.968120
  0
VERTEX
  8
0
  6
CONTINUOUS
 10
6.574920
 20
2.709960
  0
VERTEX
  8
0
  6
CONTINUOUS
 10
6.625520
 20
2.668600
  0
VERTEX
  8
0
  6
CONTINUOUS
 10
6.619800
 20
1.926760
  0
VERTEX
  8
0
  6
CONTINUOUS
 10
6.569200
 20
1.968120
  0
SEQEND
  8
0
  0
SOLID
  8
0
 62
    15
 10
6.619800
 20
1.926760
 11
6.625520
 21
2.668600
 12
6.674800
 22
1.891120
 13
6.680960
 23
2.632960
  0
POLYLINE
  8
0
  6
CONTINUOUS
 66
     1
 40
0.000000
 41
0.000000
  0
VERTEX
  8
0
  6
CONTINUOUS
 10
6.619800
 20
1.926760
  0
VERTEX
  8
0
  6
CONTINUOUS
 10
6.625520
 20
2.668600
  0
VERTEX
  8
0
  6
CONTINUOUS
 10
6.680960
 20
2.632960
  0
VERTEX
  8
0
  6
CONTINUOUS
 10
6.674800
 20
1.891120
  0
VERTEX
  8
0
  6
CONTINUOUS
 10
6.619800
 20
1.926760
  0
SEQEND
  8
0
  0
SOLID
  8
0
 62
    15
 10
6.674800
 20
1.891120
 11
6.680960
 21
2.632960
 12
6.734640
 22
1.862960
 13
6.740360
 23
2.604800
  0
POLYLINE
  8
0
  6
CONTINUOUS
 66
     1
 40
0.000000
 41
0.000000
  0
VERTEX
  8
0
  6
CONTINUOUS
 10
6.674800
 20
1.891120
  0
VERTEX
  8
0
  6
CONTINUOUS
 10
6.680960
 20
2.632960
  0
VERTEX
  8
0
  6
CONTINUOUS
 10
6.740360
 20
2.604800
  0
VERTEX
  8
0
  6
CONTINUOUS
 10
6.734640
 20
1.862960
  0
VERTEX
  8
0
  6
CONTINUOUS
 10
6.674800
 20
1.891120
  0
SEQEND
  8
0
  0
SOLID
  8
0
 62
    15
 10
6.734640
 20
1.862960
 11
6.740360
 21
2.604800
 12
6.798440
 22
1.844480
 13
6.804160
 23
2.586320
  0
POLYLINE
  8
0
  6
CONTINUOUS
 66
     1
 40
0.000000
 41
0.000000
  0
VERTEX
  8
0
  6
CONTINUOUS
 10
6.734640
 20
1.862960
  0
VERTEX
  8
0
  6
CONTINUOUS
 10
6.740360
 20
2.604800
  0
VERTEX
  8
0
  6
CONTINUOUS
 10
6.804160
 20
2.586320
  0
VERTEX
  8
0
  6
CONTINUOUS
 10
6.798440
 20
1.844480
  0
VERTEX
  8
0
  6
CONTINUOUS
 10
6.734640
 20
1.862960
  0
SEQEND
  8
0
  0
SOLID
  8
0
 62
    15
 10
6.798440
 20
1.844480
 11
6.804160
 21
2.586320
 12
6.865760
 22
1.837880
 13
6.871480
 23
2.579720
  0
POLYLINE
  8
0
  6
CONTINUOUS
 66
     1
 40
0.000000
 41
0.000000
  0
VERTEX
  8
0
  6
CONTINUOUS
 10
6.798440
 20
1.844480
  0
VERTEX
  8
0
  6
CONTINUOUS
 10
6.804160
 20
2.586320
  0
VERTEX
  8
0
  6
CONTINUOUS
 10
6.871480
 20
2.579720
  0
VERTEX
  8
0
  6
CONTINUOUS
 10
6.865760
 20
1.837880
  0
VERTEX
  8
0
  6
CONTINUOUS
 10
6.798440
 20
1.844480
  0
SEQEND
  8
0
  0
SOLID
  8
0
 62
    15
 10
6.865760
 20
1.837880
 11
6.871480
 21
2.579720
 12
6.870160
 22
1.835680
 13
6.875880
 23
2.577520
  0
POLYLINE
  8
0
  6
CONTINUOUS
 66
     1
 40
0.000000
 41
0.000000
  0
VERTEX
  8
0
  6
CONTINUOUS
 10
6.865760
 20
1.837880
  0
VERTEX
  8
0
  6
CONTINUOUS
 10
6.871480
 20
2.579720
  0
VERTEX
  8
0
  6
CONTINUOUS
 10
6.875880
 20
2.577520
  0
VERTEX
  8
0
  6
CONTINUOUS
 10
6.870160
 20
1.835680
  0
VERTEX
  8
0
  6
CONTINUOUS
 10
6.865760
 20
1.837880
  0
SEQEND
  8
0
  0
SOLID
  8
0
 62
    15
 10
6.870160
 20
1.835680
 11
6.875880
 21
2.577520
 12
6.876320
 22
1.895960
 13
6.882040
 23
2.637800
  0
POLYLINE
  8
0
  6
CONTINUOUS
 66
     1
 40
0.000000
 41
0.000000
  0
VERTEX
  8
0
  6
CONTINUOUS
 10
6.870160
 20
1.835680
  0
VERTEX
  8
0
  6
CONTINUOUS
 10
6.875880
 20
2.577520
  0
VERTEX
  8
0
  6
CONTINUOUS
 10
6.882040
 20
2.637800
  0
VERTEX
  8
0
  6
CONTINUOUS
 10
6.876320
 20
1.895960
  0
VERTEX
  8
0
  6
CONTINUOUS
 10
6.870160
 20
1.835680
  0
SEQEND
  8
0
  0
SOLID
  8
0
 62
    15
 10
6.876320
 20
1.895960
 11
6.882040
 21
2.637800
 12
6.893920
 22
1.952720
 13
6.899640
 23
2.694120
  0
POLYLINE
  8
0
  6
CONTINUOUS
 66
     1
 40
0.000000
 41
0.000000
  0
VERTEX
  8
0
  6
CONTINUOUS
 10
6.876320
 20
1.895960
  0
VERTEX
  8
0
  6
CONTINUOUS
 10
6.882040
 20
2.637800
  0
VERTEX
  8
0
  6
CONTINUOUS
 10
6.899640
 20
2.694120
  0
VERTEX
  8
0
  6
CONTINUOUS
 10
6.893920
 20
1.952720
  0
VERTEX
  8
0
  6
CONTINUOUS
 10
6.876320
 20
1.895960
  0
SEQEND
  8
0
  0
SOLID
  8
0
 62
    15
 10
6.893920
 20
1.952720
 11
6.899640
 21
2.694120
 12
6.922080
 22
2.003760
 13
6.927800
 23
2.745600
  0
POLYLINE
  8
0
  6
CONTINUOUS
 66
     1
 40
0.000000
 41
0.000000
  0
VERTEX
  8
0
  6
CONTINUOUS
 10
6.893920
 20
1.952720
  0
VERTEX
  8
0
  6
CONTINUOUS
 10
6.899640
 20
2.694120
  0
VERTEX
  8
0
  6
CONTINUOUS
 10
6.927800
 20
2.745600
  0
VERTEX
  8
0
  6
CONTINUOUS
 10
6.922080
 20
2.003760
  0
VERTEX
  8
0
  6
CONTINUOUS
 10
6.893920
 20
1.952720
  0
SEQEND
  8
0
  0
SOLID
  8
0
 62
    15
 10
6.922080
 20
2.003760
 11
6.927800
 21
2.745600
 12
6.959480
 22
2.048640
 13
6.965200
 23
2.790480
  0
POLYLINE
  8
0
  6
CONTINUOUS
 66
     1
 40
0.000000
 41
0.000000
  0
VERTEX
  8
0
  6
CONTINUOUS
 10
6.922080
 20
2.003760
  0
VERTEX
  8
0
  6
CONTINUOUS
 10
6.927800
 20
2.745600
  0
VERTEX
  8
0
  6
CONTINUOUS
 10
6.965200
 20
2.790480
  0
VERTEX
  8
0
  6
CONTINUOUS
 10
6.959480
 20
2.048640
  0
VERTEX
  8
0
  6
CONTINUOUS
 10
6.922080
 20
2.003760
  0
SEQEND
  8
0
  0
SOLID
  8
0
 62
    15
 10
6.959480
 20
2.048640
 11
6.965200
 21
2.790480
 12
7.003920
 22
2.085600
 13
7.009640
 23
2.827440
  0
POLYLINE
  8
0
  6
CONTINUOUS
 66
     1
 40
0.000000
 41
0.000000
  0
VERTEX
  8
0
  6
CONTINUOUS
 10
6.959480
 20
2.048640
  0
VERTEX
  8
0
  6
CONTINUOUS
 10
6.965200
 20
2.790480
  0
VERTEX
  8
0
  6
CONTINUOUS
 10
7.009640
 20
2.827440
  0
VERTEX
  8
0
  6
CONTINUOUS
 10
7.003920
 20
2.085600
  0
VERTEX
  8
0
  6
CONTINUOUS
 10
6.959480
 20
2.048640
  0
SEQEND
  8
0
  0
SOLID
  8
0
 62
    15
 10
7.003920
 20
2.085600
 11
7.009640
 21
2.827440
 12
7.055400
 22
2.113760
 13
7.061120
 23
2.855600
  0
POLYLINE
  8
0
  6
CONTINUOUS
 66
     1
 40
0.000000
 41
0.000000
  0
VERTEX
  8
0
  6
CONTINUOUS
 10
7.003920
 20
2.085600
  0
VERTEX
  8
0
  6
CONTINUOUS
 10
7.009640
 20
2.827440
  0
VERTEX
  8
0
  6
CONTINUOUS
 10
7.061120
 20
2.855600
  0
VERTEX
  8
0
  6
CONTINUOUS
 10
7.055400
 20
2.113760
  0
VERTEX
  8
0
  6
CONTINUOUS
 10
7.003920
 20
2.085600
  0
SEQEND
  8
0
  0
SOLID
  8
0
 62
    15
 10
7.055400
 20
2.113760
 11
7.061120
 21
2.855600
 12
7.111720
 22
2.131800
 13
7.117440
 23
2.873640
  0
POLYLINE
  8
0
  6
CONTINUOUS
 66
     1
 40
0.000000
 41
0.000000
  0
VERTEX
  8
0
  6
CONTINUOUS
 10
7.055400
 20
2.113760
  0
VERTEX
  8
0
  6
CONTINUOUS
 10
7.061120
 20
2.855600
  0
VERTEX
  8
0
  6
CONTINUOUS
 10
7.117440
 20
2.873640
  0
VERTEX
  8
0
  6
CONTINUOUS
 10
7.111720
 20
2.131800
  0
VERTEX
  8
0
  6
CONTINUOUS
 10
7.055400
 20
2.113760
  0
SEQEND
  8
0
  0
SOLID
  8
0
 62
    15
 10
7.111720
 20
2.131800
 11
7.117440
 21
2.873640
 12
7.172000
 22
2.137960
 13
7.177720
 23
2.879800
  0
POLYLINE
  8
0
  6
CONTINUOUS
 66
     1
 40
0.000000
 41
0.000000
  0
VERTEX
  8
0
  6
CONTINUOUS
 10
7.111720
 20
2.131800
  0
VERTEX
  8
0
  6
CONTINUOUS
 10
7.117440
 20
2.873640
  0
VERTEX
  8
0
  6
CONTINUOUS
 10
7.177720
 20
2.879800
  0
VERTEX
  8
0
  6
CONTINUOUS
 10
7.172000
 20
2.137960
  0
VERTEX
  8
0
  6
CONTINUOUS
 10
7.111720
 20
2.131800
  0
SEQEND
  8
0
  0
SOLID
  8
0
 62
    15
 10
7.172000
 20
2.137960
 11
7.177720
 21
2.879800
 12
7.232280
 22
2.131800
 13
7.238000
 23
2.873640
  0
POLYLINE
  8
0
  6
CONTINUOUS
 66
     1
 40
0.000000
 41
0.000000
  0
VERTEX
  8
0
  6
CONTINUOUS
 10
7.172000
 20
2.137960
  0
VERTEX
  8
0
  6
CONTINUOUS
 10
7.177720
 20
2.879800
  0
VERTEX
  8
0
  6
CONTINUOUS
 10
7.238000
 20
2.873640
  0
VERTEX
  8
0
  6
CONTINUOUS
 10
7.232280
 20
2.131800
  0
VERTEX
  8
0
  6
CONTINUOUS
 10
7.172000
 20
2.137960
  0
SEQEND
  8
0
  0
SOLID
  8
0
 62
    15
 10
7.232280
 20
2.131800
 11
7.238000
 21
2.873640
 12
7.288600
 22
2.113760
 13
7.294320
 23
2.855600
  0
POLYLINE
  8
0
  6
CONTINUOUS
 66
     1
 40
0.000000
 41
0.000000
  0
VERTEX
  8
0
  6
CONTINUOUS
 10
7.232280
 20
2.131800
  0
VERTEX
  8
0
  6
CONTINUOUS
 10
7.238000
 20
2.873640
  0
VERTEX
  8
0
  6
CONTINUOUS
 10
7.294320
 20
2.855600
  0
VERTEX
  8
0
  6
CONTINUOUS
 10
7.288600
 20
2.113760
  0
VERTEX
  8
0
  6
CONTINUOUS
 10
7.232280
 20
2.131800
  0
SEQEND
  8
0
  0
SOLID
  8
0
 62
    15
 10
7.288600
 20
2.113760
 11
7.294320
 21
2.855600
 12
7.340080
 22
2.085600
 13
7.345800
 23
2.827440
  0
POLYLINE
  8
0
  6
CONTINUOUS
 66
     1
 40
0.000000
 41
0.000000
  0
VERTEX
  8
0
  6
CONTINUOUS
 10
7.288600
 20
2.113760
  0
VERTEX
  8
0
  6
CONTINUOUS
 10
7.294320
 20
2.855600
  0
VERTEX
  8
0
  6
CONTINUOUS
 10
7.345800
 20
2.827440
  0
VERTEX
  8
0
  6
CONTINUOUS
 10
7.340080
 20
2.085600
  0
VERTEX
  8
0
  6
CONTINUOUS
 10
7.288600
 20
2.113760
  0
SEQEND
  8
0
  0
SOLID
  8
0
 62
    15
 10
7.340080
 20
2.085600
 11
7.345800
 21
2.827440
 12
7.384960
 22
2.048640
 13
7.390680
 23
2.790480
  0
POLYLINE
  8
0
  6
CONTINUOUS
 66
     1
 40
0.000000
 41
0.000000
  0
VERTEX
  8
0
  6
CONTINUOUS
 10
7.340080
 20
2.085600
  0
VERTEX
  8
0
  6
CONTINUOUS
 10
7.345800
 20
2.827440
  0
VERTEX
  8
0
  6
CONTINUOUS
 10
7.390680
 20
2.790480
  0
VERTEX
  8
0
  6
CONTINUOUS
 10
7.384960
 20
2.048640
  0
VERTEX
  8
0
  6
CONTINUOUS
 10
7.340080
 20
2.085600
  0
SEQEND
  8
0
  0
SOLID
  8
0
 62
    15
 10
7.421920
 20
2.003760
 11
7.427640
 21
2.745600
 12
7.450080
 22
1.952720
 13
7.455800
 23
2.694120
  0
POLYLINE
  8
0
  6
CONTINUOUS
 66
     1
 40
0.000000
 41
0.000000
  0
VERTEX
  8
0
  6
CONTINUOUS
 10
7.421920
 20
2.003760
  0
VERTEX
  8
0
  6
CONTINUOUS
 10
7.427640
 20
2.745600
  0
VERTEX
  8
0
  6
CONTINUOUS
 10
7.455800
 20
2.694120
  0
VERTEX
  8
0
  6
CONTINUOUS
 10
7.450080
 20
1.952720
  0
VERTEX
  8
0
  6
CONTINUOUS
 10
7.421920
 20
2.003760
  0
SEQEND
  8
0
  0
SOLID
  8
0
 62
    15
 10
7.384960
 20
2.048640
 11
7.390680
 21
2.790480
 12
7.421920
 22
2.003760
 13
7.427640
 23
2.745600
  0
POLYLINE
  8
0
  6
CONTINUOUS
 66
     1
 40
0.000000
 41
0.000000
  0
VERTEX
  8
0
  6
CONTINUOUS
 10
7.384960
 20
2.048640
  0
VERTEX
  8
0
  6
CONTINUOUS
 10
7.390680
 20
2.790480
  0
VERTEX
  8
0
  6
CONTINUOUS
 10
7.427640
 20
2.745600
  0
VERTEX
  8
0
  6
CONTINUOUS
 10
7.421920
 20
2.003760
  0
VERTEX
  8
0
  6
CONTINUOUS
 10
7.384960
 20
2.048640
  0
SEQEND
  8
0
  0
SOLID
  8
0
 62
    15
 10
7.450080
 20
1.952720
 11
7.455800
 21
2.694120
 12
7.467680
 22
1.895960
 13
7.473840
 23
2.637800
  0
POLYLINE
  8
0
  6
CONTINUOUS
 66
     1
 40
0.000000
 41
0.000000
  0
VERTEX
  8
0
  6
CONTINUOUS
 10
7.450080
 20
1.952720
  0
VERTEX
  8
0
  6
CONTINUOUS
 10
7.455800
 20
2.694120
  0
VERTEX
  8
0
  6
CONTINUOUS
 10
7.473840
 20
2.637800
  0
VERTEX
  8
0
  6
CONTINUOUS
 10
7.467680
 20
1.895960
  0
VERTEX
  8
0
  6
CONTINUOUS
 10
7.450080
 20
1.952720
  0
SEQEND
  8
0
  0
SOLID
  8
0
 62
    15
 10
7.467680
 20
1.895960
 11
7.473840
 21
2.637800
 12
7.474280
 22
1.835680
 13
7.480000
 23
2.577520
  0
POLYLINE
  8
0
  6
CONTINUOUS
 66
     1
 40
0.000000
 41
0.000000
  0
VERTEX
  8
0
  6
CONTINUOUS
 10
7.467680
 20
1.895960
  0
VERTEX
  8
0
  6
CONTINUOUS
 10
7.473840
 20
2.637800
  0
VERTEX
  8
0
  6
CONTINUOUS
 10
7.480000
 20
2.577520
  0
VERTEX
  8
0
  6
CONTINUOUS
 10
7.474280
 20
1.835680
  0
VERTEX
  8
0
  6
CONTINUOUS
 10
7.467680
 20
1.895960
  0
SEQEND
  8
0
  0
POLYLINE
  8
0
  6
CONTINUOUS
 66
     1
 40
0.000000
 41
0.000000
  0
VERTEX
  8
0
  6
CONTINUOUS
 10
7.163640
 20
1.527680
  0
VERTEX
  8
0
  6
CONTINUOUS
 10
7.163640
 20
1.446280
  0
VERTEX
  8
0
  6
CONTINUOUS
 10
1.243000
 20
1.446280
  0
VERTEX
  8
0
  6
CONTINUOUS
 10
1.243000
 20
2.696320
  0
VERTEX
  8
0
  6
CONTINUOUS
 10
2.401080
 20
2.696320
  0
VERTEX
  8
0
  6
CONTINUOUS
 10
2.401080
 20
2.475440
  0
VERTEX
  8
0
  6
CONTINUOUS
 10
2.407680
 20
2.475440
  0
VERTEX
  8
0
  6
CONTINUOUS
 10
2.552440
 20
2.538360
  0
VERTEX
  8
0
  6
CONTINUOUS
 10
2.688840
 20
2.589840
  0
VERTEX
  8
0
  6
CONTINUOUS
 10
2.816880
 20
2.630320
  0
VERTEX
  8
0
  6
CONTINUOUS
 10
2.938760
 20
2.659800
  0
VERTEX
  8
0
  6
CONTINUOUS
 10
3.054920
 20
2.679160
  0
VERTEX
  8
0
  6
CONTINUOUS
 10
3.166240
 20
2.687960
  0
VERTEX
  8
0
  6
CONTINUOUS
 10
3.274920
 20
2.687080
  0
VERTEX
  8
0
  6
CONTINUOUS
 10
3.380960
 20
2.676520
  0
VERTEX
  8
0
  6
CONTINUOUS
 10
3.486120
 20
2.656720
  0
VERTEX
  8
0
  6
CONTINUOUS
 10
3.591720
 20
2.628120
  0
VERTEX
  8
0
  6
CONTINUOUS
 10
3.698640
 20
2.590280
  0
VERTEX
  8
0
  6
CONTINUOUS
 10
3.807320
 20
2.544520
  0
VERTEX
  8
0
  6
CONTINUOUS
 10
3.919960
 20
2.490840
  0
VERTEX
  8
0
  6
CONTINUOUS
 10
4.037440
 20
2.429240
  0
VERTEX
  8
0
  6
CONTINUOUS
 10
4.160640
 20
2.360160
  0
VERTEX
  8
0
  6
CONTINUOUS
 10
4.290880
 20
2.283600
  0
VERTEX
  8
0
  6
CONTINUOUS
 10
4.366120
 20
2.242240
  0
VERTEX
  8
0
  6
CONTINUOUS
 10
4.447080
 20
2.203520
  0
VERTEX
  8
0
  6
CONTINUOUS
 10
4.620880
 20
2.136200
  0
VERTEX
  8
0
  6
CONTINUOUS
 10
4.806120
 20
2.080320
  0
VERTEX
  8
0
  6
CONTINUOUS
 10
4.996640
 20
2.035880
  0
VERTEX
  8
0
  6
CONTINUOUS
 10
5.186280
 20
2.001560
  0
VERTEX
  8
0
  6
CONTINUOUS
 10
5.369320
 20
1.976040
  0
VERTEX
  8
0
  6
CONTINUOUS
 10
5.538720
 20
1.959320
  0
VERTEX
  8
0
  6
CONTINUOUS
 10
5.616600
 20
1.954040
  0
VERTEX
  8
0
  6
CONTINUOUS
 10
5.688760
 20
1.950520
  0
VERTEX
  8
0
  6
CONTINUOUS
 10
5.697120
 20
1.954480
  0
VERTEX
  8
0
  6
CONTINUOUS
 10
5.717800
 20
2.020920
  0
VERTEX
  8
0
  6
CONTINUOUS
 10
5.746840
 20
2.079880
  0
VERTEX
  8
0
  6
CONTINUOUS
 10
5.782920
 20
2.131800
  0
VERTEX
  8
0
  6
CONTINUOUS
 10
5.825600
 20
2.176240
  0
VERTEX
  8
0
  6
CONTINUOUS
 10
5.873120
 20
2.213200
  0
VERTEX
  8
0
  6
CONTINUOUS
 10
5.924600
 20
2.242240
  0
VERTEX
  8
0
  6
CONTINUOUS
 10
5.979600
 20
2.264240
  0
VERTEX
  8
0
  6
CONTINUOUS
 10
6.036800
 20
2.277880
  0
VERTEX
  8
0
  6
CONTINUOUS
 10
6.095320
 20
2.284480
  0
VERTEX
  8
0
  6
CONTINUOUS
 10
6.153840
 20
2.282720
  0
VERTEX
  8
0
  6
CONTINUOUS
 10
6.211480
 20
2.273480
  0
VERTEX
  8
0
  6
CONTINUOUS
 10
6.267360
 20
2.255880
  0
VERTEX
  8
0
  6
CONTINUOUS
 10
6.320600
 20
2.230360
  0
VERTEX
  8
0
  6
CONTINUOUS
 10
6.369880
 20
2.196480
  0
VERTEX
  8
0
  6
CONTINUOUS
 10
6.414320
 20
2.154680
  0
VERTEX
  8
0
  6
CONTINUOUS
 10
6.453480
 20
2.104520
  0
VERTEX
  8
0
  6
CONTINUOUS
 10
6.485600
 20
2.059200
  0
VERTEX
  8
0
  6
CONTINUOUS
 10
6.524320
 20
2.013000
  0
VERTEX
  8
0
  6
CONTINUOUS
 10
6.569200
 20
1.968120
  0
VERTEX
  8
0
  6
CONTINUOUS
 10
6.619800
 20
1.926760
  0
VERTEX
  8
0
  6
CONTINUOUS
 10
6.674800
 20
1.891120
  0
VERTEX
  8
0
  6
CONTINUOUS
 10
6.734640
 20
1.862960
  0
VERTEX
  8
0
  6
CONTINUOUS
 10
6.798440
 20
1.844480
  0
VERTEX
  8
0
  6
CONTINUOUS
 10
6.865760
 20
1.837880
  0
VERTEX
  8
0
  6
CONTINUOUS
 10
6.870160
 20
1.835680
  0
VERTEX
  8
0
  6
CONTINUOUS
 10
6.876320
 20
1.895960
  0
VERTEX
  8
0
  6
CONTINUOUS
 10
6.893920
 20
1.952720
  0
VERTEX
  8
0
  6
CONTINUOUS
 10
6.922080
 20
2.003760
  0
VERTEX
  8
0
  6
CONTINUOUS
 10
6.959480
 20
2.048640
  0
VERTEX
  8
0
  6
CONTINUOUS
 10
7.003920
 20
2.085600
  0
VERTEX
  8
0
  6
CONTINUOUS
 10
7.055400
 20
2.113760
  0
VERTEX
  8
0
  6
CONTINUOUS
 10
7.111720
 20
2.131800
  0
VERTEX
  8
0
  6
CONTINUOUS
 10
7.172000
 20
2.137960
  0
VERTEX
  8
0
  6
CONTINUOUS
 10
7.232280
 20
2.131800
  0
VERTEX
  8
0
  6
CONTINUOUS
 10
7.288600
 20
2.113760
  0
VERTEX
  8
0
  6
CONTINUOUS
 10
7.340080
 20
2.085600
  0
VERTEX
  8
0
  6
CONTINUOUS
 10
7.384960
 20
2.048640
  0
VERTEX
  8
0
  6
CONTINUOUS
 10
7.421920
 20
2.003760
  0
VERTEX
  8
0
  6
CONTINUOUS
 10
7.450080
 20
1.952720
  0
VERTEX
  8
0
  6
CONTINUOUS
 10
7.467680
 20
1.895960
  0
VERTEX
  8
0
  6
CONTINUOUS
 10
7.474280
 20
1.835680
  0
VERTEX
  8
0
  6
CONTINUOUS
 10
7.467680
 20
1.775840
  0
VERTEX
  8
0
  6
CONTINUOUS
 10
7.450080
 20
1.719080
  0
VERTEX
  8
0
  6
CONTINUOUS
 10
7.421920
 20
1.668040
  0
VERTEX
  8
0
  6
CONTINUOUS
 10
7.384960
 20
1.623160
  0
VERTEX
  8
0
  6
CONTINUOUS
 10
7.340080
 20
1.586200
  0
VERTEX
  8
0
  6
CONTINUOUS
 10
7.288600
 20
1.558040
  0
VERTEX
  8
0
  6
CONTINUOUS
 10
7.232280
 20
1.540000
  0
VERTEX
  8
0
  6
CONTINUOUS
 10
7.172000
 20
1.533840
  0
VERTEX
  8
0
  6
CONTINUOUS
 10
7.163640
 20
1.527680
  0
SEQEND
  8
0
  0
TEXT
  8
0
 10
4.066920
 20
1.162480
 40
0.138249
  1
BA  659
 41
1.000000
  7
SN0
 71
     0
 72
     5
 11
4.656753
 21
1.162480
  0
TEXT
  8
0
 10
3.837240
 20
0.970640
 40
0.138249
  1
1-1/4" x 6-1/4"
 41
1.000000
  7
SN0
 71
     0
 72
     5
 11
4.885724
 21
0.970640
  0
ENDSEC
  0
EOF
