  0
SECTION
  2
HEADER
  9
$ACADVER
  1
AC1006
  9
$EXTMIN
 10
1.819400
 20
1.354760
  9
$EXTMAX
 10
7.457120
 20
5.820760
  9
$LTSCALE
 40
0.044000
  9
$PDMODE
 70
    35
  9
$PDSIZE
 40
0.035200
  0
ENDSEC
  0
SECTION
  2
TABLES
  0
TABLE
  2
LTYPE
 70
     9
  0
LTYPE
  2
CONTINUOUS
 70
    64
  3
Solid line
 72
    65
 73
     0
 40
0.000000
  0
LTYPE
  2
DASHED
 70
    64
  3
__ __ __ __ __ __ __ __ __ __ __ __ __ __ __
 72
    65
 73
     2
 40
0.000330
 49
0.000220
 49
-0.000110
  0
LTYPE
  2
HIDDEN
 70
    64
  3
 _ _ _ _ _ _ _ _ _ _ _ _ _ _ _ _ _ _ _ _ _ _
 72
    65
 73
     2
 40
0.000165
 49
0.000110
 49
-0.000055
  0
LTYPE
  2
CENTER
 70
    64
  3
____ _ ____ _ ____ _ ____ _ ____ _ ____ _ ____
 72
    65
 73
     4
 40
0.000880
 49
0.000550
 49
-0.000110
 49
0.000110
 49
-0.000110
  0
LTYPE
  2
PHANTOM
 70
    64
  3
_____ _ _ _____ _ _ _____ _ _ _____ _ _ ____
 72
    65
 73
     6
 40
0.001100
 49
0.000550
 49
-0.000110
 49
0.000110
 49
-0.000110
 49
0.000110
 49
-0.000110
  0
LTYPE
  2
DOT
 70
    64
  3
...............................................
 72
    65
 73
     2
 40
0.000110
 49
0.000000
 49
-0.000110
  0
LTYPE
  2
DASHDOT
 70
    64
  3
__ . __ . __ . __ . __ . __ . __ . __ . __ . __
 72
    65
 73
     4
 40
0.000440
 49
0.000220
 49
-0.000110
 49
0.000000
 49
-0.000110
  0
LTYPE
  2
BORDER
 70
    64
  3
__ __ . __ __ . __ __ . __ __ . __ __ . __ __
 72
    65
 73
     6
 40
0.000770
 49
0.000220
 49
-0.000110
 49
0.000220
 49
-0.000110
 49
0.000000
 49
-0.000110
  0
LTYPE
  2
DIVIDE
 70
    64
  3
__ . . __ . . __ . . __ . . __ . . __ . . __
 72
    65
 73
     6
 40
0.000550
 49
0.000220
 49
-0.000110
 49
0.000000
 49
-0.000110
 49
0.000000
 49
-0.000110
  0
LTYPE
  2
DOTDOT
 70
    64
  3
 . .  . .  . .  . .  . .  . . 
 72
    65
 73
     5
 40
0.000242
 49
-0.000110
 49
0.000000
 49
-0.000110
 49
0.000000
 49
-0.000110
  0
ENDTAB
  0
TABLE
  2
STYLE
 70
     2
  0
STYLE
 70
     0
  2
SN0
 40
0.000000
 41
0.000440
 50
0.000000
 71
     0
 42
0.000000
  3
ROMAND
  0
STYLE
 70
    68
  2
SV0
 40
0.000000
 41
0.000440
 50
0.000000
 71
     0
 42
0.000000
  3
ROMAND
  0
ENDTAB
  0
TABLE
  2
LAYER
 70
     3
  0
LAYER
  2
FOREGROUND
 70
    64
 62
     7
  6
CONTINUOUS
  0
LAYER
  2
BACKGROUND
 70
    65
 62
    -7
  6
CONTINUOUS
  0
LAYER
  2
0
 70
    64
 62
     7
  6
CONTINUOUS
  0
ENDTAB
  0
ENDSEC
  0
SECTION
  2
ENTITIES
  0
POLYLINE
  8
FOREGROUND
  6
CONTINUOUS
 66
     1
 40
0.000000
 41
0.000000
  0
VERTEX
  8
FOREGROUND
  6
CONTINUOUS
 10
0.000000
 20
7.175520
  0
VERTEX
  8
FOREGROUND
  6
CONTINUOUS
 10
8.499920
 20
7.175520
  0
VERTEX
  8
FOREGROUND
  6
CONTINUOUS
 10
8.499920
 20
-3.824480
  0
VERTEX
  8
FOREGROUND
  6
CONTINUOUS
 10
0.000000
 20
-3.824480
  0
VERTEX
  8
FOREGROUND
  6
CONTINUOUS
 10
0.000000
 20
7.175520
  0
SEQEND
  8
0
  0
POLYLINE
  8
FOREGROUND
  6
CONTINUOUS
 66
     1
 40
0.000000
 41
0.000000
  0
VERTEX
  8
FOREGROUND
  6
CONTINUOUS
 10
0.000000
 20
7.175520
  0
VERTEX
  8
FOREGROUND
  6
CONTINUOUS
 10
8.499920
 20
7.175520
  0
VERTEX
  8
FOREGROUND
  6
CONTINUOUS
 10
8.499920
 20
-3.824480
  0
VERTEX
  8
FOREGROUND
  6
CONTINUOUS
 10
0.000000
 20
-3.824480
  0
VERTEX
  8
FOREGROUND
  6
CONTINUOUS
 10
0.000000
 20
7.175520
  0
SEQEND
  8
0
  0
POLYLINE
  8
0
  6
CONTINUOUS
 66
     1
 40
0.014080
 41
0.014080
  0
VERTEX
  8
0
  6
CONTINUOUS
 10
5.443680
 20
5.448520
  0
VERTEX
  8
0
  6
CONTINUOUS
 10
5.379440
 20
5.548400
  0
VERTEX
  8
0
  6
CONTINUOUS
 10
5.372840
 20
5.548400
  0
VERTEX
  8
0
  6
CONTINUOUS
 10
5.326200
 20
5.527280
  0
VERTEX
  8
0
  6
CONTINUOUS
 10
5.280000
 20
5.511000
  0
VERTEX
  8
0
  6
CONTINUOUS
 10
5.234680
 20
5.499120
  0
VERTEX
  8
0
  6
CONTINUOUS
 10
5.189800
 20
5.491640
  0
VERTEX
  8
0
  6
CONTINUOUS
 10
5.145360
 20
5.488560
  0
VERTEX
  8
0
  6
CONTINUOUS
 10
5.123800
 20
5.488120
  0
VERTEX
  8
0
  6
CONTINUOUS
 10
5.080240
 20
5.491200
  0
VERTEX
  8
0
  6
CONTINUOUS
 10
5.037120
 20
5.497360
  0
VERTEX
  8
0
  6
CONTINUOUS
 10
4.994880
 20
5.507480
  0
VERTEX
  8
0
  6
CONTINUOUS
 10
4.952640
 20
5.521120
  0
VERTEX
  8
0
  6
CONTINUOUS
 10
4.890160
 20
5.547960
  0
VERTEX
  8
0
  6
CONTINUOUS
 10
4.828120
 20
5.581400
  0
VERTEX
  8
0
  6
CONTINUOUS
 10
4.766960
 20
5.621440
  0
VERTEX
  8
0
  6
CONTINUOUS
 10
4.726040
 20
5.651360
  0
VERTEX
  8
0
  6
CONTINUOUS
 10
4.657840
 20
5.705480
  0
VERTEX
  8
0
  6
CONTINUOUS
 10
4.610760
 20
5.736280
  0
VERTEX
  8
0
  6
CONTINUOUS
 10
4.557960
 20
5.763560
  0
VERTEX
  8
0
  6
CONTINUOUS
 10
4.501640
 20
5.786000
  0
VERTEX
  8
0
  6
CONTINUOUS
 10
4.442680
 20
5.802720
  0
VERTEX
  8
0
  6
CONTINUOUS
 10
4.402640
 20
5.809320
  0
VERTEX
  8
0
  6
CONTINUOUS
 10
4.362600
 20
5.812840
  0
VERTEX
  8
0
  6
CONTINUOUS
 10
4.342360
 20
5.812840
  0
VERTEX
  8
0
  6
CONTINUOUS
 10
4.303200
 20
5.809320
  0
VERTEX
  8
0
  6
CONTINUOUS
 10
4.264480
 20
5.801400
  0
VERTEX
  8
0
  6
CONTINUOUS
 10
4.227520
 20
5.788200
  0
VERTEX
  8
0
  6
CONTINUOUS
 10
4.192320
 20
5.769280
  0
VERTEX
  8
0
  6
CONTINUOUS
 10
4.159320
 20
5.744200
  0
VERTEX
  8
0
  6
CONTINUOUS
 10
4.128960
 20
5.712960
  0
VERTEX
  8
0
  6
CONTINUOUS
 10
4.110480
 20
5.690080
  0
VERTEX
  8
0
  6
CONTINUOUS
 10
4.043600
 20
5.687880
  0
VERTEX
  8
0
  6
CONTINUOUS
 10
4.042720
 20
5.721320
  0
VERTEX
  8
0
  6
CONTINUOUS
 10
4.038320
 20
5.746840
  0
VERTEX
  8
0
  6
CONTINUOUS
 10
4.030400
 20
5.767080
  0
VERTEX
  8
0
  6
CONTINUOUS
 10
4.019400
 20
5.782920
  0
VERTEX
  8
0
  6
CONTINUOUS
 10
4.000480
 20
5.797440
  0
VERTEX
  8
0
  6
CONTINUOUS
 10
3.989480
 20
5.802720
  0
VERTEX
  8
0
  6
CONTINUOUS
 10
3.964840
 20
5.808880
  0
VERTEX
  8
0
  6
CONTINUOUS
 10
3.937120
 20
5.811960
  0
VERTEX
  8
0
  6
CONTINUOUS
 10
3.891800
 20
5.812840
  0
VERTEX
  8
0
  6
CONTINUOUS
 10
3.891800
 20
5.811080
  0
VERTEX
  8
0
  6
CONTINUOUS
 10
1.825120
 20
5.811080
  0
VERTEX
  8
0
  6
CONTINUOUS
 10
1.827320
 20
5.811080
  0
VERTEX
  8
0
  6
CONTINUOUS
 10
1.827320
 20
4.558840
  0
VERTEX
  8
0
  6
CONTINUOUS
 10
7.439520
 20
4.558840
  0
VERTEX
  8
0
  6
CONTINUOUS
 10
7.446120
 20
4.561040
  0
VERTEX
  8
0
  6
CONTINUOUS
 10
7.446120
 20
5.448520
  0
VERTEX
  8
0
  6
CONTINUOUS
 10
7.439520
 20
5.446320
  0
VERTEX
  8
0
  6
CONTINUOUS
 10
5.443680
 20
5.448520
  0
SEQEND
  8
0
  0
SOLID
  8
0
 62
    15
 10
4.256560
 20
3.105960
 11
4.254800
 21
3.863200
 12
4.333560
 22
3.122240
 13
4.331360
 23
3.879480
  0
POLYLINE
  8
0
  6
CONTINUOUS
 66
     1
 40
0.000000
 41
0.000000
  0
VERTEX
  8
0
  6
CONTINUOUS
 10
4.256560
 20
3.105960
  0
VERTEX
  8
0
  6
CONTINUOUS
 10
4.254800
 20
3.863200
  0
VERTEX
  8
0
  6
CONTINUOUS
 10
4.331360
 20
3.879480
  0
VERTEX
  8
0
  6
CONTINUOUS
 10
4.333560
 20
3.122240
  0
VERTEX
  8
0
  6
CONTINUOUS
 10
4.256560
 20
3.105960
  0
SEQEND
  8
0
  0
SOLID
  8
0
 62
    15
 10
1.837880
 20
1.869560
 11
1.836120
 21
2.626800
 12
1.837880
 22
3.121800
 13
1.836120
 23
3.879040
  0
POLYLINE
  8
0
  6
CONTINUOUS
 66
     1
 40
0.000000
 41
0.000000
  0
VERTEX
  8
0
  6
CONTINUOUS
 10
1.837880
 20
1.869560
  0
VERTEX
  8
0
  6
CONTINUOUS
 10
1.836120
 20
2.626800
  0
VERTEX
  8
0
  6
CONTINUOUS
 10
1.836120
 20
3.879040
  0
VERTEX
  8
0
  6
CONTINUOUS
 10
1.837880
 20
3.121800
  0
VERTEX
  8
0
  6
CONTINUOUS
 10
1.837880
 20
1.869560
  0
SEQEND
  8
0
  0
SOLID
  8
0
 62
    15
 10
1.837880
 20
3.121800
 11
1.836120
 21
3.879040
 12
3.902800
 22
3.121800
 13
3.900600
 23
3.879040
  0
POLYLINE
  8
0
  6
CONTINUOUS
 66
     1
 40
0.000000
 41
0.000000
  0
VERTEX
  8
0
  6
CONTINUOUS
 10
1.837880
 20
3.121800
  0
VERTEX
  8
0
  6
CONTINUOUS
 10
1.836120
 20
3.879040
  0
VERTEX
  8
0
  6
CONTINUOUS
 10
3.900600
 20
3.879040
  0
VERTEX
  8
0
  6
CONTINUOUS
 10
3.902800
 20
3.121800
  0
VERTEX
  8
0
  6
CONTINUOUS
 10
1.837880
 20
3.121800
  0
SEQEND
  8
0
  0
SOLID
  8
0
 62
    15
 10
3.902800
 20
3.121800
 11
3.900600
 21
3.879040
 12
3.902800
 22
3.124000
 13
3.900600
 23
3.881240
  0
POLYLINE
  8
0
  6
CONTINUOUS
 66
     1
 40
0.000000
 41
0.000000
  0
VERTEX
  8
0
  6
CONTINUOUS
 10
3.902800
 20
3.121800
  0
VERTEX
  8
0
  6
CONTINUOUS
 10
3.900600
 20
3.879040
  0
VERTEX
  8
0
  6
CONTINUOUS
 10
3.900600
 20
3.881240
  0
VERTEX
  8
0
  6
CONTINUOUS
 10
3.902800
 20
3.124000
  0
VERTEX
  8
0
  6
CONTINUOUS
 10
3.902800
 20
3.121800
  0
SEQEND
  8
0
  0
SOLID
  8
0
 62
    15
 10
3.902800
 20
3.124000
 11
3.900600
 21
3.881240
 12
3.962200
 22
3.121800
 13
3.960000
 23
3.879040
  0
POLYLINE
  8
0
  6
CONTINUOUS
 66
     1
 40
0.000000
 41
0.000000
  0
VERTEX
  8
0
  6
CONTINUOUS
 10
3.902800
 20
3.124000
  0
VERTEX
  8
0
  6
CONTINUOUS
 10
3.900600
 20
3.881240
  0
VERTEX
  8
0
  6
CONTINUOUS
 10
3.960000
 20
3.879040
  0
VERTEX
  8
0
  6
CONTINUOUS
 10
3.962200
 20
3.121800
  0
VERTEX
  8
0
  6
CONTINUOUS
 10
3.902800
 20
3.124000
  0
SEQEND
  8
0
  0
SOLID
  8
0
 62
    15
 10
3.962200
 20
3.121800
 11
3.960000
 21
3.879040
 12
4.011480
 22
3.108600
 13
4.009280
 23
3.865840
  0
POLYLINE
  8
0
  6
CONTINUOUS
 66
     1
 40
0.000000
 41
0.000000
  0
VERTEX
  8
0
  6
CONTINUOUS
 10
3.962200
 20
3.121800
  0
VERTEX
  8
0
  6
CONTINUOUS
 10
3.960000
 20
3.879040
  0
VERTEX
  8
0
  6
CONTINUOUS
 10
4.009280
 20
3.865840
  0
VERTEX
  8
0
  6
CONTINUOUS
 10
4.011480
 20
3.108600
  0
VERTEX
  8
0
  6
CONTINUOUS
 10
3.962200
 20
3.121800
  0
SEQEND
  8
0
  0
SOLID
  8
0
 62
    15
 10
4.011480
 20
3.108600
 11
4.009280
 21
3.865840
 12
4.030400
 22
3.093640
 13
4.028200
 23
3.851320
  0
POLYLINE
  8
0
  6
CONTINUOUS
 66
     1
 40
0.000000
 41
0.000000
  0
VERTEX
  8
0
  6
CONTINUOUS
 10
4.011480
 20
3.108600
  0
VERTEX
  8
0
  6
CONTINUOUS
 10
4.009280
 20
3.865840
  0
VERTEX
  8
0
  6
CONTINUOUS
 10
4.028200
 20
3.851320
  0
VERTEX
  8
0
  6
CONTINUOUS
 10
4.030400
 20
3.093640
  0
VERTEX
  8
0
  6
CONTINUOUS
 10
4.011480
 20
3.108600
  0
SEQEND
  8
0
  0
SOLID
  8
0
 62
    15
 10
4.030400
 20
3.093640
 11
4.028200
 21
3.851320
 12
4.044480
 22
3.072080
 13
4.042280
 23
3.829320
  0
POLYLINE
  8
0
  6
CONTINUOUS
 66
     1
 40
0.000000
 41
0.000000
  0
VERTEX
  8
0
  6
CONTINUOUS
 10
4.030400
 20
3.093640
  0
VERTEX
  8
0
  6
CONTINUOUS
 10
4.028200
 20
3.851320
  0
VERTEX
  8
0
  6
CONTINUOUS
 10
4.042280
 20
3.829320
  0
VERTEX
  8
0
  6
CONTINUOUS
 10
4.044480
 20
3.072080
  0
VERTEX
  8
0
  6
CONTINUOUS
 10
4.030400
 20
3.093640
  0
SEQEND
  8
0
  0
SOLID
  8
0
 62
    15
 10
4.044480
 20
3.072080
 11
4.042280
 21
3.829320
 12
4.052840
 22
3.041720
 13
4.050640
 23
3.798960
  0
POLYLINE
  8
0
  6
CONTINUOUS
 66
     1
 40
0.000000
 41
0.000000
  0
VERTEX
  8
0
  6
CONTINUOUS
 10
4.044480
 20
3.072080
  0
VERTEX
  8
0
  6
CONTINUOUS
 10
4.042280
 20
3.829320
  0
VERTEX
  8
0
  6
CONTINUOUS
 10
4.050640
 20
3.798960
  0
VERTEX
  8
0
  6
CONTINUOUS
 10
4.052840
 20
3.041720
  0
VERTEX
  8
0
  6
CONTINUOUS
 10
4.044480
 20
3.072080
  0
SEQEND
  8
0
  0
SOLID
  8
0
 62
    15
 10
4.054600
 20
2.999040
 11
4.052840
 21
3.756280
 12
4.121480
 22
3.000800
 13
4.119280
 23
3.758040
  0
POLYLINE
  8
0
  6
CONTINUOUS
 66
     1
 40
0.000000
 41
0.000000
  0
VERTEX
  8
0
  6
CONTINUOUS
 10
4.054600
 20
2.999040
  0
VERTEX
  8
0
  6
CONTINUOUS
 10
4.052840
 20
3.756280
  0
VERTEX
  8
0
  6
CONTINUOUS
 10
4.119280
 20
3.758040
  0
VERTEX
  8
0
  6
CONTINUOUS
 10
4.121480
 20
3.000800
  0
VERTEX
  8
0
  6
CONTINUOUS
 10
4.054600
 20
2.999040
  0
SEQEND
  8
0
  0
SOLID
  8
0
 62
    15
 10
4.052840
 20
3.041720
 11
4.050640
 21
3.798960
 12
4.054600
 22
3.000800
 13
4.052840
 23
3.758040
  0
POLYLINE
  8
0
  6
CONTINUOUS
 66
     1
 40
0.000000
 41
0.000000
  0
VERTEX
  8
0
  6
CONTINUOUS
 10
4.052840
 20
3.041720
  0
VERTEX
  8
0
  6
CONTINUOUS
 10
4.050640
 20
3.798960
  0
VERTEX
  8
0
  6
CONTINUOUS
 10
4.052840
 20
3.758040
  0
VERTEX
  8
0
  6
CONTINUOUS
 10
4.054600
 20
3.000800
  0
VERTEX
  8
0
  6
CONTINUOUS
 10
4.052840
 20
3.041720
  0
SEQEND
  8
0
  0
SOLID
  8
0
 62
    15
 10
4.121480
 20
3.000800
 11
4.119280
 21
3.758040
 12
4.125440
 22
3.005200
 13
4.123680
 23
3.762440
  0
POLYLINE
  8
0
  6
CONTINUOUS
 66
     1
 40
0.000000
 41
0.000000
  0
VERTEX
  8
0
  6
CONTINUOUS
 10
4.121480
 20
3.000800
  0
VERTEX
  8
0
  6
CONTINUOUS
 10
4.119280
 20
3.758040
  0
VERTEX
  8
0
  6
CONTINUOUS
 10
4.123680
 20
3.762440
  0
VERTEX
  8
0
  6
CONTINUOUS
 10
4.125440
 20
3.005200
  0
VERTEX
  8
0
  6
CONTINUOUS
 10
4.121480
 20
3.000800
  0
SEQEND
  8
0
  0
SOLID
  8
0
 62
    15
 10
4.125440
 20
3.005200
 11
4.123680
 21
3.762440
 12
4.154480
 22
3.039960
 13
4.152280
 23
3.797200
  0
POLYLINE
  8
0
  6
CONTINUOUS
 66
     1
 40
0.000000
 41
0.000000
  0
VERTEX
  8
0
  6
CONTINUOUS
 10
4.125440
 20
3.005200
  0
VERTEX
  8
0
  6
CONTINUOUS
 10
4.123680
 20
3.762440
  0
VERTEX
  8
0
  6
CONTINUOUS
 10
4.152280
 20
3.797200
  0
VERTEX
  8
0
  6
CONTINUOUS
 10
4.154480
 20
3.039960
  0
VERTEX
  8
0
  6
CONTINUOUS
 10
4.125440
 20
3.005200
  0
SEQEND
  8
0
  0
SOLID
  8
0
 62
    15
 10
4.154480
 20
3.039960
 11
4.152280
 21
3.797200
 12
4.186160
 22
3.068120
 13
4.184400
 23
3.825360
  0
POLYLINE
  8
0
  6
CONTINUOUS
 66
     1
 40
0.000000
 41
0.000000
  0
VERTEX
  8
0
  6
CONTINUOUS
 10
4.154480
 20
3.039960
  0
VERTEX
  8
0
  6
CONTINUOUS
 10
4.152280
 20
3.797200
  0
VERTEX
  8
0
  6
CONTINUOUS
 10
4.184400
 20
3.825360
  0
VERTEX
  8
0
  6
CONTINUOUS
 10
4.186160
 20
3.068120
  0
VERTEX
  8
0
  6
CONTINUOUS
 10
4.154480
 20
3.039960
  0
SEQEND
  8
0
  0
SOLID
  8
0
 62
    15
 10
4.186160
 20
3.068120
 11
4.184400
 21
3.825360
 12
4.220480
 22
3.090120
 13
4.218280
 23
3.847360
  0
POLYLINE
  8
0
  6
CONTINUOUS
 66
     1
 40
0.000000
 41
0.000000
  0
VERTEX
  8
0
  6
CONTINUOUS
 10
4.186160
 20
3.068120
  0
VERTEX
  8
0
  6
CONTINUOUS
 10
4.184400
 20
3.825360
  0
VERTEX
  8
0
  6
CONTINUOUS
 10
4.218280
 20
3.847360
  0
VERTEX
  8
0
  6
CONTINUOUS
 10
4.220480
 20
3.090120
  0
VERTEX
  8
0
  6
CONTINUOUS
 10
4.186160
 20
3.068120
  0
SEQEND
  8
0
  0
SOLID
  8
0
 62
    15
 10
4.220480
 20
3.090120
 11
4.218280
 21
3.847360
 12
4.256560
 22
3.105960
 13
4.254800
 23
3.863200
  0
POLYLINE
  8
0
  6
CONTINUOUS
 66
     1
 40
0.000000
 41
0.000000
  0
VERTEX
  8
0
  6
CONTINUOUS
 10
4.220480
 20
3.090120
  0
VERTEX
  8
0
  6
CONTINUOUS
 10
4.218280
 20
3.847360
  0
VERTEX
  8
0
  6
CONTINUOUS
 10
4.254800
 20
3.863200
  0
VERTEX
  8
0
  6
CONTINUOUS
 10
4.256560
 20
3.105960
  0
VERTEX
  8
0
  6
CONTINUOUS
 10
4.220480
 20
3.090120
  0
SEQEND
  8
0
  0
SOLID
  8
0
 62
    15
 10
7.414000
 20
2.757040
 11
7.411800
 21
3.514280
 12
7.456680
 22
2.757040
 13
7.454920
 23
3.514280
  0
POLYLINE
  8
0
  6
CONTINUOUS
 66
     1
 40
0.000000
 41
0.000000
  0
VERTEX
  8
0
  6
CONTINUOUS
 10
7.414000
 20
2.757040
  0
VERTEX
  8
0
  6
CONTINUOUS
 10
7.411800
 20
3.514280
  0
VERTEX
  8
0
  6
CONTINUOUS
 10
7.454920
 20
3.514280
  0
VERTEX
  8
0
  6
CONTINUOUS
 10
7.456680
 20
2.757040
  0
VERTEX
  8
0
  6
CONTINUOUS
 10
7.414000
 20
2.757040
  0
SEQEND
  8
0
  0
SOLID
  8
0
 62
    15
 10
4.333560
 20
3.122240
 11
4.331360
 21
3.879480
 12
4.413200
 22
3.120040
 13
4.411440
 23
3.877280
  0
POLYLINE
  8
0
  6
CONTINUOUS
 66
     1
 40
0.000000
 41
0.000000
  0
VERTEX
  8
0
  6
CONTINUOUS
 10
4.333560
 20
3.122240
  0
VERTEX
  8
0
  6
CONTINUOUS
 10
4.331360
 20
3.879480
  0
VERTEX
  8
0
  6
CONTINUOUS
 10
4.411440
 20
3.877280
  0
VERTEX
  8
0
  6
CONTINUOUS
 10
4.413200
 20
3.120040
  0
VERTEX
  8
0
  6
CONTINUOUS
 10
4.333560
 20
3.122240
  0
SEQEND
  8
0
  0
SOLID
  8
0
 62
    15
 10
4.413200
 20
3.120040
 11
4.411440
 21
3.877280
 12
4.492840
 22
3.102880
 13
4.491080
 23
3.860560
  0
POLYLINE
  8
0
  6
CONTINUOUS
 66
     1
 40
0.000000
 41
0.000000
  0
VERTEX
  8
0
  6
CONTINUOUS
 10
4.413200
 20
3.120040
  0
VERTEX
  8
0
  6
CONTINUOUS
 10
4.411440
 20
3.877280
  0
VERTEX
  8
0
  6
CONTINUOUS
 10
4.491080
 20
3.860560
  0
VERTEX
  8
0
  6
CONTINUOUS
 10
4.492840
 20
3.102880
  0
VERTEX
  8
0
  6
CONTINUOUS
 10
4.413200
 20
3.120040
  0
SEQEND
  8
0
  0
SOLID
  8
0
 62
    15
 10
4.492840
 20
3.102880
 11
4.491080
 21
3.860560
 12
4.568960
 22
3.074280
 13
4.566760
 23
3.831520
  0
POLYLINE
  8
0
  6
CONTINUOUS
 66
     1
 40
0.000000
 41
0.000000
  0
VERTEX
  8
0
  6
CONTINUOUS
 10
4.492840
 20
3.102880
  0
VERTEX
  8
0
  6
CONTINUOUS
 10
4.491080
 20
3.860560
  0
VERTEX
  8
0
  6
CONTINUOUS
 10
4.566760
 20
3.831520
  0
VERTEX
  8
0
  6
CONTINUOUS
 10
4.568960
 20
3.074280
  0
VERTEX
  8
0
  6
CONTINUOUS
 10
4.492840
 20
3.102880
  0
SEQEND
  8
0
  0
SOLID
  8
0
 62
    15
 10
4.568960
 20
3.074280
 11
4.566760
 21
3.831520
 12
4.637600
 22
3.036880
 13
4.635840
 23
3.794120
  0
POLYLINE
  8
0
  6
CONTINUOUS
 66
     1
 40
0.000000
 41
0.000000
  0
VERTEX
  8
0
  6
CONTINUOUS
 10
4.568960
 20
3.074280
  0
VERTEX
  8
0
  6
CONTINUOUS
 10
4.566760
 20
3.831520
  0
VERTEX
  8
0
  6
CONTINUOUS
 10
4.635840
 20
3.794120
  0
VERTEX
  8
0
  6
CONTINUOUS
 10
4.637600
 20
3.036880
  0
VERTEX
  8
0
  6
CONTINUOUS
 10
4.568960
 20
3.074280
  0
SEQEND
  8
0
  0
SOLID
  8
0
 62
    15
 10
4.637600
 20
3.036880
 11
4.635840
 21
3.794120
 12
4.696560
 22
2.994640
 13
4.694360
 23
3.751880
  0
POLYLINE
  8
0
  6
CONTINUOUS
 66
     1
 40
0.000000
 41
0.000000
  0
VERTEX
  8
0
  6
CONTINUOUS
 10
4.637600
 20
3.036880
  0
VERTEX
  8
0
  6
CONTINUOUS
 10
4.635840
 20
3.794120
  0
VERTEX
  8
0
  6
CONTINUOUS
 10
4.694360
 20
3.751880
  0
VERTEX
  8
0
  6
CONTINUOUS
 10
4.696560
 20
2.994640
  0
VERTEX
  8
0
  6
CONTINUOUS
 10
4.637600
 20
3.036880
  0
SEQEND
  8
0
  0
SOLID
  8
0
 62
    15
 10
4.696560
 20
2.994640
 11
4.694360
 21
3.751880
 12
4.777960
 22
2.932160
 13
4.775760
 23
3.689400
  0
POLYLINE
  8
0
  6
CONTINUOUS
 66
     1
 40
0.000000
 41
0.000000
  0
VERTEX
  8
0
  6
CONTINUOUS
 10
4.696560
 20
2.994640
  0
VERTEX
  8
0
  6
CONTINUOUS
 10
4.694360
 20
3.751880
  0
VERTEX
  8
0
  6
CONTINUOUS
 10
4.775760
 20
3.689400
  0
VERTEX
  8
0
  6
CONTINUOUS
 10
4.777960
 20
2.932160
  0
VERTEX
  8
0
  6
CONTINUOUS
 10
4.696560
 20
2.994640
  0
SEQEND
  8
0
  0
SOLID
  8
0
 62
    15
 10
4.777960
 20
2.932160
 11
4.775760
 21
3.689400
 12
4.859800
 22
2.880240
 13
4.857600
 23
3.637480
  0
POLYLINE
  8
0
  6
CONTINUOUS
 66
     1
 40
0.000000
 41
0.000000
  0
VERTEX
  8
0
  6
CONTINUOUS
 10
4.777960
 20
2.932160
  0
VERTEX
  8
0
  6
CONTINUOUS
 10
4.775760
 20
3.689400
  0
VERTEX
  8
0
  6
CONTINUOUS
 10
4.857600
 20
3.637480
  0
VERTEX
  8
0
  6
CONTINUOUS
 10
4.859800
 20
2.880240
  0
VERTEX
  8
0
  6
CONTINUOUS
 10
4.777960
 20
2.932160
  0
SEQEND
  8
0
  0
SOLID
  8
0
 62
    15
 10
4.859800
 20
2.880240
 11
4.857600
 21
3.637480
 12
4.942520
 22
2.840200
 13
4.940760
 23
3.597440
  0
POLYLINE
  8
0
  6
CONTINUOUS
 66
     1
 40
0.000000
 41
0.000000
  0
VERTEX
  8
0
  6
CONTINUOUS
 10
4.859800
 20
2.880240
  0
VERTEX
  8
0
  6
CONTINUOUS
 10
4.857600
 20
3.637480
  0
VERTEX
  8
0
  6
CONTINUOUS
 10
4.940760
 20
3.597440
  0
VERTEX
  8
0
  6
CONTINUOUS
 10
4.942520
 20
2.840200
  0
VERTEX
  8
0
  6
CONTINUOUS
 10
4.859800
 20
2.880240
  0
SEQEND
  8
0
  0
SOLID
  8
0
 62
    15
 10
4.942520
 20
2.840200
 11
4.940760
 21
3.597440
 12
5.027000
 22
2.812920
 13
5.024800
 23
3.570160
  0
POLYLINE
  8
0
  6
CONTINUOUS
 66
     1
 40
0.000000
 41
0.000000
  0
VERTEX
  8
0
  6
CONTINUOUS
 10
4.942520
 20
2.840200
  0
VERTEX
  8
0
  6
CONTINUOUS
 10
4.940760
 20
3.597440
  0
VERTEX
  8
0
  6
CONTINUOUS
 10
5.024800
 20
3.570160
  0
VERTEX
  8
0
  6
CONTINUOUS
 10
5.027000
 20
2.812920
  0
VERTEX
  8
0
  6
CONTINUOUS
 10
4.942520
 20
2.840200
  0
SEQEND
  8
0
  0
SOLID
  8
0
 62
    15
 10
5.027000
 20
2.812920
 11
5.024800
 21
3.570160
 12
5.112800
 22
2.799720
 13
5.110600
 23
3.557400
  0
POLYLINE
  8
0
  6
CONTINUOUS
 66
     1
 40
0.000000
 41
0.000000
  0
VERTEX
  8
0
  6
CONTINUOUS
 10
5.027000
 20
2.812920
  0
VERTEX
  8
0
  6
CONTINUOUS
 10
5.024800
 20
3.570160
  0
VERTEX
  8
0
  6
CONTINUOUS
 10
5.110600
 20
3.557400
  0
VERTEX
  8
0
  6
CONTINUOUS
 10
5.112800
 20
2.799720
  0
VERTEX
  8
0
  6
CONTINUOUS
 10
5.027000
 20
2.812920
  0
SEQEND
  8
0
  0
SOLID
  8
0
 62
    15
 10
5.112800
 20
2.799720
 11
5.110600
 21
3.557400
 12
5.200800
 22
2.802360
 13
5.198600
 23
3.559600
  0
POLYLINE
  8
0
  6
CONTINUOUS
 66
     1
 40
0.000000
 41
0.000000
  0
VERTEX
  8
0
  6
CONTINUOUS
 10
5.112800
 20
2.799720
  0
VERTEX
  8
0
  6
CONTINUOUS
 10
5.110600
 20
3.557400
  0
VERTEX
  8
0
  6
CONTINUOUS
 10
5.198600
 20
3.559600
  0
VERTEX
  8
0
  6
CONTINUOUS
 10
5.200800
 20
2.802360
  0
VERTEX
  8
0
  6
CONTINUOUS
 10
5.112800
 20
2.799720
  0
SEQEND
  8
0
  0
SOLID
  8
0
 62
    15
 10
5.200800
 20
2.802360
 11
5.198600
 21
3.559600
 12
5.291000
 22
2.821720
 13
5.288800
 23
3.579400
  0
POLYLINE
  8
0
  6
CONTINUOUS
 66
     1
 40
0.000000
 41
0.000000
  0
VERTEX
  8
0
  6
CONTINUOUS
 10
5.200800
 20
2.802360
  0
VERTEX
  8
0
  6
CONTINUOUS
 10
5.198600
 20
3.559600
  0
VERTEX
  8
0
  6
CONTINUOUS
 10
5.288800
 20
3.579400
  0
VERTEX
  8
0
  6
CONTINUOUS
 10
5.291000
 20
2.821720
  0
VERTEX
  8
0
  6
CONTINUOUS
 10
5.200800
 20
2.802360
  0
SEQEND
  8
0
  0
SOLID
  8
0
 62
    15
 10
5.291000
 20
2.821720
 11
5.288800
 21
3.579400
 12
5.383840
 22
2.859120
 13
5.381640
 23
3.616800
  0
POLYLINE
  8
0
  6
CONTINUOUS
 66
     1
 40
0.000000
 41
0.000000
  0
VERTEX
  8
0
  6
CONTINUOUS
 10
5.291000
 20
2.821720
  0
VERTEX
  8
0
  6
CONTINUOUS
 10
5.288800
 20
3.579400
  0
VERTEX
  8
0
  6
CONTINUOUS
 10
5.381640
 20
3.616800
  0
VERTEX
  8
0
  6
CONTINUOUS
 10
5.383840
 20
2.859120
  0
VERTEX
  8
0
  6
CONTINUOUS
 10
5.291000
 20
2.821720
  0
SEQEND
  8
0
  0
SOLID
  8
0
 62
    15
 10
5.383840
 20
2.859120
 11
5.381640
 21
3.616800
 12
5.390000
 22
2.859120
 13
5.388240
 23
3.616800
  0
POLYLINE
  8
0
  6
CONTINUOUS
 66
     1
 40
0.000000
 41
0.000000
  0
VERTEX
  8
0
  6
CONTINUOUS
 10
5.383840
 20
2.859120
  0
VERTEX
  8
0
  6
CONTINUOUS
 10
5.381640
 20
3.616800
  0
VERTEX
  8
0
  6
CONTINUOUS
 10
5.388240
 20
3.616800
  0
VERTEX
  8
0
  6
CONTINUOUS
 10
5.390000
 20
2.859120
  0
VERTEX
  8
0
  6
CONTINUOUS
 10
5.383840
 20
2.859120
  0
SEQEND
  8
0
  0
SOLID
  8
0
 62
    15
 10
5.390000
 20
2.859120
 11
5.388240
 21
3.616800
 12
5.454680
 22
2.759240
 13
5.452480
 23
3.516480
  0
POLYLINE
  8
0
  6
CONTINUOUS
 66
     1
 40
0.000000
 41
0.000000
  0
VERTEX
  8
0
  6
CONTINUOUS
 10
5.390000
 20
2.859120
  0
VERTEX
  8
0
  6
CONTINUOUS
 10
5.388240
 20
3.616800
  0
VERTEX
  8
0
  6
CONTINUOUS
 10
5.452480
 20
3.516480
  0
VERTEX
  8
0
  6
CONTINUOUS
 10
5.454680
 20
2.759240
  0
VERTEX
  8
0
  6
CONTINUOUS
 10
5.390000
 20
2.859120
  0
SEQEND
  8
0
  0
SOLID
  8
0
 62
    15
 10
5.454680
 20
2.759240
 11
5.452480
 21
3.516480
 12
7.450520
 22
2.757040
 13
7.448320
 23
3.514280
  0
POLYLINE
  8
0
  6
CONTINUOUS
 66
     1
 40
0.000000
 41
0.000000
  0
VERTEX
  8
0
  6
CONTINUOUS
 10
5.454680
 20
2.759240
  0
VERTEX
  8
0
  6
CONTINUOUS
 10
5.452480
 20
3.516480
  0
VERTEX
  8
0
  6
CONTINUOUS
 10
7.448320
 20
3.514280
  0
VERTEX
  8
0
  6
CONTINUOUS
 10
7.450520
 20
2.757040
  0
VERTEX
  8
0
  6
CONTINUOUS
 10
5.454680
 20
2.759240
  0
SEQEND
  8
0
  0
POLYLINE
  8
0
  6
CONTINUOUS
 66
     1
 40
0.000000
 41
0.000000
  0
VERTEX
  8
0
  6
CONTINUOUS
 10
7.414000
 20
2.757040
  0
VERTEX
  8
0
  6
CONTINUOUS
 10
7.456680
 20
2.757040
  0
VERTEX
  8
0
  6
CONTINUOUS
 10
7.456680
 20
1.871760
  0
VERTEX
  8
0
  6
CONTINUOUS
 10
7.450520
 20
1.869560
  0
VERTEX
  8
0
  6
CONTINUOUS
 10
1.837880
 20
1.869560
  0
VERTEX
  8
0
  6
CONTINUOUS
 10
1.837880
 20
3.121800
  0
VERTEX
  8
0
  6
CONTINUOUS
 10
3.902800
 20
3.121800
  0
VERTEX
  8
0
  6
CONTINUOUS
 10
3.902800
 20
3.124000
  0
VERTEX
  8
0
  6
CONTINUOUS
 10
3.962200
 20
3.121800
  0
VERTEX
  8
0
  6
CONTINUOUS
 10
4.011480
 20
3.108600
  0
VERTEX
  8
0
  6
CONTINUOUS
 10
4.030400
 20
3.093640
  0
VERTEX
  8
0
  6
CONTINUOUS
 10
4.044480
 20
3.072080
  0
VERTEX
  8
0
  6
CONTINUOUS
 10
4.052840
 20
3.041720
  0
VERTEX
  8
0
  6
CONTINUOUS
 10
4.054600
 20
3.000800
  0
VERTEX
  8
0
  6
CONTINUOUS
 10
4.054600
 20
2.999040
  0
VERTEX
  8
0
  6
CONTINUOUS
 10
4.121480
 20
3.000800
  0
VERTEX
  8
0
  6
CONTINUOUS
 10
4.125440
 20
3.005200
  0
VERTEX
  8
0
  6
CONTINUOUS
 10
4.154480
 20
3.039960
  0
VERTEX
  8
0
  6
CONTINUOUS
 10
4.186160
 20
3.068120
  0
VERTEX
  8
0
  6
CONTINUOUS
 10
4.220480
 20
3.090120
  0
VERTEX
  8
0
  6
CONTINUOUS
 10
4.256560
 20
3.105960
  0
VERTEX
  8
0
  6
CONTINUOUS
 10
4.333560
 20
3.122240
  0
VERTEX
  8
0
  6
CONTINUOUS
 10
4.413200
 20
3.120040
  0
VERTEX
  8
0
  6
CONTINUOUS
 10
4.492840
 20
3.102880
  0
VERTEX
  8
0
  6
CONTINUOUS
 10
4.568960
 20
3.074280
  0
VERTEX
  8
0
  6
CONTINUOUS
 10
4.637600
 20
3.036880
  0
VERTEX
  8
0
  6
CONTINUOUS
 10
4.696560
 20
2.994640
  0
VERTEX
  8
0
  6
CONTINUOUS
 10
4.777960
 20
2.932160
  0
VERTEX
  8
0
  6
CONTINUOUS
 10
4.859800
 20
2.880240
  0
VERTEX
  8
0
  6
CONTINUOUS
 10
4.942520
 20
2.840200
  0
VERTEX
  8
0
  6
CONTINUOUS
 10
5.027000
 20
2.812920
  0
VERTEX
  8
0
  6
CONTINUOUS
 10
5.112800
 20
2.799720
  0
VERTEX
  8
0
  6
CONTINUOUS
 10
5.200800
 20
2.802360
  0
VERTEX
  8
0
  6
CONTINUOUS
 10
5.291000
 20
2.821720
  0
VERTEX
  8
0
  6
CONTINUOUS
 10
5.383840
 20
2.859120
  0
VERTEX
  8
0
  6
CONTINUOUS
 10
5.390000
 20
2.859120
  0
VERTEX
  8
0
  6
CONTINUOUS
 10
5.454680
 20
2.759240
  0
VERTEX
  8
0
  6
CONTINUOUS
 10
7.450520
 20
2.757040
  0
VERTEX
  8
0
  6
CONTINUOUS
 10
7.414000
 20
2.757040
  0
SEQEND
  8
0
  0
TEXT
  8
0
 10
4.351160
 20
1.590160
 40
0.137988
  1
BA  658
 41
1.000000
  7
SN0
 71
     0
 72
     5
 11
4.941429
 21
1.590160
  0
TEXT
  8
0
 10
4.121480
 20
1.398320
 40
0.137988
  1
1-1/4" x 5-5/8"
 41
1.000000
  7
SN0
 71
     0
 72
     5
 11
5.168686
 21
1.398320
  0
ENDSEC
  0
EOF
