  0
SECTION
  2
HEADER
  9
$ACADVER
  1
AC1006
  9
$EXTMIN
 10
3.905440
 20
0.638440
  9
$EXTMAX
 10
7.106000
 20
3.718880
  9
$LTSCALE
 40
0.044000
  9
$PDMODE
 70
    35
  9
$PDSIZE
 40
0.035200
  0
ENDSEC
  0
SECTION
  2
TABLES
  0
TABLE
  2
LTYPE
 70
     9
  0
LTYPE
  2
CONTINUOUS
 70
    64
  3
Solid line
 72
    65
 73
     0
 40
0.000000
  0
LTYPE
  2
DASHED
 70
    64
  3
__ __ __ __ __ __ __ __ __ __ __ __ __ __ __
 72
    65
 73
     2
 40
0.000330
 49
0.000220
 49
-0.000110
  0
LTYPE
  2
HIDDEN
 70
    64
  3
 _ _ _ _ _ _ _ _ _ _ _ _ _ _ _ _ _ _ _ _ _ _
 72
    65
 73
     2
 40
0.000165
 49
0.000110
 49
-0.000055
  0
LTYPE
  2
CENTER
 70
    64
  3
____ _ ____ _ ____ _ ____ _ ____ _ ____ _ ____
 72
    65
 73
     4
 40
0.000880
 49
0.000550
 49
-0.000110
 49
0.000110
 49
-0.000110
  0
LTYPE
  2
PHANTOM
 70
    64
  3
_____ _ _ _____ _ _ _____ _ _ _____ _ _ ____
 72
    65
 73
     6
 40
0.001100
 49
0.000550
 49
-0.000110
 49
0.000110
 49
-0.000110
 49
0.000110
 49
-0.000110
  0
LTYPE
  2
DOT
 70
    64
  3
...............................................
 72
    65
 73
     2
 40
0.000110
 49
0.000000
 49
-0.000110
  0
LTYPE
  2
DASHDOT
 70
    64
  3
__ . __ . __ . __ . __ . __ . __ . __ . __ . __
 72
    65
 73
     4
 40
0.000440
 49
0.000220
 49
-0.000110
 49
0.000000
 49
-0.000110
  0
LTYPE
  2
BORDER
 70
    64
  3
__ __ . __ __ . __ __ . __ __ . __ __ . __ __
 72
    65
 73
     6
 40
0.000770
 49
0.000220
 49
-0.000110
 49
0.000220
 49
-0.000110
 49
0.000000
 49
-0.000110
  0
LTYPE
  2
DIVIDE
 70
    64
  3
__ . . __ . . __ . . __ . . __ . . __ . . __
 72
    65
 73
     6
 40
0.000550
 49
0.000220
 49
-0.000110
 49
0.000000
 49
-0.000110
 49
0.000000
 49
-0.000110
  0
LTYPE
  2
DOTDOT
 70
    64
  3
 . .  . .  . .  . .  . .  . . 
 72
    65
 73
     5
 40
0.000242
 49
-0.000110
 49
0.000000
 49
-0.000110
 49
0.000000
 49
-0.000110
  0
ENDTAB
  0
TABLE
  2
STYLE
 70
     2
  0
STYLE
 70
     0
  2
SN0
 40
0.000000
 41
0.000440
 50
0.000000
 71
     0
 42
0.000000
  3
ROMAND
  0
STYLE
 70
    68
  2
SV0
 40
0.000000
 41
0.000440
 50
0.000000
 71
     0
 42
0.000000
  3
ROMAND
  0
ENDTAB
  0
TABLE
  2
LAYER
 70
     3
  0
LAYER
  2
FOREGROUND
 70
    64
 62
     7
  6
CONTINUOUS
  0
LAYER
  2
BACKGROUND
 70
    65
 62
    -7
  6
CONTINUOUS
  0
LAYER
  2
0
 70
    64
 62
     7
  6
CONTINUOUS
  0
ENDTAB
  0
ENDSEC
  0
SECTION
  2
ENTITIES
  0
POLYLINE
  8
FOREGROUND
  6
CONTINUOUS
 66
     1
 40
0.000000
 41
0.000000
  0
VERTEX
  8
FOREGROUND
  6
CONTINUOUS
 10
0.000000
 20
4.357320
  0
VERTEX
  8
FOREGROUND
  6
CONTINUOUS
 10
8.499920
 20
4.357320
  0
VERTEX
  8
FOREGROUND
  6
CONTINUOUS
 10
8.499920
 20
-6.642680
  0
VERTEX
  8
FOREGROUND
  6
CONTINUOUS
 10
0.000000
 20
-6.642680
  0
VERTEX
  8
FOREGROUND
  6
CONTINUOUS
 10
0.000000
 20
4.357320
  0
SEQEND
  8
0
  0
POLYLINE
  8
FOREGROUND
  6
CONTINUOUS
 66
     1
 40
0.000000
 41
0.000000
  0
VERTEX
  8
FOREGROUND
  6
CONTINUOUS
 10
0.000000
 20
4.357320
  0
VERTEX
  8
FOREGROUND
  6
CONTINUOUS
 10
8.499920
 20
4.357320
  0
VERTEX
  8
FOREGROUND
  6
CONTINUOUS
 10
8.499920
 20
-6.642680
  0
VERTEX
  8
FOREGROUND
  6
CONTINUOUS
 10
0.000000
 20
-6.642680
  0
VERTEX
  8
FOREGROUND
  6
CONTINUOUS
 10
0.000000
 20
4.357320
  0
SEQEND
  8
0
  0
POLYLINE
  8
0
  6
CONTINUOUS
 66
     1
 40
0.014080
 41
0.014080
  0
VERTEX
  8
0
  6
CONTINUOUS
 10
6.433240
 20
3.702600
  0
VERTEX
  8
0
  6
CONTINUOUS
 10
6.432360
 20
3.676640
  0
VERTEX
  8
0
  6
CONTINUOUS
 10
6.434560
 20
3.656840
  0
VERTEX
  8
0
  6
CONTINUOUS
 10
6.439840
 20
3.641440
  0
VERTEX
  8
0
  6
CONTINUOUS
 10
6.447760
 20
3.630880
  0
VERTEX
  8
0
  6
CONTINUOUS
 10
6.457880
 20
3.623400
  0
VERTEX
  8
0
  6
CONTINUOUS
 10
6.478560
 20
3.617240
  0
VERTEX
  8
0
  6
CONTINUOUS
 10
6.512880
 20
3.613720
  0
VERTEX
  8
0
  6
CONTINUOUS
 10
6.526080
 20
3.607120
  0
VERTEX
  8
0
  6
CONTINUOUS
 10
6.535320
 20
3.596560
  0
VERTEX
  8
0
  6
CONTINUOUS
 10
6.541040
 20
3.584240
  0
VERTEX
  8
0
  6
CONTINUOUS
 10
6.544560
 20
3.562240
  0
VERTEX
  8
0
  6
CONTINUOUS
 10
6.543680
 20
3.556960
  0
VERTEX
  8
0
  6
CONTINUOUS
 10
6.543680
 20
3.509000
  0
VERTEX
  8
0
  6
CONTINUOUS
 10
6.562160
 20
3.509000
  0
VERTEX
  8
0
  6
CONTINUOUS
 10
6.558200
 20
3.509000
  0
VERTEX
  8
0
  6
CONTINUOUS
 10
6.597360
 20
3.500640
  0
VERTEX
  8
0
  6
CONTINUOUS
 10
6.634320
 20
3.487000
  0
VERTEX
  8
0
  6
CONTINUOUS
 10
6.657640
 20
3.475120
  0
VERTEX
  8
0
  6
CONTINUOUS
 10
6.680080
 20
3.461480
  0
VERTEX
  8
0
  6
CONTINUOUS
 10
6.700760
 20
3.446080
  0
VERTEX
  8
0
  6
CONTINUOUS
 10
6.720560
 20
3.428920
  0
VERTEX
  8
0
  6
CONTINUOUS
 10
6.738600
 20
3.410000
  0
VERTEX
  8
0
  6
CONTINUOUS
 10
6.754880
 20
3.389320
  0
VERTEX
  8
0
  6
CONTINUOUS
 10
6.769400
 20
3.367760
  0
VERTEX
  8
0
  6
CONTINUOUS
 10
6.782160
 20
3.344880
  0
VERTEX
  8
0
  6
CONTINUOUS
 10
6.792720
 20
3.320680
  0
VERTEX
  8
0
  6
CONTINUOUS
 10
6.804600
 20
3.282400
  0
VERTEX
  8
0
  6
CONTINUOUS
 10
6.811200
 20
3.242800
  0
VERTEX
  8
0
  6
CONTINUOUS
 10
6.812520
 20
3.215080
  0
VERTEX
  8
0
  6
CONTINUOUS
 10
6.811200
 20
3.187800
  0
VERTEX
  8
0
  6
CONTINUOUS
 10
6.807680
 20
3.160960
  0
VERTEX
  8
0
  6
CONTINUOUS
 10
6.801960
 20
3.135000
  0
VERTEX
  8
0
  6
CONTINUOUS
 10
6.794480
 20
3.109920
  0
VERTEX
  8
0
  6
CONTINUOUS
 10
6.784360
 20
3.085720
  0
VERTEX
  8
0
  6
CONTINUOUS
 10
6.772480
 20
3.062840
  0
VERTEX
  8
0
  6
CONTINUOUS
 10
6.758840
 20
3.041280
  0
VERTEX
  8
0
  6
CONTINUOUS
 10
6.743440
 20
3.021040
  0
VERTEX
  8
0
  6
CONTINUOUS
 10
6.726280
 20
3.002560
  0
VERTEX
  8
0
  6
CONTINUOUS
 10
6.707800
 20
2.985400
  0
VERTEX
  8
0
  6
CONTINUOUS
 10
6.687560
 20
2.970440
  0
VERTEX
  8
0
  6
CONTINUOUS
 10
6.654560
 20
2.951080
  0
VERTEX
  8
0
  6
CONTINUOUS
 10
6.618480
 20
2.936560
  0
VERTEX
  8
0
  6
CONTINUOUS
 10
6.579760
 20
2.927320
  0
VERTEX
  8
0
  6
CONTINUOUS
 10
6.562160
 20
2.925560
  0
VERTEX
  8
0
  6
CONTINUOUS
 10
6.560840
 20
2.855160
  0
VERTEX
  8
0
  6
CONTINUOUS
 10
6.562600
 20
2.777280
  0
VERTEX
  8
0
  6
CONTINUOUS
 10
6.568760
 20
2.714800
  0
VERTEX
  8
0
  6
CONTINUOUS
 10
6.581080
 20
2.650120
  0
VERTEX
  8
0
  6
CONTINUOUS
 10
6.593400
 20
2.606120
  0
VERTEX
  8
0
  6
CONTINUOUS
 10
6.610120
 20
2.561240
  0
VERTEX
  8
0
  6
CONTINUOUS
 10
6.631240
 20
2.516360
  0
VERTEX
  8
0
  6
CONTINUOUS
 10
6.657640
 20
2.471920
  0
VERTEX
  8
0
  6
CONTINUOUS
 10
6.690200
 20
2.427040
  0
VERTEX
  8
0
  6
CONTINUOUS
 10
6.728480
 20
2.383040
  0
VERTEX
  8
0
  6
CONTINUOUS
 10
6.773800
 20
2.339920
  0
VERTEX
  8
0
  6
CONTINUOUS
 10
6.826600
 20
2.297680
  0
VERTEX
  8
0
  6
CONTINUOUS
 10
6.916360
 20
2.237400
  0
VERTEX
  8
0
  6
CONTINUOUS
 10
6.943200
 20
2.217160
  0
VERTEX
  8
0
  6
CONTINUOUS
 10
6.990280
 20
2.173600
  0
VERTEX
  8
0
  6
CONTINUOUS
 10
7.010520
 20
2.150720
  0
VERTEX
  8
0
  6
CONTINUOUS
 10
7.028560
 20
2.127400
  0
VERTEX
  8
0
  6
CONTINUOUS
 10
7.044840
 20
2.103200
  0
VERTEX
  8
0
  6
CONTINUOUS
 10
7.070360
 20
2.053920
  0
VERTEX
  8
0
  6
CONTINUOUS
 10
7.087960
 20
2.003760
  0
VERTEX
  8
0
  6
CONTINUOUS
 10
7.093680
 20
1.978680
  0
VERTEX
  8
0
  6
CONTINUOUS
 10
7.097200
 20
1.953600
  0
VERTEX
  8
0
  6
CONTINUOUS
 10
7.098520
 20
1.928520
  0
VERTEX
  8
0
  6
CONTINUOUS
 10
7.098080
 20
1.904320
  0
VERTEX
  8
0
  6
CONTINUOUS
 10
7.095440
 20
1.880120
  0
VERTEX
  8
0
  6
CONTINUOUS
 10
7.091040
 20
1.856360
  0
VERTEX
  8
0
  6
CONTINUOUS
 10
7.084440
 20
1.833480
  0
VERTEX
  8
0
  6
CONTINUOUS
 10
7.076080
 20
1.811040
  0
VERTEX
  8
0
  6
CONTINUOUS
 10
7.053200
 20
1.769240
  0
VERTEX
  8
0
  6
CONTINUOUS
 10
7.039120
 20
1.749880
  0
VERTEX
  8
0
  6
CONTINUOUS
 10
7.022840
 20
1.731400
  0
VERTEX
  8
0
  6
CONTINUOUS
 10
6.984560
 20
1.698840
  0
VERTEX
  8
0
  6
CONTINUOUS
 10
6.962560
 20
1.684760
  0
VERTEX
  8
0
  6
CONTINUOUS
 10
6.938360
 20
1.672000
  0
VERTEX
  8
0
  6
CONTINUOUS
 10
6.899200
 20
1.656160
  0
VERTEX
  8
0
  6
CONTINUOUS
 10
6.855640
 20
1.644280
  0
VERTEX
  8
0
  6
CONTINUOUS
 10
6.808120
 20
1.637240
  0
VERTEX
  8
0
  6
CONTINUOUS
 10
6.787440
 20
1.635920
  0
VERTEX
  8
0
  6
CONTINUOUS
 10
6.787440
 20
1.592360
  0
VERTEX
  8
0
  6
CONTINUOUS
 10
6.231280
 20
1.592360
  0
VERTEX
  8
0
  6
CONTINUOUS
 10
6.231280
 20
3.710960
  0
VERTEX
  8
0
  6
CONTINUOUS
 10
6.433240
 20
3.710960
  0
VERTEX
  8
0
  6
CONTINUOUS
 10
6.433240
 20
3.702600
  0
SEQEND
  8
0
  0
SOLID
  8
0
 62
    15
 10
4.236760
 20
2.445520
 11
4.885320
 21
2.820400
 12
4.236320
 22
2.409440
 13
4.884880
 23
2.784320
  0
POLYLINE
  8
0
  6
CONTINUOUS
 66
     1
 40
0.000000
 41
0.000000
  0
VERTEX
  8
0
  6
CONTINUOUS
 10
4.236760
 20
2.445520
  0
VERTEX
  8
0
  6
CONTINUOUS
 10
4.885320
 20
2.820400
  0
VERTEX
  8
0
  6
CONTINUOUS
 10
4.884880
 20
2.784320
  0
VERTEX
  8
0
  6
CONTINUOUS
 10
4.236320
 20
2.409440
  0
VERTEX
  8
0
  6
CONTINUOUS
 10
4.236760
 20
2.445520
  0
SEQEND
  8
0
  0
SOLID
  8
0
 62
    15
 10
4.107840
 20
3.230920
 11
4.756400
 21
3.605800
 12
4.109600
 22
3.211120
 13
4.758600
 23
3.585560
  0
POLYLINE
  8
0
  6
CONTINUOUS
 66
     1
 40
0.000000
 41
0.000000
  0
VERTEX
  8
0
  6
CONTINUOUS
 10
4.107840
 20
3.230920
  0
VERTEX
  8
0
  6
CONTINUOUS
 10
4.756400
 20
3.605800
  0
VERTEX
  8
0
  6
CONTINUOUS
 10
4.758600
 20
3.585560
  0
VERTEX
  8
0
  6
CONTINUOUS
 10
4.109600
 20
3.211120
  0
VERTEX
  8
0
  6
CONTINUOUS
 10
4.107840
 20
3.230920
  0
SEQEND
  8
0
  0
SOLID
  8
0
 62
    15
 10
4.109600
 20
3.211120
 11
4.758600
 21
3.585560
 12
4.114880
 22
3.195720
 13
4.763440
 23
3.570600
  0
POLYLINE
  8
0
  6
CONTINUOUS
 66
     1
 40
0.000000
 41
0.000000
  0
VERTEX
  8
0
  6
CONTINUOUS
 10
4.109600
 20
3.211120
  0
VERTEX
  8
0
  6
CONTINUOUS
 10
4.758600
 20
3.585560
  0
VERTEX
  8
0
  6
CONTINUOUS
 10
4.763440
 20
3.570600
  0
VERTEX
  8
0
  6
CONTINUOUS
 10
4.114880
 20
3.195720
  0
VERTEX
  8
0
  6
CONTINUOUS
 10
4.109600
 20
3.211120
  0
SEQEND
  8
0
  0
SOLID
  8
0
 62
    15
 10
4.114880
 20
3.195720
 11
4.763440
 21
3.570600
 12
4.122800
 22
3.184720
 13
4.771360
 23
3.559600
  0
POLYLINE
  8
0
  6
CONTINUOUS
 66
     1
 40
0.000000
 41
0.000000
  0
VERTEX
  8
0
  6
CONTINUOUS
 10
4.114880
 20
3.195720
  0
VERTEX
  8
0
  6
CONTINUOUS
 10
4.763440
 20
3.570600
  0
VERTEX
  8
0
  6
CONTINUOUS
 10
4.771360
 20
3.559600
  0
VERTEX
  8
0
  6
CONTINUOUS
 10
4.122800
 20
3.184720
  0
VERTEX
  8
0
  6
CONTINUOUS
 10
4.114880
 20
3.195720
  0
SEQEND
  8
0
  0
SOLID
  8
0
 62
    15
 10
4.122800
 20
3.184720
 11
4.771360
 21
3.559600
 12
4.146120
 22
3.172840
 13
4.794680
 23
3.547720
  0
POLYLINE
  8
0
  6
CONTINUOUS
 66
     1
 40
0.000000
 41
0.000000
  0
VERTEX
  8
0
  6
CONTINUOUS
 10
4.122800
 20
3.184720
  0
VERTEX
  8
0
  6
CONTINUOUS
 10
4.771360
 20
3.559600
  0
VERTEX
  8
0
  6
CONTINUOUS
 10
4.794680
 20
3.547720
  0
VERTEX
  8
0
  6
CONTINUOUS
 10
4.146120
 20
3.172840
  0
VERTEX
  8
0
  6
CONTINUOUS
 10
4.122800
 20
3.184720
  0
SEQEND
  8
0
  0
SOLID
  8
0
 62
    15
 10
4.146120
 20
3.172840
 11
4.794680
 21
3.547720
 12
4.179120
 22
3.169320
 13
4.827680
 23
3.544200
  0
POLYLINE
  8
0
  6
CONTINUOUS
 66
     1
 40
0.000000
 41
0.000000
  0
VERTEX
  8
0
  6
CONTINUOUS
 10
4.146120
 20
3.172840
  0
VERTEX
  8
0
  6
CONTINUOUS
 10
4.794680
 20
3.547720
  0
VERTEX
  8
0
  6
CONTINUOUS
 10
4.827680
 20
3.544200
  0
VERTEX
  8
0
  6
CONTINUOUS
 10
4.179120
 20
3.169320
  0
VERTEX
  8
0
  6
CONTINUOUS
 10
4.146120
 20
3.172840
  0
SEQEND
  8
0
  0
SOLID
  8
0
 62
    15
 10
4.179120
 20
3.169320
 11
4.827680
 21
3.544200
 12
4.195400
 22
3.165360
 13
4.843960
 23
3.540240
  0
POLYLINE
  8
0
  6
CONTINUOUS
 66
     1
 40
0.000000
 41
0.000000
  0
VERTEX
  8
0
  6
CONTINUOUS
 10
4.179120
 20
3.169320
  0
VERTEX
  8
0
  6
CONTINUOUS
 10
4.827680
 20
3.544200
  0
VERTEX
  8
0
  6
CONTINUOUS
 10
4.843960
 20
3.540240
  0
VERTEX
  8
0
  6
CONTINUOUS
 10
4.195400
 20
3.165360
  0
VERTEX
  8
0
  6
CONTINUOUS
 10
4.179120
 20
3.169320
  0
SEQEND
  8
0
  0
SOLID
  8
0
 62
    15
 10
4.195400
 20
3.165360
 11
4.843960
 21
3.540240
 12
4.206400
 22
3.156560
 13
4.854960
 23
3.531000
  0
POLYLINE
  8
0
  6
CONTINUOUS
 66
     1
 40
0.000000
 41
0.000000
  0
VERTEX
  8
0
  6
CONTINUOUS
 10
4.195400
 20
3.165360
  0
VERTEX
  8
0
  6
CONTINUOUS
 10
4.843960
 20
3.540240
  0
VERTEX
  8
0
  6
CONTINUOUS
 10
4.854960
 20
3.531000
  0
VERTEX
  8
0
  6
CONTINUOUS
 10
4.206400
 20
3.156560
  0
VERTEX
  8
0
  6
CONTINUOUS
 10
4.195400
 20
3.165360
  0
SEQEND
  8
0
  0
SOLID
  8
0
 62
    15
 10
4.206400
 20
3.156560
 11
4.854960
 21
3.531000
 12
4.217840
 22
3.131920
 13
4.866400
 23
3.506800
  0
POLYLINE
  8
0
  6
CONTINUOUS
 66
     1
 40
0.000000
 41
0.000000
  0
VERTEX
  8
0
  6
CONTINUOUS
 10
4.206400
 20
3.156560
  0
VERTEX
  8
0
  6
CONTINUOUS
 10
4.854960
 20
3.531000
  0
VERTEX
  8
0
  6
CONTINUOUS
 10
4.866400
 20
3.506800
  0
VERTEX
  8
0
  6
CONTINUOUS
 10
4.217840
 20
3.131920
  0
VERTEX
  8
0
  6
CONTINUOUS
 10
4.206400
 20
3.156560
  0
SEQEND
  8
0
  0
SOLID
  8
0
 62
    15
 10
4.218720
 20
3.115200
 11
4.867280
 21
3.490080
 12
4.218720
 22
3.062840
 13
4.867280
 23
3.437720
  0
POLYLINE
  8
0
  6
CONTINUOUS
 66
     1
 40
0.000000
 41
0.000000
  0
VERTEX
  8
0
  6
CONTINUOUS
 10
4.218720
 20
3.115200
  0
VERTEX
  8
0
  6
CONTINUOUS
 10
4.867280
 20
3.490080
  0
VERTEX
  8
0
  6
CONTINUOUS
 10
4.867280
 20
3.437720
  0
VERTEX
  8
0
  6
CONTINUOUS
 10
4.218720
 20
3.062840
  0
VERTEX
  8
0
  6
CONTINUOUS
 10
4.218720
 20
3.115200
  0
SEQEND
  8
0
  0
SOLID
  8
0
 62
    15
 10
4.219600
 20
3.112560
 11
4.868160
 21
3.487440
 12
4.219160
 22
3.110360
 13
4.867720
 23
3.484800
  0
POLYLINE
  8
0
  6
CONTINUOUS
 66
     1
 40
0.000000
 41
0.000000
  0
VERTEX
  8
0
  6
CONTINUOUS
 10
4.219600
 20
3.112560
  0
VERTEX
  8
0
  6
CONTINUOUS
 10
4.868160
 20
3.487440
  0
VERTEX
  8
0
  6
CONTINUOUS
 10
4.867720
 20
3.484800
  0
VERTEX
  8
0
  6
CONTINUOUS
 10
4.219160
 20
3.110360
  0
VERTEX
  8
0
  6
CONTINUOUS
 10
4.219600
 20
3.112560
  0
SEQEND
  8
0
  0
SOLID
  8
0
 62
    15
 10
4.217840
 20
3.131920
 11
4.866400
 21
3.506800
 12
4.219600
 22
3.112560
 13
4.868160
 23
3.487440
  0
POLYLINE
  8
0
  6
CONTINUOUS
 66
     1
 40
0.000000
 41
0.000000
  0
VERTEX
  8
0
  6
CONTINUOUS
 10
4.217840
 20
3.131920
  0
VERTEX
  8
0
  6
CONTINUOUS
 10
4.866400
 20
3.506800
  0
VERTEX
  8
0
  6
CONTINUOUS
 10
4.868160
 20
3.487440
  0
VERTEX
  8
0
  6
CONTINUOUS
 10
4.219600
 20
3.112560
  0
VERTEX
  8
0
  6
CONTINUOUS
 10
4.217840
 20
3.131920
  0
SEQEND
  8
0
  0
SOLID
  8
0
 62
    15
 10
4.218720
 20
3.062840
 11
4.867280
 21
3.437720
 12
4.233240
 22
3.062840
 13
4.881800
 23
3.437720
  0
POLYLINE
  8
0
  6
CONTINUOUS
 66
     1
 40
0.000000
 41
0.000000
  0
VERTEX
  8
0
  6
CONTINUOUS
 10
4.218720
 20
3.062840
  0
VERTEX
  8
0
  6
CONTINUOUS
 10
4.867280
 20
3.437720
  0
VERTEX
  8
0
  6
CONTINUOUS
 10
4.881800
 20
3.437720
  0
VERTEX
  8
0
  6
CONTINUOUS
 10
4.233240
 20
3.062840
  0
VERTEX
  8
0
  6
CONTINUOUS
 10
4.218720
 20
3.062840
  0
SEQEND
  8
0
  0
SOLID
  8
0
 62
    15
 10
4.233240
 20
3.062840
 11
4.881800
 21
3.437720
 12
4.285160
 22
3.050520
 13
4.933720
 23
3.425400
  0
POLYLINE
  8
0
  6
CONTINUOUS
 66
     1
 40
0.000000
 41
0.000000
  0
VERTEX
  8
0
  6
CONTINUOUS
 10
4.233240
 20
3.062840
  0
VERTEX
  8
0
  6
CONTINUOUS
 10
4.881800
 20
3.437720
  0
VERTEX
  8
0
  6
CONTINUOUS
 10
4.933720
 20
3.425400
  0
VERTEX
  8
0
  6
CONTINUOUS
 10
4.285160
 20
3.050520
  0
VERTEX
  8
0
  6
CONTINUOUS
 10
4.233240
 20
3.062840
  0
SEQEND
  8
0
  0
SOLID
  8
0
 62
    15
 10
4.285160
 20
3.050520
 11
4.933720
 21
3.425400
 12
4.333120
 22
3.028960
 13
4.981680
 23
3.403840
  0
POLYLINE
  8
0
  6
CONTINUOUS
 66
     1
 40
0.000000
 41
0.000000
  0
VERTEX
  8
0
  6
CONTINUOUS
 10
4.285160
 20
3.050520
  0
VERTEX
  8
0
  6
CONTINUOUS
 10
4.933720
 20
3.425400
  0
VERTEX
  8
0
  6
CONTINUOUS
 10
4.981680
 20
3.403840
  0
VERTEX
  8
0
  6
CONTINUOUS
 10
4.333120
 20
3.028960
  0
VERTEX
  8
0
  6
CONTINUOUS
 10
4.285160
 20
3.050520
  0
SEQEND
  8
0
  0
SOLID
  8
0
 62
    15
 10
4.333120
 20
3.028960
 11
4.981680
 21
3.403840
 12
4.376240
 22
2.999920
 13
5.024800
 23
3.374800
  0
POLYLINE
  8
0
  6
CONTINUOUS
 66
     1
 40
0.000000
 41
0.000000
  0
VERTEX
  8
0
  6
CONTINUOUS
 10
4.333120
 20
3.028960
  0
VERTEX
  8
0
  6
CONTINUOUS
 10
4.981680
 20
3.403840
  0
VERTEX
  8
0
  6
CONTINUOUS
 10
5.024800
 20
3.374800
  0
VERTEX
  8
0
  6
CONTINUOUS
 10
4.376240
 20
2.999920
  0
VERTEX
  8
0
  6
CONTINUOUS
 10
4.333120
 20
3.028960
  0
SEQEND
  8
0
  0
SOLID
  8
0
 62
    15
 10
4.376240
 20
2.999920
 11
5.024800
 21
3.374800
 12
4.413640
 22
2.963840
 13
5.062200
 23
3.338720
  0
POLYLINE
  8
0
  6
CONTINUOUS
 66
     1
 40
0.000000
 41
0.000000
  0
VERTEX
  8
0
  6
CONTINUOUS
 10
4.376240
 20
2.999920
  0
VERTEX
  8
0
  6
CONTINUOUS
 10
5.024800
 20
3.374800
  0
VERTEX
  8
0
  6
CONTINUOUS
 10
5.062200
 20
3.338720
  0
VERTEX
  8
0
  6
CONTINUOUS
 10
4.413640
 20
2.963840
  0
VERTEX
  8
0
  6
CONTINUOUS
 10
4.376240
 20
2.999920
  0
SEQEND
  8
0
  0
SOLID
  8
0
 62
    15
 10
4.413640
 20
2.963840
 11
5.062200
 21
3.338720
 12
4.444440
 22
2.921600
 13
5.093000
 23
3.296480
  0
POLYLINE
  8
0
  6
CONTINUOUS
 66
     1
 40
0.000000
 41
0.000000
  0
VERTEX
  8
0
  6
CONTINUOUS
 10
4.413640
 20
2.963840
  0
VERTEX
  8
0
  6
CONTINUOUS
 10
5.062200
 20
3.338720
  0
VERTEX
  8
0
  6
CONTINUOUS
 10
5.093000
 20
3.296480
  0
VERTEX
  8
0
  6
CONTINUOUS
 10
4.444440
 20
2.921600
  0
VERTEX
  8
0
  6
CONTINUOUS
 10
4.413640
 20
2.963840
  0
SEQEND
  8
0
  0
SOLID
  8
0
 62
    15
 10
4.444440
 20
2.921600
 11
5.093000
 21
3.296480
 12
4.467760
 22
2.874520
 13
5.116320
 23
3.249400
  0
POLYLINE
  8
0
  6
CONTINUOUS
 66
     1
 40
0.000000
 41
0.000000
  0
VERTEX
  8
0
  6
CONTINUOUS
 10
4.444440
 20
2.921600
  0
VERTEX
  8
0
  6
CONTINUOUS
 10
5.093000
 20
3.296480
  0
VERTEX
  8
0
  6
CONTINUOUS
 10
5.116320
 20
3.249400
  0
VERTEX
  8
0
  6
CONTINUOUS
 10
4.467760
 20
2.874520
  0
VERTEX
  8
0
  6
CONTINUOUS
 10
4.444440
 20
2.921600
  0
SEQEND
  8
0
  0
SOLID
  8
0
 62
    15
 10
4.467760
 20
2.874520
 11
5.116320
 21
3.249400
 12
4.482280
 22
2.823480
 13
5.130840
 23
3.198360
  0
POLYLINE
  8
0
  6
CONTINUOUS
 66
     1
 40
0.000000
 41
0.000000
  0
VERTEX
  8
0
  6
CONTINUOUS
 10
4.467760
 20
2.874520
  0
VERTEX
  8
0
  6
CONTINUOUS
 10
5.116320
 20
3.249400
  0
VERTEX
  8
0
  6
CONTINUOUS
 10
5.130840
 20
3.198360
  0
VERTEX
  8
0
  6
CONTINUOUS
 10
4.482280
 20
2.823480
  0
VERTEX
  8
0
  6
CONTINUOUS
 10
4.467760
 20
2.874520
  0
SEQEND
  8
0
  0
SOLID
  8
0
 62
    15
 10
4.482280
 20
2.823480
 11
5.130840
 21
3.198360
 12
4.487560
 22
2.769360
 13
5.136120
 23
3.144240
  0
POLYLINE
  8
0
  6
CONTINUOUS
 66
     1
 40
0.000000
 41
0.000000
  0
VERTEX
  8
0
  6
CONTINUOUS
 10
4.482280
 20
2.823480
  0
VERTEX
  8
0
  6
CONTINUOUS
 10
5.130840
 20
3.198360
  0
VERTEX
  8
0
  6
CONTINUOUS
 10
5.136120
 20
3.144240
  0
VERTEX
  8
0
  6
CONTINUOUS
 10
4.487560
 20
2.769360
  0
VERTEX
  8
0
  6
CONTINUOUS
 10
4.482280
 20
2.823480
  0
SEQEND
  8
0
  0
SOLID
  8
0
 62
    15
 10
4.487560
 20
2.769360
 11
5.136120
 21
3.144240
 12
4.482720
 22
2.715240
 13
5.131280
 23
3.089680
  0
POLYLINE
  8
0
  6
CONTINUOUS
 66
     1
 40
0.000000
 41
0.000000
  0
VERTEX
  8
0
  6
CONTINUOUS
 10
4.487560
 20
2.769360
  0
VERTEX
  8
0
  6
CONTINUOUS
 10
5.136120
 20
3.144240
  0
VERTEX
  8
0
  6
CONTINUOUS
 10
5.131280
 20
3.089680
  0
VERTEX
  8
0
  6
CONTINUOUS
 10
4.482720
 20
2.715240
  0
VERTEX
  8
0
  6
CONTINUOUS
 10
4.487560
 20
2.769360
  0
SEQEND
  8
0
  0
SOLID
  8
0
 62
    15
 10
4.482720
 20
2.715240
 11
5.131280
 21
3.089680
 12
4.469520
 22
2.663760
 13
5.118080
 23
3.038640
  0
POLYLINE
  8
0
  6
CONTINUOUS
 66
     1
 40
0.000000
 41
0.000000
  0
VERTEX
  8
0
  6
CONTINUOUS
 10
4.482720
 20
2.715240
  0
VERTEX
  8
0
  6
CONTINUOUS
 10
5.131280
 20
3.089680
  0
VERTEX
  8
0
  6
CONTINUOUS
 10
5.118080
 20
3.038640
  0
VERTEX
  8
0
  6
CONTINUOUS
 10
4.469520
 20
2.663760
  0
VERTEX
  8
0
  6
CONTINUOUS
 10
4.482720
 20
2.715240
  0
SEQEND
  8
0
  0
SOLID
  8
0
 62
    15
 10
4.469520
 20
2.663760
 11
5.118080
 21
3.038640
 12
4.447520
 22
2.617120
 13
5.096080
 23
2.992000
  0
POLYLINE
  8
0
  6
CONTINUOUS
 66
     1
 40
0.000000
 41
0.000000
  0
VERTEX
  8
0
  6
CONTINUOUS
 10
4.469520
 20
2.663760
  0
VERTEX
  8
0
  6
CONTINUOUS
 10
5.118080
 20
3.038640
  0
VERTEX
  8
0
  6
CONTINUOUS
 10
5.096080
 20
2.992000
  0
VERTEX
  8
0
  6
CONTINUOUS
 10
4.447520
 20
2.617120
  0
VERTEX
  8
0
  6
CONTINUOUS
 10
4.469520
 20
2.663760
  0
SEQEND
  8
0
  0
SOLID
  8
0
 62
    15
 10
4.237640
 20
2.479840
 11
4.886200
 21
2.854280
 12
4.236760
 22
2.445520
 13
4.885320
 23
2.820400
  0
POLYLINE
  8
0
  6
CONTINUOUS
 66
     1
 40
0.000000
 41
0.000000
  0
VERTEX
  8
0
  6
CONTINUOUS
 10
4.237640
 20
2.479840
  0
VERTEX
  8
0
  6
CONTINUOUS
 10
4.886200
 20
2.854280
  0
VERTEX
  8
0
  6
CONTINUOUS
 10
4.885320
 20
2.820400
  0
VERTEX
  8
0
  6
CONTINUOUS
 10
4.236760
 20
2.445520
  0
VERTEX
  8
0
  6
CONTINUOUS
 10
4.237640
 20
2.479840
  0
SEQEND
  8
0
  0
SOLID
  8
0
 62
    15
 10
4.418480
 20
2.575320
 11
5.067040
 21
2.950200
 12
4.382840
 22
2.539680
 13
5.031400
 23
2.914560
  0
POLYLINE
  8
0
  6
CONTINUOUS
 66
     1
 40
0.000000
 41
0.000000
  0
VERTEX
  8
0
  6
CONTINUOUS
 10
4.418480
 20
2.575320
  0
VERTEX
  8
0
  6
CONTINUOUS
 10
5.067040
 20
2.950200
  0
VERTEX
  8
0
  6
CONTINUOUS
 10
5.031400
 20
2.914560
  0
VERTEX
  8
0
  6
CONTINUOUS
 10
4.382840
 20
2.539680
  0
VERTEX
  8
0
  6
CONTINUOUS
 10
4.418480
 20
2.575320
  0
SEQEND
  8
0
  0
SOLID
  8
0
 62
    15
 10
4.382840
 20
2.539680
 11
5.031400
 21
2.914560
 12
4.340600
 22
2.511080
 13
4.989160
 23
2.885960
  0
POLYLINE
  8
0
  6
CONTINUOUS
 66
     1
 40
0.000000
 41
0.000000
  0
VERTEX
  8
0
  6
CONTINUOUS
 10
4.382840
 20
2.539680
  0
VERTEX
  8
0
  6
CONTINUOUS
 10
5.031400
 20
2.914560
  0
VERTEX
  8
0
  6
CONTINUOUS
 10
4.989160
 20
2.885960
  0
VERTEX
  8
0
  6
CONTINUOUS
 10
4.340600
 20
2.511080
  0
VERTEX
  8
0
  6
CONTINUOUS
 10
4.382840
 20
2.539680
  0
SEQEND
  8
0
  0
SOLID
  8
0
 62
    15
 10
4.447520
 20
2.617120
 11
5.096080
 21
2.992000
 12
4.418480
 22
2.575320
 13
5.067040
 23
2.950200
  0
POLYLINE
  8
0
  6
CONTINUOUS
 66
     1
 40
0.000000
 41
0.000000
  0
VERTEX
  8
0
  6
CONTINUOUS
 10
4.447520
 20
2.617120
  0
VERTEX
  8
0
  6
CONTINUOUS
 10
5.096080
 20
2.992000
  0
VERTEX
  8
0
  6
CONTINUOUS
 10
5.067040
 20
2.950200
  0
VERTEX
  8
0
  6
CONTINUOUS
 10
4.418480
 20
2.575320
  0
VERTEX
  8
0
  6
CONTINUOUS
 10
4.447520
 20
2.617120
  0
SEQEND
  8
0
  0
SOLID
  8
0
 62
    15
 10
4.108280
 20
3.256880
 11
4.756840
 21
3.631760
 12
4.107840
 22
3.230920
 13
4.756400
 23
3.605800
  0
POLYLINE
  8
0
  6
CONTINUOUS
 66
     1
 40
0.000000
 41
0.000000
  0
VERTEX
  8
0
  6
CONTINUOUS
 10
4.108280
 20
3.256880
  0
VERTEX
  8
0
  6
CONTINUOUS
 10
4.756840
 20
3.631760
  0
VERTEX
  8
0
  6
CONTINUOUS
 10
4.756400
 20
3.605800
  0
VERTEX
  8
0
  6
CONTINUOUS
 10
4.107840
 20
3.230920
  0
VERTEX
  8
0
  6
CONTINUOUS
 10
4.108280
 20
3.256880
  0
SEQEND
  8
0
  0
SOLID
  8
0
 62
    15
 10
4.236320
 20
2.409440
 11
4.884880
 21
2.784320
 12
4.238080
 22
2.331560
 13
4.886640
 23
2.706440
  0
POLYLINE
  8
0
  6
CONTINUOUS
 66
     1
 40
0.000000
 41
0.000000
  0
VERTEX
  8
0
  6
CONTINUOUS
 10
4.236320
 20
2.409440
  0
VERTEX
  8
0
  6
CONTINUOUS
 10
4.884880
 20
2.784320
  0
VERTEX
  8
0
  6
CONTINUOUS
 10
4.886640
 20
2.706440
  0
VERTEX
  8
0
  6
CONTINUOUS
 10
4.238080
 20
2.331560
  0
VERTEX
  8
0
  6
CONTINUOUS
 10
4.236320
 20
2.409440
  0
SEQEND
  8
0
  0
SOLID
  8
0
 62
    15
 10
4.238080
 20
2.331560
 11
4.886640
 21
2.706440
 12
4.247320
 22
2.247960
 13
4.895880
 23
2.622400
  0
POLYLINE
  8
0
  6
CONTINUOUS
 66
     1
 40
0.000000
 41
0.000000
  0
VERTEX
  8
0
  6
CONTINUOUS
 10
4.238080
 20
2.331560
  0
VERTEX
  8
0
  6
CONTINUOUS
 10
4.886640
 20
2.706440
  0
VERTEX
  8
0
  6
CONTINUOUS
 10
4.895880
 20
2.622400
  0
VERTEX
  8
0
  6
CONTINUOUS
 10
4.247320
 20
2.247960
  0
VERTEX
  8
0
  6
CONTINUOUS
 10
4.238080
 20
2.331560
  0
SEQEND
  8
0
  0
SOLID
  8
0
 62
    15
 10
4.247320
 20
2.247960
 11
4.895880
 21
2.622400
 12
4.268880
 22
2.159960
 13
4.917440
 23
2.534840
  0
POLYLINE
  8
0
  6
CONTINUOUS
 66
     1
 40
0.000000
 41
0.000000
  0
VERTEX
  8
0
  6
CONTINUOUS
 10
4.247320
 20
2.247960
  0
VERTEX
  8
0
  6
CONTINUOUS
 10
4.895880
 20
2.622400
  0
VERTEX
  8
0
  6
CONTINUOUS
 10
4.917440
 20
2.534840
  0
VERTEX
  8
0
  6
CONTINUOUS
 10
4.268880
 20
2.159960
  0
VERTEX
  8
0
  6
CONTINUOUS
 10
4.247320
 20
2.247960
  0
SEQEND
  8
0
  0
SOLID
  8
0
 62
    15
 10
4.268880
 20
2.159960
 11
4.917440
 21
2.534840
 12
4.285600
 22
2.115520
 13
4.934160
 23
2.490400
  0
POLYLINE
  8
0
  6
CONTINUOUS
 66
     1
 40
0.000000
 41
0.000000
  0
VERTEX
  8
0
  6
CONTINUOUS
 10
4.268880
 20
2.159960
  0
VERTEX
  8
0
  6
CONTINUOUS
 10
4.917440
 20
2.534840
  0
VERTEX
  8
0
  6
CONTINUOUS
 10
4.934160
 20
2.490400
  0
VERTEX
  8
0
  6
CONTINUOUS
 10
4.285600
 20
2.115520
  0
VERTEX
  8
0
  6
CONTINUOUS
 10
4.268880
 20
2.159960
  0
SEQEND
  8
0
  0
SOLID
  8
0
 62
    15
 10
4.285600
 20
2.115520
 11
4.934160
 21
2.490400
 12
4.306720
 22
2.070640
 13
4.955280
 23
2.445520
  0
POLYLINE
  8
0
  6
CONTINUOUS
 66
     1
 40
0.000000
 41
0.000000
  0
VERTEX
  8
0
  6
CONTINUOUS
 10
4.285600
 20
2.115520
  0
VERTEX
  8
0
  6
CONTINUOUS
 10
4.934160
 20
2.490400
  0
VERTEX
  8
0
  6
CONTINUOUS
 10
4.955280
 20
2.445520
  0
VERTEX
  8
0
  6
CONTINUOUS
 10
4.306720
 20
2.070640
  0
VERTEX
  8
0
  6
CONTINUOUS
 10
4.285600
 20
2.115520
  0
SEQEND
  8
0
  0
SOLID
  8
0
 62
    15
 10
4.306720
 20
2.070640
 11
4.955280
 21
2.445520
 12
4.333120
 22
2.025760
 13
4.981680
 23
2.400640
  0
POLYLINE
  8
0
  6
CONTINUOUS
 66
     1
 40
0.000000
 41
0.000000
  0
VERTEX
  8
0
  6
CONTINUOUS
 10
4.306720
 20
2.070640
  0
VERTEX
  8
0
  6
CONTINUOUS
 10
4.955280
 20
2.445520
  0
VERTEX
  8
0
  6
CONTINUOUS
 10
4.981680
 20
2.400640
  0
VERTEX
  8
0
  6
CONTINUOUS
 10
4.333120
 20
2.025760
  0
VERTEX
  8
0
  6
CONTINUOUS
 10
4.306720
 20
2.070640
  0
SEQEND
  8
0
  0
SOLID
  8
0
 62
    15
 10
4.333120
 20
2.025760
 11
4.981680
 21
2.400640
 12
4.365240
 22
1.981320
 13
5.013800
 23
2.356200
  0
POLYLINE
  8
0
  6
CONTINUOUS
 66
     1
 40
0.000000
 41
0.000000
  0
VERTEX
  8
0
  6
CONTINUOUS
 10
4.333120
 20
2.025760
  0
VERTEX
  8
0
  6
CONTINUOUS
 10
4.981680
 20
2.400640
  0
VERTEX
  8
0
  6
CONTINUOUS
 10
5.013800
 20
2.356200
  0
VERTEX
  8
0
  6
CONTINUOUS
 10
4.365240
 20
1.981320
  0
VERTEX
  8
0
  6
CONTINUOUS
 10
4.333120
 20
2.025760
  0
SEQEND
  8
0
  0
SOLID
  8
0
 62
    15
 10
4.365240
 20
1.981320
 11
5.013800
 21
2.356200
 12
4.403960
 22
1.937320
 13
5.052520
 23
2.312200
  0
POLYLINE
  8
0
  6
CONTINUOUS
 66
     1
 40
0.000000
 41
0.000000
  0
VERTEX
  8
0
  6
CONTINUOUS
 10
4.365240
 20
1.981320
  0
VERTEX
  8
0
  6
CONTINUOUS
 10
5.013800
 20
2.356200
  0
VERTEX
  8
0
  6
CONTINUOUS
 10
5.052520
 20
2.312200
  0
VERTEX
  8
0
  6
CONTINUOUS
 10
4.403960
 20
1.937320
  0
VERTEX
  8
0
  6
CONTINUOUS
 10
4.365240
 20
1.981320
  0
SEQEND
  8
0
  0
SOLID
  8
0
 62
    15
 10
4.403960
 20
1.937320
 11
5.052520
 21
2.312200
 12
4.449280
 22
1.894200
 13
5.097840
 23
2.269080
  0
POLYLINE
  8
0
  6
CONTINUOUS
 66
     1
 40
0.000000
 41
0.000000
  0
VERTEX
  8
0
  6
CONTINUOUS
 10
4.403960
 20
1.937320
  0
VERTEX
  8
0
  6
CONTINUOUS
 10
5.052520
 20
2.312200
  0
VERTEX
  8
0
  6
CONTINUOUS
 10
5.097840
 20
2.269080
  0
VERTEX
  8
0
  6
CONTINUOUS
 10
4.449280
 20
1.894200
  0
VERTEX
  8
0
  6
CONTINUOUS
 10
4.403960
 20
1.937320
  0
SEQEND
  8
0
  0
SOLID
  8
0
 62
    15
 10
4.449280
 20
1.894200
 11
5.097840
 21
2.269080
 12
4.502080
 22
1.851960
 13
5.150640
 23
2.226840
  0
POLYLINE
  8
0
  6
CONTINUOUS
 66
     1
 40
0.000000
 41
0.000000
  0
VERTEX
  8
0
  6
CONTINUOUS
 10
4.449280
 20
1.894200
  0
VERTEX
  8
0
  6
CONTINUOUS
 10
5.097840
 20
2.269080
  0
VERTEX
  8
0
  6
CONTINUOUS
 10
5.150640
 20
2.226840
  0
VERTEX
  8
0
  6
CONTINUOUS
 10
4.502080
 20
1.851960
  0
VERTEX
  8
0
  6
CONTINUOUS
 10
4.449280
 20
1.894200
  0
SEQEND
  8
0
  0
SOLID
  8
0
 62
    15
 10
4.502080
 20
1.851960
 11
5.150640
 21
2.226840
 12
4.562800
 22
1.811040
 13
5.211360
 23
2.185920
  0
POLYLINE
  8
0
  6
CONTINUOUS
 66
     1
 40
0.000000
 41
0.000000
  0
VERTEX
  8
0
  6
CONTINUOUS
 10
4.502080
 20
1.851960
  0
VERTEX
  8
0
  6
CONTINUOUS
 10
5.150640
 20
2.226840
  0
VERTEX
  8
0
  6
CONTINUOUS
 10
5.211360
 20
2.185920
  0
VERTEX
  8
0
  6
CONTINUOUS
 10
4.562800
 20
1.811040
  0
VERTEX
  8
0
  6
CONTINUOUS
 10
4.502080
 20
1.851960
  0
SEQEND
  8
0
  0
SOLID
  8
0
 62
    15
 10
4.562800
 20
1.811040
 11
5.211360
 21
2.185920
 12
4.618240
 22
1.771440
 13
5.266800
 23
2.145880
  0
POLYLINE
  8
0
  6
CONTINUOUS
 66
     1
 40
0.000000
 41
0.000000
  0
VERTEX
  8
0
  6
CONTINUOUS
 10
4.562800
 20
1.811040
  0
VERTEX
  8
0
  6
CONTINUOUS
 10
5.211360
 20
2.185920
  0
VERTEX
  8
0
  6
CONTINUOUS
 10
5.266800
 20
2.145880
  0
VERTEX
  8
0
  6
CONTINUOUS
 10
4.618240
 20
1.771440
  0
VERTEX
  8
0
  6
CONTINUOUS
 10
4.562800
 20
1.811040
  0
SEQEND
  8
0
  0
SOLID
  8
0
 62
    15
 10
4.618240
 20
1.771440
 11
5.266800
 21
2.145880
 12
4.665320
 22
1.727880
 13
5.313880
 23
2.102760
  0
POLYLINE
  8
0
  6
CONTINUOUS
 66
     1
 40
0.000000
 41
0.000000
  0
VERTEX
  8
0
  6
CONTINUOUS
 10
4.618240
 20
1.771440
  0
VERTEX
  8
0
  6
CONTINUOUS
 10
5.266800
 20
2.145880
  0
VERTEX
  8
0
  6
CONTINUOUS
 10
5.313880
 20
2.102760
  0
VERTEX
  8
0
  6
CONTINUOUS
 10
4.665320
 20
1.727880
  0
VERTEX
  8
0
  6
CONTINUOUS
 10
4.618240
 20
1.771440
  0
SEQEND
  8
0
  0
SOLID
  8
0
 62
    15
 10
4.665320
 20
1.727880
 11
5.313880
 21
2.102760
 12
4.704040
 22
1.681240
 13
5.352600
 23
2.056120
  0
POLYLINE
  8
0
  6
CONTINUOUS
 66
     1
 40
0.000000
 41
0.000000
  0
VERTEX
  8
0
  6
CONTINUOUS
 10
4.665320
 20
1.727880
  0
VERTEX
  8
0
  6
CONTINUOUS
 10
5.313880
 20
2.102760
  0
VERTEX
  8
0
  6
CONTINUOUS
 10
5.352600
 20
2.056120
  0
VERTEX
  8
0
  6
CONTINUOUS
 10
4.704040
 20
1.681240
  0
VERTEX
  8
0
  6
CONTINUOUS
 10
4.665320
 20
1.727880
  0
SEQEND
  8
0
  0
SOLID
  8
0
 62
    15
 10
4.704040
 20
1.681240
 11
5.352600
 21
2.056120
 12
4.733960
 22
1.632840
 13
5.382520
 23
2.007720
  0
POLYLINE
  8
0
  6
CONTINUOUS
 66
     1
 40
0.000000
 41
0.000000
  0
VERTEX
  8
0
  6
CONTINUOUS
 10
4.704040
 20
1.681240
  0
VERTEX
  8
0
  6
CONTINUOUS
 10
5.352600
 20
2.056120
  0
VERTEX
  8
0
  6
CONTINUOUS
 10
5.382520
 20
2.007720
  0
VERTEX
  8
0
  6
CONTINUOUS
 10
4.733960
 20
1.632840
  0
VERTEX
  8
0
  6
CONTINUOUS
 10
4.704040
 20
1.681240
  0
SEQEND
  8
0
  0
SOLID
  8
0
 62
    15
 10
4.733960
 20
1.632840
 11
5.382520
 21
2.007720
 12
4.755520
 22
1.583120
 13
5.404080
 23
1.957560
  0
POLYLINE
  8
0
  6
CONTINUOUS
 66
     1
 40
0.000000
 41
0.000000
  0
VERTEX
  8
0
  6
CONTINUOUS
 10
4.733960
 20
1.632840
  0
VERTEX
  8
0
  6
CONTINUOUS
 10
5.382520
 20
2.007720
  0
VERTEX
  8
0
  6
CONTINUOUS
 10
5.404080
 20
1.957560
  0
VERTEX
  8
0
  6
CONTINUOUS
 10
4.755520
 20
1.583120
  0
VERTEX
  8
0
  6
CONTINUOUS
 10
4.733960
 20
1.632840
  0
SEQEND
  8
0
  0
SOLID
  8
0
 62
    15
 10
4.755520
 20
1.583120
 11
5.404080
 21
1.957560
 12
4.768720
 22
1.532520
 13
5.417280
 23
1.907400
  0
POLYLINE
  8
0
  6
CONTINUOUS
 66
     1
 40
0.000000
 41
0.000000
  0
VERTEX
  8
0
  6
CONTINUOUS
 10
4.755520
 20
1.583120
  0
VERTEX
  8
0
  6
CONTINUOUS
 10
5.404080
 20
1.957560
  0
VERTEX
  8
0
  6
CONTINUOUS
 10
5.417280
 20
1.907400
  0
VERTEX
  8
0
  6
CONTINUOUS
 10
4.768720
 20
1.532520
  0
VERTEX
  8
0
  6
CONTINUOUS
 10
4.755520
 20
1.583120
  0
SEQEND
  8
0
  0
SOLID
  8
0
 62
    15
 10
4.768720
 20
1.532520
 11
5.417280
 21
1.907400
 12
4.774000
 22
1.482800
 13
5.422560
 23
1.857680
  0
POLYLINE
  8
0
  6
CONTINUOUS
 66
     1
 40
0.000000
 41
0.000000
  0
VERTEX
  8
0
  6
CONTINUOUS
 10
4.768720
 20
1.532520
  0
VERTEX
  8
0
  6
CONTINUOUS
 10
5.417280
 20
1.907400
  0
VERTEX
  8
0
  6
CONTINUOUS
 10
5.422560
 20
1.857680
  0
VERTEX
  8
0
  6
CONTINUOUS
 10
4.774000
 20
1.482800
  0
VERTEX
  8
0
  6
CONTINUOUS
 10
4.768720
 20
1.532520
  0
SEQEND
  8
0
  0
SOLID
  8
0
 62
    15
 10
4.774000
 20
1.482800
 11
5.422560
 21
1.857680
 12
4.770920
 22
1.433960
 13
5.419480
 23
1.808840
  0
POLYLINE
  8
0
  6
CONTINUOUS
 66
     1
 40
0.000000
 41
0.000000
  0
VERTEX
  8
0
  6
CONTINUOUS
 10
4.774000
 20
1.482800
  0
VERTEX
  8
0
  6
CONTINUOUS
 10
5.422560
 20
1.857680
  0
VERTEX
  8
0
  6
CONTINUOUS
 10
5.419480
 20
1.808840
  0
VERTEX
  8
0
  6
CONTINUOUS
 10
4.770920
 20
1.433960
  0
VERTEX
  8
0
  6
CONTINUOUS
 10
4.774000
 20
1.482800
  0
SEQEND
  8
0
  0
SOLID
  8
0
 62
    15
 10
4.770920
 20
1.433960
 11
5.419480
 21
1.808840
 12
4.759920
 22
1.387760
 13
5.408480
 23
1.762200
  0
POLYLINE
  8
0
  6
CONTINUOUS
 66
     1
 40
0.000000
 41
0.000000
  0
VERTEX
  8
0
  6
CONTINUOUS
 10
4.770920
 20
1.433960
  0
VERTEX
  8
0
  6
CONTINUOUS
 10
5.419480
 20
1.808840
  0
VERTEX
  8
0
  6
CONTINUOUS
 10
5.408480
 20
1.762200
  0
VERTEX
  8
0
  6
CONTINUOUS
 10
4.759920
 20
1.387760
  0
VERTEX
  8
0
  6
CONTINUOUS
 10
4.770920
 20
1.433960
  0
SEQEND
  8
0
  0
SOLID
  8
0
 62
    15
 10
4.462480
 20
1.190200
 11
5.111040
 21
1.565080
 12
4.462480
 22
1.146200
 13
5.111040
 23
1.521080
  0
POLYLINE
  8
0
  6
CONTINUOUS
 66
     1
 40
0.000000
 41
0.000000
  0
VERTEX
  8
0
  6
CONTINUOUS
 10
4.462480
 20
1.190200
  0
VERTEX
  8
0
  6
CONTINUOUS
 10
5.111040
 20
1.565080
  0
VERTEX
  8
0
  6
CONTINUOUS
 10
5.111040
 20
1.521080
  0
VERTEX
  8
0
  6
CONTINUOUS
 10
4.462480
 20
1.146200
  0
VERTEX
  8
0
  6
CONTINUOUS
 10
4.462480
 20
1.190200
  0
SEQEND
  8
0
  0
SOLID
  8
0
 62
    15
 10
4.741000
 20
1.343760
 11
5.389560
 21
1.718640
 12
4.714160
 22
1.304160
 13
5.362720
 23
1.678600
  0
POLYLINE
  8
0
  6
CONTINUOUS
 66
     1
 40
0.000000
 41
0.000000
  0
VERTEX
  8
0
  6
CONTINUOUS
 10
4.741000
 20
1.343760
  0
VERTEX
  8
0
  6
CONTINUOUS
 10
5.389560
 20
1.718640
  0
VERTEX
  8
0
  6
CONTINUOUS
 10
5.362720
 20
1.678600
  0
VERTEX
  8
0
  6
CONTINUOUS
 10
4.714160
 20
1.304160
  0
VERTEX
  8
0
  6
CONTINUOUS
 10
4.741000
 20
1.343760
  0
SEQEND
  8
0
  0
SOLID
  8
0
 62
    15
 10
4.714160
 20
1.304160
 11
5.362720
 21
1.678600
 12
4.679840
 22
1.268520
 13
5.328400
 23
1.643400
  0
POLYLINE
  8
0
  6
CONTINUOUS
 66
     1
 40
0.000000
 41
0.000000
  0
VERTEX
  8
0
  6
CONTINUOUS
 10
4.714160
 20
1.304160
  0
VERTEX
  8
0
  6
CONTINUOUS
 10
5.362720
 20
1.678600
  0
VERTEX
  8
0
  6
CONTINUOUS
 10
5.328400
 20
1.643400
  0
VERTEX
  8
0
  6
CONTINUOUS
 10
4.679840
 20
1.268520
  0
VERTEX
  8
0
  6
CONTINUOUS
 10
4.714160
 20
1.304160
  0
SEQEND
  8
0
  0
SOLID
  8
0
 62
    15
 10
4.679840
 20
1.268520
 11
5.328400
 21
1.643400
 12
4.637600
 22
1.238600
 13
5.286160
 23
1.613480
  0
POLYLINE
  8
0
  6
CONTINUOUS
 66
     1
 40
0.000000
 41
0.000000
  0
VERTEX
  8
0
  6
CONTINUOUS
 10
4.679840
 20
1.268520
  0
VERTEX
  8
0
  6
CONTINUOUS
 10
5.328400
 20
1.643400
  0
VERTEX
  8
0
  6
CONTINUOUS
 10
5.286160
 20
1.613480
  0
VERTEX
  8
0
  6
CONTINUOUS
 10
4.637600
 20
1.238600
  0
VERTEX
  8
0
  6
CONTINUOUS
 10
4.679840
 20
1.268520
  0
SEQEND
  8
0
  0
SOLID
  8
0
 62
    15
 10
4.759920
 20
1.387760
 11
5.408480
 21
1.762200
 12
4.741000
 22
1.343760
 13
5.389560
 23
1.718640
  0
POLYLINE
  8
0
  6
CONTINUOUS
 66
     1
 40
0.000000
 41
0.000000
  0
VERTEX
  8
0
  6
CONTINUOUS
 10
4.759920
 20
1.387760
  0
VERTEX
  8
0
  6
CONTINUOUS
 10
5.408480
 20
1.762200
  0
VERTEX
  8
0
  6
CONTINUOUS
 10
5.389560
 20
1.718640
  0
VERTEX
  8
0
  6
CONTINUOUS
 10
4.741000
 20
1.343760
  0
VERTEX
  8
0
  6
CONTINUOUS
 10
4.759920
 20
1.387760
  0
SEQEND
  8
0
  0
SOLID
  8
0
 62
    15
 10
3.906320
 20
3.265240
 11
4.554880
 21
3.640120
 12
4.108280
 22
3.265240
 13
4.756840
 23
3.640120
  0
POLYLINE
  8
0
  6
CONTINUOUS
 66
     1
 40
0.000000
 41
0.000000
  0
VERTEX
  8
0
  6
CONTINUOUS
 10
3.906320
 20
3.265240
  0
VERTEX
  8
0
  6
CONTINUOUS
 10
4.554880
 20
3.640120
  0
VERTEX
  8
0
  6
CONTINUOUS
 10
4.756840
 20
3.640120
  0
VERTEX
  8
0
  6
CONTINUOUS
 10
4.108280
 20
3.265240
  0
VERTEX
  8
0
  6
CONTINUOUS
 10
3.906320
 20
3.265240
  0
SEQEND
  8
0
  0
SOLID
  8
0
 62
    15
 10
4.108280
 20
3.265240
 11
4.756840
 21
3.640120
 12
4.108280
 22
3.256880
 13
4.756840
 23
3.631760
  0
POLYLINE
  8
0
  6
CONTINUOUS
 66
     1
 40
0.000000
 41
0.000000
  0
VERTEX
  8
0
  6
CONTINUOUS
 10
4.108280
 20
3.265240
  0
VERTEX
  8
0
  6
CONTINUOUS
 10
4.756840
 20
3.640120
  0
VERTEX
  8
0
  6
CONTINUOUS
 10
4.756840
 20
3.631760
  0
VERTEX
  8
0
  6
CONTINUOUS
 10
4.108280
 20
3.256880
  0
VERTEX
  8
0
  6
CONTINUOUS
 10
4.108280
 20
3.265240
  0
SEQEND
  8
0
  0
POLYLINE
  8
0
  6
CONTINUOUS
 66
     1
 40
0.000000
 41
0.000000
  0
VERTEX
  8
0
  6
CONTINUOUS
 10
4.108280
 20
3.256880
  0
VERTEX
  8
0
  6
CONTINUOUS
 10
4.107840
 20
3.230920
  0
VERTEX
  8
0
  6
CONTINUOUS
 10
4.109600
 20
3.211120
  0
VERTEX
  8
0
  6
CONTINUOUS
 10
4.114880
 20
3.195720
  0
VERTEX
  8
0
  6
CONTINUOUS
 10
4.122800
 20
3.184720
  0
VERTEX
  8
0
  6
CONTINUOUS
 10
4.146120
 20
3.172840
  0
VERTEX
  8
0
  6
CONTINUOUS
 10
4.179120
 20
3.169320
  0
VERTEX
  8
0
  6
CONTINUOUS
 10
4.195400
 20
3.165360
  0
VERTEX
  8
0
  6
CONTINUOUS
 10
4.206400
 20
3.156560
  0
VERTEX
  8
0
  6
CONTINUOUS
 10
4.217840
 20
3.131920
  0
VERTEX
  8
0
  6
CONTINUOUS
 10
4.219160
 20
3.110360
  0
VERTEX
  8
0
  6
CONTINUOUS
 10
4.218720
 20
3.115200
  0
VERTEX
  8
0
  6
CONTINUOUS
 10
4.218720
 20
3.062840
  0
VERTEX
  8
0
  6
CONTINUOUS
 10
4.233240
 20
3.062840
  0
VERTEX
  8
0
  6
CONTINUOUS
 10
4.285160
 20
3.050520
  0
VERTEX
  8
0
  6
CONTINUOUS
 10
4.333120
 20
3.028960
  0
VERTEX
  8
0
  6
CONTINUOUS
 10
4.376240
 20
2.999920
  0
VERTEX
  8
0
  6
CONTINUOUS
 10
4.413640
 20
2.963840
  0
VERTEX
  8
0
  6
CONTINUOUS
 10
4.444440
 20
2.921600
  0
VERTEX
  8
0
  6
CONTINUOUS
 10
4.467760
 20
2.874520
  0
VERTEX
  8
0
  6
CONTINUOUS
 10
4.482280
 20
2.823480
  0
VERTEX
  8
0
  6
CONTINUOUS
 10
4.487560
 20
2.769360
  0
VERTEX
  8
0
  6
CONTINUOUS
 10
4.482720
 20
2.715240
  0
VERTEX
  8
0
  6
CONTINUOUS
 10
4.469520
 20
2.663760
  0
VERTEX
  8
0
  6
CONTINUOUS
 10
4.447520
 20
2.617120
  0
VERTEX
  8
0
  6
CONTINUOUS
 10
4.418480
 20
2.575320
  0
VERTEX
  8
0
  6
CONTINUOUS
 10
4.382840
 20
2.539680
  0
VERTEX
  8
0
  6
CONTINUOUS
 10
4.340600
 20
2.511080
  0
VERTEX
  8
0
  6
CONTINUOUS
 10
4.293520
 20
2.490840
  0
VERTEX
  8
0
  6
CONTINUOUS
 10
4.237640
 20
2.479840
  0
VERTEX
  8
0
  6
CONTINUOUS
 10
4.236320
 20
2.409440
  0
VERTEX
  8
0
  6
CONTINUOUS
 10
4.238080
 20
2.331560
  0
VERTEX
  8
0
  6
CONTINUOUS
 10
4.247320
 20
2.247960
  0
VERTEX
  8
0
  6
CONTINUOUS
 10
4.268880
 20
2.159960
  0
VERTEX
  8
0
  6
CONTINUOUS
 10
4.285600
 20
2.115520
  0
VERTEX
  8
0
  6
CONTINUOUS
 10
4.306720
 20
2.070640
  0
VERTEX
  8
0
  6
CONTINUOUS
 10
4.333120
 20
2.025760
  0
VERTEX
  8
0
  6
CONTINUOUS
 10
4.365240
 20
1.981320
  0
VERTEX
  8
0
  6
CONTINUOUS
 10
4.403960
 20
1.937320
  0
VERTEX
  8
0
  6
CONTINUOUS
 10
4.449280
 20
1.894200
  0
VERTEX
  8
0
  6
CONTINUOUS
 10
4.502080
 20
1.851960
  0
VERTEX
  8
0
  6
CONTINUOUS
 10
4.562800
 20
1.811040
  0
VERTEX
  8
0
  6
CONTINUOUS
 10
4.618240
 20
1.771440
  0
VERTEX
  8
0
  6
CONTINUOUS
 10
4.665320
 20
1.727880
  0
VERTEX
  8
0
  6
CONTINUOUS
 10
4.704040
 20
1.681240
  0
VERTEX
  8
0
  6
CONTINUOUS
 10
4.733960
 20
1.632840
  0
VERTEX
  8
0
  6
CONTINUOUS
 10
4.755520
 20
1.583120
  0
VERTEX
  8
0
  6
CONTINUOUS
 10
4.768720
 20
1.532520
  0
VERTEX
  8
0
  6
CONTINUOUS
 10
4.774000
 20
1.482800
  0
VERTEX
  8
0
  6
CONTINUOUS
 10
4.770920
 20
1.433960
  0
VERTEX
  8
0
  6
CONTINUOUS
 10
4.759920
 20
1.387760
  0
VERTEX
  8
0
  6
CONTINUOUS
 10
4.741000
 20
1.343760
  0
VERTEX
  8
0
  6
CONTINUOUS
 10
4.714160
 20
1.304160
  0
VERTEX
  8
0
  6
CONTINUOUS
 10
4.679840
 20
1.268520
  0
VERTEX
  8
0
  6
CONTINUOUS
 10
4.637600
 20
1.238600
  0
VERTEX
  8
0
  6
CONTINUOUS
 10
4.588320
 20
1.215280
  0
VERTEX
  8
0
  6
CONTINUOUS
 10
4.531120
 20
1.198560
  0
VERTEX
  8
0
  6
CONTINUOUS
 10
4.462480
 20
1.190200
  0
VERTEX
  8
0
  6
CONTINUOUS
 10
4.462480
 20
1.146200
  0
VERTEX
  8
0
  6
CONTINUOUS
 10
3.906320
 20
1.146200
  0
VERTEX
  8
0
  6
CONTINUOUS
 10
3.906320
 20
3.265240
  0
VERTEX
  8
0
  6
CONTINUOUS
 10
4.108280
 20
3.265240
  0
VERTEX
  8
0
  6
CONTINUOUS
 10
4.108280
 20
3.256880
  0
SEQEND
  8
0
  0
TEXT
  8
0
 10
4.368760
 20
0.873840
 40
0.138043
  1
BA  657
 41
1.000000
  7
SN0
 71
     0
 72
     5
 11
4.958943
 21
0.873840
  0
TEXT
  8
0
 10
4.235880
 20
0.682440
 40
0.138043
  1
7/8" x2-1/8"
 41
1.000000
  7
SN0
 71
     0
 72
     5
 11
5.090269
 21
0.682440
  0
ENDSEC
  0
EOF
