  0
SECTION
  2
HEADER
  9
$ACADVER
  1
AC1006
  9
$EXTMIN
 10
1.404040
 20
1.036640
  9
$EXTMAX
 10
7.514760
 20
9.315240
  9
$LTSCALE
 40
0.044000
  9
$PDMODE
 70
    35
  9
$PDSIZE
 40
0.035200
  0
ENDSEC
  0
SECTION
  2
TABLES
  0
TABLE
  2
LTYPE
 70
     9
  0
LTYPE
  2
CONTINUOUS
 70
    64
  3
Solid line
 72
    65
 73
     0
 40
0.000000
  0
LTYPE
  2
DASHED
 70
    64
  3
__ __ __ __ __ __ __ __ __ __ __ __ __ __ __
 72
    65
 73
     2
 40
0.000330
 49
0.000220
 49
-0.000110
  0
LTYPE
  2
HIDDEN
 70
    64
  3
 _ _ _ _ _ _ _ _ _ _ _ _ _ _ _ _ _ _ _ _ _ _
 72
    65
 73
     2
 40
0.000165
 49
0.000110
 49
-0.000055
  0
LTYPE
  2
CENTER
 70
    64
  3
____ _ ____ _ ____ _ ____ _ ____ _ ____ _ ____
 72
    65
 73
     4
 40
0.000880
 49
0.000550
 49
-0.000110
 49
0.000110
 49
-0.000110
  0
LTYPE
  2
PHANTOM
 70
    64
  3
_____ _ _ _____ _ _ _____ _ _ _____ _ _ ____
 72
    65
 73
     6
 40
0.001100
 49
0.000550
 49
-0.000110
 49
0.000110
 49
-0.000110
 49
0.000110
 49
-0.000110
  0
LTYPE
  2
DOT
 70
    64
  3
...............................................
 72
    65
 73
     2
 40
0.000110
 49
0.000000
 49
-0.000110
  0
LTYPE
  2
DASHDOT
 70
    64
  3
__ . __ . __ . __ . __ . __ . __ . __ . __ . __
 72
    65
 73
     4
 40
0.000440
 49
0.000220
 49
-0.000110
 49
0.000000
 49
-0.000110
  0
LTYPE
  2
BORDER
 70
    64
  3
__ __ . __ __ . __ __ . __ __ . __ __ . __ __
 72
    65
 73
     6
 40
0.000770
 49
0.000220
 49
-0.000110
 49
0.000220
 49
-0.000110
 49
0.000000
 49
-0.000110
  0
LTYPE
  2
DIVIDE
 70
    64
  3
__ . . __ . . __ . . __ . . __ . . __ . . __
 72
    65
 73
     6
 40
0.000550
 49
0.000220
 49
-0.000110
 49
0.000000
 49
-0.000110
 49
0.000000
 49
-0.000110
  0
LTYPE
  2
DOTDOT
 70
    64
  3
 . .  . .  . .  . .  . .  . . 
 72
    65
 73
     5
 40
0.000242
 49
-0.000110
 49
0.000000
 49
-0.000110
 49
0.000000
 49
-0.000110
  0
ENDTAB
  0
TABLE
  2
STYLE
 70
     2
  0
STYLE
 70
     0
  2
SN0
 40
0.000000
 41
0.000440
 50
0.000000
 71
     0
 42
0.000000
  3
ROMAND
  0
STYLE
 70
    68
  2
SV0
 40
0.000000
 41
0.000440
 50
0.000000
 71
     0
 42
0.000000
  3
ROMAND
  0
ENDTAB
  0
TABLE
  2
LAYER
 70
     3
  0
LAYER
  2
FOREGROUND
 70
    64
 62
     7
  6
CONTINUOUS
  0
LAYER
  2
BACKGROUND
 70
    65
 62
    -7
  6
CONTINUOUS
  0
LAYER
  2
0
 70
    64
 62
     7
  6
CONTINUOUS
  0
ENDTAB
  0
ENDSEC
  0
SECTION
  2
ENTITIES
  0
POLYLINE
  8
FOREGROUND
  6
CONTINUOUS
 66
     1
 40
0.000000
 41
0.000000
  0
VERTEX
  8
FOREGROUND
  6
CONTINUOUS
 10
0.000000
 20
10.351880
  0
VERTEX
  8
FOREGROUND
  6
CONTINUOUS
 10
8.499920
 20
10.351880
  0
VERTEX
  8
FOREGROUND
  6
CONTINUOUS
 10
8.499920
 20
-0.648120
  0
VERTEX
  8
FOREGROUND
  6
CONTINUOUS
 10
0.000000
 20
-0.648120
  0
VERTEX
  8
FOREGROUND
  6
CONTINUOUS
 10
0.000000
 20
10.351880
  0
SEQEND
  8
0
  0
POLYLINE
  8
FOREGROUND
  6
CONTINUOUS
 66
     1
 40
0.000000
 41
0.000000
  0
VERTEX
  8
FOREGROUND
  6
CONTINUOUS
 10
0.000000
 20
10.351880
  0
VERTEX
  8
FOREGROUND
  6
CONTINUOUS
 10
8.499920
 20
10.351880
  0
VERTEX
  8
FOREGROUND
  6
CONTINUOUS
 10
8.499920
 20
-0.648120
  0
VERTEX
  8
FOREGROUND
  6
CONTINUOUS
 10
0.000000
 20
-0.648120
  0
VERTEX
  8
FOREGROUND
  6
CONTINUOUS
 10
0.000000
 20
10.351880
  0
SEQEND
  8
0
  0
POLYLINE
  8
0
  6
CONTINUOUS
 66
     1
 40
0.014080
 41
0.014080
  0
VERTEX
  8
0
  6
CONTINUOUS
 10
7.207640
 20
8.265840
  0
VERTEX
  8
0
  6
CONTINUOUS
 10
7.238000
 20
8.267600
  0
VERTEX
  8
0
  6
CONTINUOUS
 10
7.267920
 20
8.272000
  0
VERTEX
  8
0
  6
CONTINUOUS
 10
7.296520
 20
8.279480
  0
VERTEX
  8
0
  6
CONTINUOUS
 10
7.337440
 20
8.295760
  0
VERTEX
  8
0
  6
CONTINUOUS
 10
7.374840
 20
8.317320
  0
VERTEX
  8
0
  6
CONTINUOUS
 10
7.409160
 20
8.344160
  0
VERTEX
  8
0
  6
CONTINUOUS
 10
7.438640
 20
8.375400
  0
VERTEX
  8
0
  6
CONTINUOUS
 10
7.464160
 20
8.411040
  0
VERTEX
  8
0
  6
CONTINUOUS
 10
7.483960
 20
8.449760
  0
VERTEX
  8
0
  6
CONTINUOUS
 10
7.498040
 20
8.491120
  0
VERTEX
  8
0
  6
CONTINUOUS
 10
7.504200
 20
8.520600
  0
VERTEX
  8
0
  6
CONTINUOUS
 10
7.507280
 20
8.550520
  0
VERTEX
  8
0
  6
CONTINUOUS
 10
7.507280
 20
8.581320
  0
VERTEX
  8
0
  6
CONTINUOUS
 10
7.501560
 20
8.626200
  0
VERTEX
  8
0
  6
CONTINUOUS
 10
7.494080
 20
8.654800
  0
VERTEX
  8
0
  6
CONTINUOUS
 10
7.477800
 20
8.695720
  0
VERTEX
  8
0
  6
CONTINUOUS
 10
7.456240
 20
8.733120
  0
VERTEX
  8
0
  6
CONTINUOUS
 10
7.429400
 20
8.767440
  0
VERTEX
  8
0
  6
CONTINUOUS
 10
7.398160
 20
8.796920
  0
VERTEX
  8
0
  6
CONTINUOUS
 10
7.362520
 20
8.822440
  0
VERTEX
  8
0
  6
CONTINUOUS
 10
7.323800
 20
8.842240
  0
VERTEX
  8
0
  6
CONTINUOUS
 10
7.282440
 20
8.856320
  0
VERTEX
  8
0
  6
CONTINUOUS
 10
7.252960
 20
8.862480
  0
VERTEX
  8
0
  6
CONTINUOUS
 10
7.223040
 20
8.865560
  0
VERTEX
  8
0
  6
CONTINUOUS
 10
7.192240
 20
8.865560
  0
VERTEX
  8
0
  6
CONTINUOUS
 10
7.162320
 20
8.862920
  0
VERTEX
  8
0
  6
CONTINUOUS
 10
7.119200
 20
8.853240
  0
VERTEX
  8
0
  6
CONTINUOUS
 10
7.078280
 20
8.837840
  0
VERTEX
  8
0
  6
CONTINUOUS
 10
7.040880
 20
8.817160
  0
VERTEX
  8
0
  6
CONTINUOUS
 10
7.007440
 20
8.791640
  0
VERTEX
  8
0
  6
CONTINUOUS
 10
6.977960
 20
8.761280
  0
VERTEX
  8
0
  6
CONTINUOUS
 10
6.960800
 20
8.738840
  0
VERTEX
  8
0
  6
CONTINUOUS
 10
6.939240
 20
8.702320
  0
VERTEX
  8
0
  6
CONTINUOUS
 10
6.922960
 20
8.662280
  0
VERTEX
  8
0
  6
CONTINUOUS
 10
6.913280
 20
8.619600
  0
VERTEX
  8
0
  6
CONTINUOUS
 10
6.910200
 20
8.589680
  0
VERTEX
  8
0
  6
CONTINUOUS
 10
6.909760
 20
8.574280
  0
VERTEX
  8
0
  6
CONTINUOUS
 10
6.875000
 20
8.575600
  0
VERTEX
  8
0
  6
CONTINUOUS
 10
6.850360
 20
8.579560
  0
VERTEX
  8
0
  6
CONTINUOUS
 10
6.820440
 20
8.590120
  0
VERTEX
  8
0
  6
CONTINUOUS
 10
6.796680
 20
8.605960
  0
VERTEX
  8
0
  6
CONTINUOUS
 10
6.778640
 20
8.626640
  0
VERTEX
  8
0
  6
CONTINUOUS
 10
6.763680
 20
8.652160
  0
VERTEX
  8
0
  6
CONTINUOUS
 10
6.742120
 20
8.703200
  0
VERTEX
  8
0
  6
CONTINUOUS
 10
6.718360
 20
8.763920
  0
VERTEX
  8
0
  6
CONTINUOUS
 10
6.692840
 20
8.818480
  0
VERTEX
  8
0
  6
CONTINUOUS
 10
6.665560
 20
8.864240
  0
VERTEX
  8
0
  6
CONTINUOUS
 10
6.639160
 20
8.896800
  0
VERTEX
  8
0
  6
CONTINUOUS
 10
6.607920
 20
8.927600
  0
VERTEX
  8
0
  6
CONTINUOUS
 10
6.572280
 20
8.954880
  0
VERTEX
  8
0
  6
CONTINUOUS
 10
6.533120
 20
8.978640
  0
VERTEX
  8
0
  6
CONTINUOUS
 10
6.490880
 20
8.997560
  0
VERTEX
  8
0
  6
CONTINUOUS
 10
6.446000
 20
9.011200
  0
VERTEX
  8
0
  6
CONTINUOUS
 10
6.399360
 20
9.018680
  0
VERTEX
  8
0
  6
CONTINUOUS
 10
6.351400
 20
9.019120
  0
VERTEX
  8
0
  6
CONTINUOUS
 10
6.327200
 20
9.016480
  0
VERTEX
  8
0
  6
CONTINUOUS
 10
6.303000
 20
9.011640
  0
VERTEX
  8
0
  6
CONTINUOUS
 10
6.278800
 20
9.005040
  0
VERTEX
  8
0
  6
CONTINUOUS
 10
6.254600
 20
8.995800
  0
VERTEX
  8
0
  6
CONTINUOUS
 10
6.230840
 20
8.984800
  0
VERTEX
  8
0
  6
CONTINUOUS
 10
6.195200
 20
8.962800
  0
VERTEX
  8
0
  6
CONTINUOUS
 10
6.172320
 20
8.945640
  0
VERTEX
  8
0
  6
CONTINUOUS
 10
6.138440
 20
8.913960
  0
VERTEX
  8
0
  6
CONTINUOUS
 10
6.105880
 20
8.876560
  0
VERTEX
  8
0
  6
CONTINUOUS
 10
6.074640
 20
8.832120
  0
VERTEX
  8
0
  6
CONTINUOUS
 10
6.045600
 20
8.780640
  0
VERTEX
  8
0
  6
CONTINUOUS
 10
6.018320
 20
8.722120
  0
VERTEX
  8
0
  6
CONTINUOUS
 10
6.005560
 20
8.718160
  0
VERTEX
  8
0
  6
CONTINUOUS
 10
5.906120
 20
8.815400
  0
VERTEX
  8
0
  6
CONTINUOUS
 10
5.822520
 20
8.890200
  0
VERTEX
  8
0
  6
CONTINUOUS
 10
5.761360
 20
8.939920
  0
VERTEX
  8
0
  6
CONTINUOUS
 10
5.694480
 20
8.989200
  0
VERTEX
  8
0
  6
CONTINUOUS
 10
5.621000
 20
9.036720
  0
VERTEX
  8
0
  6
CONTINUOUS
 10
5.540920
 20
9.082040
  0
VERTEX
  8
0
  6
CONTINUOUS
 10
5.452480
 20
9.125160
  0
VERTEX
  8
0
  6
CONTINUOUS
 10
5.355240
 20
9.164760
  0
VERTEX
  8
0
  6
CONTINUOUS
 10
5.248320
 20
9.200840
  0
VERTEX
  8
0
  6
CONTINUOUS
 10
5.131280
 20
9.232520
  0
VERTEX
  8
0
  6
CONTINUOUS
 10
5.036240
 20
9.253200
  0
VERTEX
  8
0
  6
CONTINUOUS
 10
4.934160
 20
9.270800
  0
VERTEX
  8
0
  6
CONTINUOUS
 10
4.825480
 20
9.284880
  0
VERTEX
  8
0
  6
CONTINUOUS
 10
4.709320
 20
9.295440
  0
VERTEX
  8
0
  6
CONTINUOUS
 10
4.627480
 20
9.300720
  0
VERTEX
  8
0
  6
CONTINUOUS
 10
4.498560
 20
9.305120
  0
VERTEX
  8
0
  6
CONTINUOUS
 10
4.453680
 20
9.305560
  0
VERTEX
  8
0
  6
CONTINUOUS
 10
4.466000
 20
9.307320
  0
VERTEX
  8
0
  6
CONTINUOUS
 10
4.377120
 20
9.306000
  0
VERTEX
  8
0
  6
CONTINUOUS
 10
4.250840
 20
9.300280
  0
VERTEX
  8
0
  6
CONTINUOUS
 10
4.132040
 20
9.290600
  0
VERTEX
  8
0
  6
CONTINUOUS
 10
4.020720
 20
9.277400
  0
VERTEX
  8
0
  6
CONTINUOUS
 10
3.916880
 20
9.261120
  0
VERTEX
  8
0
  6
CONTINUOUS
 10
3.819200
 20
9.241760
  0
VERTEX
  8
0
  6
CONTINUOUS
 10
3.728560
 20
9.219320
  0
VERTEX
  8
0
  6
CONTINUOUS
 10
3.616360
 20
9.185440
  0
VERTEX
  8
0
  6
CONTINUOUS
 10
3.514720
 20
9.147160
  0
VERTEX
  8
0
  6
CONTINUOUS
 10
3.421880
 20
9.105800
  0
VERTEX
  8
0
  6
CONTINUOUS
 10
3.378760
 20
9.084240
  0
VERTEX
  8
0
  6
CONTINUOUS
 10
3.298240
 20
9.038480
  0
VERTEX
  8
0
  6
CONTINUOUS
 10
3.225200
 20
8.990960
  0
VERTEX
  8
0
  6
CONTINUOUS
 10
3.158320
 20
8.942120
  0
VERTEX
  8
0
  6
CONTINUOUS
 10
3.096720
 20
8.892400
  0
VERTEX
  8
0
  6
CONTINUOUS
 10
3.013560
 20
8.817160
  0
VERTEX
  8
0
  6
CONTINUOUS
 10
2.914120
 20
8.719920
  0
VERTEX
  8
0
  6
CONTINUOUS
 10
2.901360
 20
8.724320
  0
VERTEX
  8
0
  6
CONTINUOUS
 10
2.874080
 20
8.782840
  0
VERTEX
  8
0
  6
CONTINUOUS
 10
2.845040
 20
8.834320
  0
VERTEX
  8
0
  6
CONTINUOUS
 10
2.813800
 20
8.878760
  0
VERTEX
  8
0
  6
CONTINUOUS
 10
2.781240
 20
8.916160
  0
VERTEX
  8
0
  6
CONTINUOUS
 10
2.747360
 20
8.947400
  0
VERTEX
  8
0
  6
CONTINUOUS
 10
2.712600
 20
8.972920
  0
VERTEX
  8
0
  6
CONTINUOUS
 10
2.688840
 20
8.986560
  0
VERTEX
  8
0
  6
CONTINUOUS
 10
2.665080
 20
8.998000
  0
VERTEX
  8
0
  6
CONTINUOUS
 10
2.640880
 20
9.007240
  0
VERTEX
  8
0
  6
CONTINUOUS
 10
2.616680
 20
9.013840
  0
VERTEX
  8
0
  6
CONTINUOUS
 10
2.592480
 20
9.018240
  0
VERTEX
  8
0
  6
CONTINUOUS
 10
2.568280
 20
9.020880
  0
VERTEX
  8
0
  6
CONTINUOUS
 10
2.544080
 20
9.021760
  0
VERTEX
  8
0
  6
CONTINUOUS
 10
2.497000
 20
9.017800
  0
VERTEX
  8
0
  6
CONTINUOUS
 10
2.473680
 20
9.013400
  0
VERTEX
  8
0
  6
CONTINUOUS
 10
2.428800
 20
8.999760
  0
VERTEX
  8
0
  6
CONTINUOUS
 10
2.386560
 20
8.980400
  0
VERTEX
  8
0
  6
CONTINUOUS
 10
2.347400
 20
8.957080
  0
VERTEX
  8
0
  6
CONTINUOUS
 10
2.311760
 20
8.929360
  0
VERTEX
  8
0
  6
CONTINUOUS
 10
2.280520
 20
8.899000
  0
VERTEX
  8
0
  6
CONTINUOUS
 10
2.254120
 20
8.866440
  0
VERTEX
  8
0
  6
CONTINUOUS
 10
2.226840
 20
8.820680
  0
VERTEX
  8
0
  6
CONTINUOUS
 10
2.201320
 20
8.766120
  0
VERTEX
  8
0
  6
CONTINUOUS
 10
2.164800
 20
8.673280
  0
VERTEX
  8
0
  6
CONTINUOUS
 10
2.146320
 20
8.637200
  0
VERTEX
  8
0
  6
CONTINUOUS
 10
2.129600
 20
8.614760
  0
VERTEX
  8
0
  6
CONTINUOUS
 10
2.115520
 20
8.602440
  0
VERTEX
  8
0
  6
CONTINUOUS
 10
2.099240
 20
8.592320
  0
VERTEX
  8
0
  6
CONTINUOUS
 10
2.069320
 20
8.581760
  0
VERTEX
  8
0
  6
CONTINUOUS
 10
2.044680
 20
8.577800
  0
VERTEX
  8
0
  6
CONTINUOUS
 10
2.009920
 20
8.576480
  0
VERTEX
  8
0
  6
CONTINUOUS
 10
2.008600
 20
8.606840
  0
VERTEX
  8
0
  6
CONTINUOUS
 10
2.000680
 20
8.650400
  0
VERTEX
  8
0
  6
CONTINUOUS
 10
1.986600
 20
8.691320
  0
VERTEX
  8
0
  6
CONTINUOUS
 10
1.966800
 20
8.729160
  0
VERTEX
  8
0
  6
CONTINUOUS
 10
1.950960
 20
8.752480
  0
VERTEX
  8
0
  6
CONTINUOUS
 10
1.922800
 20
8.784160
  0
VERTEX
  8
0
  6
CONTINUOUS
 10
1.890240
 20
8.811440
  0
VERTEX
  8
0
  6
CONTINUOUS
 10
1.854160
 20
8.833880
  0
VERTEX
  8
0
  6
CONTINUOUS
 10
1.814560
 20
8.851040
  0
VERTEX
  8
0
  6
CONTINUOUS
 10
1.771880
 20
8.862480
  0
VERTEX
  8
0
  6
CONTINUOUS
 10
1.742400
 20
8.866880
  0
VERTEX
  8
0
  6
CONTINUOUS
 10
1.712040
 20
8.868200
  0
VERTEX
  8
0
  6
CONTINUOUS
 10
1.681680
 20
8.866440
  0
VERTEX
  8
0
  6
CONTINUOUS
 10
1.651760
 20
8.862040
  0
VERTEX
  8
0
  6
CONTINUOUS
 10
1.609080
 20
8.849720
  0
VERTEX
  8
0
  6
CONTINUOUS
 10
1.569480
 20
8.831680
  0
VERTEX
  8
0
  6
CONTINUOUS
 10
1.544400
 20
8.816720
  0
VERTEX
  8
0
  6
CONTINUOUS
 10
1.510520
 20
8.789880
  0
VERTEX
  8
0
  6
CONTINUOUS
 10
1.480600
 20
8.758640
  0
VERTEX
  8
0
  6
CONTINUOUS
 10
1.455520
 20
8.723000
  0
VERTEX
  8
0
  6
CONTINUOUS
 10
1.435720
 20
8.684280
  0
VERTEX
  8
0
  6
CONTINUOUS
 10
1.421640
 20
8.642920
  0
VERTEX
  8
0
  6
CONTINUOUS
 10
1.415480
 20
8.613440
  0
VERTEX
  8
0
  6
CONTINUOUS
 10
1.412400
 20
8.583520
  0
VERTEX
  8
0
  6
CONTINUOUS
 10
1.412400
 20
8.552720
  0
VERTEX
  8
0
  6
CONTINUOUS
 10
1.418120
 20
8.507840
  0
VERTEX
  8
0
  6
CONTINUOUS
 10
1.425600
 20
8.479240
  0
VERTEX
  8
0
  6
CONTINUOUS
 10
1.441880
 20
8.438320
  0
VERTEX
  8
0
  6
CONTINUOUS
 10
1.463440
 20
8.400920
  0
VERTEX
  8
0
  6
CONTINUOUS
 10
1.490280
 20
8.366600
  0
VERTEX
  8
0
  6
CONTINUOUS
 10
1.521520
 20
8.337120
  0
VERTEX
  8
0
  6
CONTINUOUS
 10
1.556720
 20
8.311600
  0
VERTEX
  8
0
  6
CONTINUOUS
 10
1.595440
 20
8.291800
  0
VERTEX
  8
0
  6
CONTINUOUS
 10
1.637240
 20
8.277720
  0
VERTEX
  8
0
  6
CONTINUOUS
 10
1.666720
 20
8.271560
  0
VERTEX
  8
0
  6
CONTINUOUS
 10
1.696640
 20
8.268480
  0
VERTEX
  8
0
  6
CONTINUOUS
 10
1.712040
 20
8.268040
  0
VERTEX
  8
0
  6
CONTINUOUS
 10
1.709840
 20
8.265840
  0
VERTEX
  8
0
  6
CONTINUOUS
 10
1.709840
 20
8.188840
  0
VERTEX
  8
0
  6
CONTINUOUS
 10
1.707640
 20
8.180480
  0
VERTEX
  8
0
  6
CONTINUOUS
 10
7.195320
 20
8.180480
  0
VERTEX
  8
0
  6
CONTINUOUS
 10
7.195320
 20
8.255280
  0
VERTEX
  8
0
  6
CONTINUOUS
 10
7.207640
 20
8.265840
  0
SEQEND
  8
0
  0
SOLID
  8
0
 62
    15
 10
3.858800
 20
4.500760
 11
4.598000
 21
4.484480
 12
3.846920
 22
4.340600
 13
4.586120
 23
4.324760
  0
POLYLINE
  8
0
  6
CONTINUOUS
 66
     1
 40
0.000000
 41
0.000000
  0
VERTEX
  8
0
  6
CONTINUOUS
 10
3.858800
 20
4.500760
  0
VERTEX
  8
0
  6
CONTINUOUS
 10
4.598000
 20
4.484480
  0
VERTEX
  8
0
  6
CONTINUOUS
 10
4.586120
 20
4.324760
  0
VERTEX
  8
0
  6
CONTINUOUS
 10
3.846920
 20
4.340600
  0
VERTEX
  8
0
  6
CONTINUOUS
 10
3.858800
 20
4.500760
  0
SEQEND
  8
0
  0
SOLID
  8
0
 62
    15
 10
3.182520
 20
7.710120
 11
3.921280
 21
7.694280
 12
3.238400
 22
7.692520
 13
3.977600
 23
7.676680
  0
POLYLINE
  8
0
  6
CONTINUOUS
 66
     1
 40
0.000000
 41
0.000000
  0
VERTEX
  8
0
  6
CONTINUOUS
 10
3.182520
 20
7.710120
  0
VERTEX
  8
0
  6
CONTINUOUS
 10
3.921280
 20
7.694280
  0
VERTEX
  8
0
  6
CONTINUOUS
 10
3.977600
 20
7.676680
  0
VERTEX
  8
0
  6
CONTINUOUS
 10
3.238400
 20
7.692520
  0
VERTEX
  8
0
  6
CONTINUOUS
 10
3.182520
 20
7.710120
  0
SEQEND
  8
0
  0
SOLID
  8
0
 62
    15
 10
3.238400
 20
7.692520
 11
3.977600
 21
7.676680
 12
3.289440
 22
7.664800
 13
4.028640
 23
7.648520
  0
POLYLINE
  8
0
  6
CONTINUOUS
 66
     1
 40
0.000000
 41
0.000000
  0
VERTEX
  8
0
  6
CONTINUOUS
 10
3.238400
 20
7.692520
  0
VERTEX
  8
0
  6
CONTINUOUS
 10
3.977600
 20
7.676680
  0
VERTEX
  8
0
  6
CONTINUOUS
 10
4.028640
 20
7.648520
  0
VERTEX
  8
0
  6
CONTINUOUS
 10
3.289440
 20
7.664800
  0
VERTEX
  8
0
  6
CONTINUOUS
 10
3.238400
 20
7.692520
  0
SEQEND
  8
0
  0
SOLID
  8
0
 62
    15
 10
3.289440
 20
7.664800
 11
4.028640
 21
7.648520
 12
3.333880
 22
7.627840
 13
4.073080
 23
7.612000
  0
POLYLINE
  8
0
  6
CONTINUOUS
 66
     1
 40
0.000000
 41
0.000000
  0
VERTEX
  8
0
  6
CONTINUOUS
 10
3.289440
 20
7.664800
  0
VERTEX
  8
0
  6
CONTINUOUS
 10
4.028640
 20
7.648520
  0
VERTEX
  8
0
  6
CONTINUOUS
 10
4.073080
 20
7.612000
  0
VERTEX
  8
0
  6
CONTINUOUS
 10
3.333880
 20
7.627840
  0
VERTEX
  8
0
  6
CONTINUOUS
 10
3.289440
 20
7.664800
  0
SEQEND
  8
0
  0
SOLID
  8
0
 62
    15
 10
3.333880
 20
7.627840
 11
4.073080
 21
7.612000
 12
3.370840
 22
7.583400
 13
4.109600
 23
7.567560
  0
POLYLINE
  8
0
  6
CONTINUOUS
 66
     1
 40
0.000000
 41
0.000000
  0
VERTEX
  8
0
  6
CONTINUOUS
 10
3.333880
 20
7.627840
  0
VERTEX
  8
0
  6
CONTINUOUS
 10
4.073080
 20
7.612000
  0
VERTEX
  8
0
  6
CONTINUOUS
 10
4.109600
 20
7.567560
  0
VERTEX
  8
0
  6
CONTINUOUS
 10
3.370840
 20
7.583400
  0
VERTEX
  8
0
  6
CONTINUOUS
 10
3.333880
 20
7.627840
  0
SEQEND
  8
0
  0
SOLID
  8
0
 62
    15
 10
3.370840
 20
7.583400
 11
4.109600
 21
7.567560
 12
3.398560
 22
7.532800
 13
4.137320
 23
7.516520
  0
POLYLINE
  8
0
  6
CONTINUOUS
 66
     1
 40
0.000000
 41
0.000000
  0
VERTEX
  8
0
  6
CONTINUOUS
 10
3.370840
 20
7.583400
  0
VERTEX
  8
0
  6
CONTINUOUS
 10
4.109600
 20
7.567560
  0
VERTEX
  8
0
  6
CONTINUOUS
 10
4.137320
 20
7.516520
  0
VERTEX
  8
0
  6
CONTINUOUS
 10
3.398560
 20
7.532800
  0
VERTEX
  8
0
  6
CONTINUOUS
 10
3.370840
 20
7.583400
  0
SEQEND
  8
0
  0
SOLID
  8
0
 62
    15
 10
3.398560
 20
7.532800
 11
4.137320
 21
7.516520
 12
3.416160
 22
7.476480
 13
4.154920
 23
7.460640
  0
POLYLINE
  8
0
  6
CONTINUOUS
 66
     1
 40
0.000000
 41
0.000000
  0
VERTEX
  8
0
  6
CONTINUOUS
 10
3.398560
 20
7.532800
  0
VERTEX
  8
0
  6
CONTINUOUS
 10
4.137320
 20
7.516520
  0
VERTEX
  8
0
  6
CONTINUOUS
 10
4.154920
 20
7.460640
  0
VERTEX
  8
0
  6
CONTINUOUS
 10
3.416160
 20
7.476480
  0
VERTEX
  8
0
  6
CONTINUOUS
 10
3.398560
 20
7.532800
  0
SEQEND
  8
0
  0
SOLID
  8
0
 62
    15
 10
3.416160
 20
7.476480
 11
4.154920
 21
7.460640
 12
3.422320
 22
7.416200
 13
4.161080
 23
7.400360
  0
POLYLINE
  8
0
  6
CONTINUOUS
 66
     1
 40
0.000000
 41
0.000000
  0
VERTEX
  8
0
  6
CONTINUOUS
 10
3.416160
 20
7.476480
  0
VERTEX
  8
0
  6
CONTINUOUS
 10
4.154920
 20
7.460640
  0
VERTEX
  8
0
  6
CONTINUOUS
 10
4.161080
 20
7.400360
  0
VERTEX
  8
0
  6
CONTINUOUS
 10
3.422320
 20
7.416200
  0
VERTEX
  8
0
  6
CONTINUOUS
 10
3.416160
 20
7.476480
  0
SEQEND
  8
0
  0
SOLID
  8
0
 62
    15
 10
3.422320
 20
7.416200
 11
4.161080
 21
7.400360
 12
3.416160
 22
7.356360
 13
4.155360
 23
7.340080
  0
POLYLINE
  8
0
  6
CONTINUOUS
 66
     1
 40
0.000000
 41
0.000000
  0
VERTEX
  8
0
  6
CONTINUOUS
 10
3.422320
 20
7.416200
  0
VERTEX
  8
0
  6
CONTINUOUS
 10
4.161080
 20
7.400360
  0
VERTEX
  8
0
  6
CONTINUOUS
 10
4.155360
 20
7.340080
  0
VERTEX
  8
0
  6
CONTINUOUS
 10
3.416160
 20
7.356360
  0
VERTEX
  8
0
  6
CONTINUOUS
 10
3.422320
 20
7.416200
  0
SEQEND
  8
0
  0
SOLID
  8
0
 62
    15
 10
3.416160
 20
7.356360
 11
4.155360
 21
7.340080
 12
3.399880
 22
7.300480
 13
4.138640
 23
7.284200
  0
POLYLINE
  8
0
  6
CONTINUOUS
 66
     1
 40
0.000000
 41
0.000000
  0
VERTEX
  8
0
  6
CONTINUOUS
 10
3.416160
 20
7.356360
  0
VERTEX
  8
0
  6
CONTINUOUS
 10
4.155360
 20
7.340080
  0
VERTEX
  8
0
  6
CONTINUOUS
 10
4.138640
 20
7.284200
  0
VERTEX
  8
0
  6
CONTINUOUS
 10
3.399880
 20
7.300480
  0
VERTEX
  8
0
  6
CONTINUOUS
 10
3.416160
 20
7.356360
  0
SEQEND
  8
0
  0
SOLID
  8
0
 62
    15
 10
3.399880
 20
7.300480
 11
4.138640
 21
7.284200
 12
3.373480
 22
7.249880
 13
4.112240
 23
7.233600
  0
POLYLINE
  8
0
  6
CONTINUOUS
 66
     1
 40
0.000000
 41
0.000000
  0
VERTEX
  8
0
  6
CONTINUOUS
 10
3.399880
 20
7.300480
  0
VERTEX
  8
0
  6
CONTINUOUS
 10
4.138640
 20
7.284200
  0
VERTEX
  8
0
  6
CONTINUOUS
 10
4.112240
 20
7.233600
  0
VERTEX
  8
0
  6
CONTINUOUS
 10
3.373480
 20
7.249880
  0
VERTEX
  8
0
  6
CONTINUOUS
 10
3.399880
 20
7.300480
  0
SEQEND
  8
0
  0
SOLID
  8
0
 62
    15
 10
3.373480
 20
7.249880
 11
4.112240
 21
7.233600
 12
3.338280
 22
7.205440
 13
4.077040
 23
7.189600
  0
POLYLINE
  8
0
  6
CONTINUOUS
 66
     1
 40
0.000000
 41
0.000000
  0
VERTEX
  8
0
  6
CONTINUOUS
 10
3.373480
 20
7.249880
  0
VERTEX
  8
0
  6
CONTINUOUS
 10
4.112240
 20
7.233600
  0
VERTEX
  8
0
  6
CONTINUOUS
 10
4.077040
 20
7.189600
  0
VERTEX
  8
0
  6
CONTINUOUS
 10
3.338280
 20
7.205440
  0
VERTEX
  8
0
  6
CONTINUOUS
 10
3.373480
 20
7.249880
  0
SEQEND
  8
0
  0
SOLID
  8
0
 62
    15
 10
3.338280
 20
7.205440
 11
4.077040
 21
7.189600
 12
3.295160
 22
7.169360
 13
4.033920
 23
7.153080
  0
POLYLINE
  8
0
  6
CONTINUOUS
 66
     1
 40
0.000000
 41
0.000000
  0
VERTEX
  8
0
  6
CONTINUOUS
 10
3.338280
 20
7.205440
  0
VERTEX
  8
0
  6
CONTINUOUS
 10
4.077040
 20
7.189600
  0
VERTEX
  8
0
  6
CONTINUOUS
 10
4.033920
 20
7.153080
  0
VERTEX
  8
0
  6
CONTINUOUS
 10
3.295160
 20
7.169360
  0
VERTEX
  8
0
  6
CONTINUOUS
 10
3.338280
 20
7.205440
  0
SEQEND
  8
0
  0
SOLID
  8
0
 62
    15
 10
3.295160
 20
7.169360
 11
4.033920
 21
7.153080
 12
3.245440
 22
7.141640
 13
3.984640
 23
7.125800
  0
POLYLINE
  8
0
  6
CONTINUOUS
 66
     1
 40
0.000000
 41
0.000000
  0
VERTEX
  8
0
  6
CONTINUOUS
 10
3.295160
 20
7.169360
  0
VERTEX
  8
0
  6
CONTINUOUS
 10
4.033920
 20
7.153080
  0
VERTEX
  8
0
  6
CONTINUOUS
 10
3.984640
 20
7.125800
  0
VERTEX
  8
0
  6
CONTINUOUS
 10
3.245440
 20
7.141640
  0
VERTEX
  8
0
  6
CONTINUOUS
 10
3.295160
 20
7.169360
  0
SEQEND
  8
0
  0
SOLID
  8
0
 62
    15
 10
3.245440
 20
7.141640
 11
3.984640
 21
7.125800
 12
3.190440
 22
7.124480
 13
3.929200
 23
7.108200
  0
POLYLINE
  8
0
  6
CONTINUOUS
 66
     1
 40
0.000000
 41
0.000000
  0
VERTEX
  8
0
  6
CONTINUOUS
 10
3.245440
 20
7.141640
  0
VERTEX
  8
0
  6
CONTINUOUS
 10
3.984640
 20
7.125800
  0
VERTEX
  8
0
  6
CONTINUOUS
 10
3.929200
 20
7.108200
  0
VERTEX
  8
0
  6
CONTINUOUS
 10
3.190440
 20
7.124480
  0
VERTEX
  8
0
  6
CONTINUOUS
 10
3.245440
 20
7.141640
  0
SEQEND
  8
0
  0
SOLID
  8
0
 62
    15
 10
3.190440
 20
7.124480
 11
3.929200
 21
7.108200
 12
3.130600
 22
7.118320
 13
3.869360
 23
7.102480
  0
POLYLINE
  8
0
  6
CONTINUOUS
 66
     1
 40
0.000000
 41
0.000000
  0
VERTEX
  8
0
  6
CONTINUOUS
 10
3.190440
 20
7.124480
  0
VERTEX
  8
0
  6
CONTINUOUS
 10
3.929200
 20
7.108200
  0
VERTEX
  8
0
  6
CONTINUOUS
 10
3.869360
 20
7.102480
  0
VERTEX
  8
0
  6
CONTINUOUS
 10
3.130600
 20
7.118320
  0
VERTEX
  8
0
  6
CONTINUOUS
 10
3.190440
 20
7.124480
  0
SEQEND
  8
0
  0
SOLID
  8
0
 62
    15
 10
3.130600
 20
7.118320
 11
3.869360
 21
7.102480
 12
3.130600
 22
7.112160
 13
3.869360
 23
7.095880
  0
POLYLINE
  8
0
  6
CONTINUOUS
 66
     1
 40
0.000000
 41
0.000000
  0
VERTEX
  8
0
  6
CONTINUOUS
 10
3.130600
 20
7.118320
  0
VERTEX
  8
0
  6
CONTINUOUS
 10
3.869360
 20
7.102480
  0
VERTEX
  8
0
  6
CONTINUOUS
 10
3.869360
 20
7.095880
  0
VERTEX
  8
0
  6
CONTINUOUS
 10
3.130600
 20
7.112160
  0
VERTEX
  8
0
  6
CONTINUOUS
 10
3.130600
 20
7.118320
  0
SEQEND
  8
0
  0
SOLID
  8
0
 62
    15
 10
3.130600
 20
7.112160
 11
3.869360
 21
7.095880
 12
3.135880
 22
7.058920
 13
3.874640
 23
7.043080
  0
POLYLINE
  8
0
  6
CONTINUOUS
 66
     1
 40
0.000000
 41
0.000000
  0
VERTEX
  8
0
  6
CONTINUOUS
 10
3.130600
 20
7.112160
  0
VERTEX
  8
0
  6
CONTINUOUS
 10
3.869360
 20
7.095880
  0
VERTEX
  8
0
  6
CONTINUOUS
 10
3.874640
 20
7.043080
  0
VERTEX
  8
0
  6
CONTINUOUS
 10
3.135880
 20
7.058920
  0
VERTEX
  8
0
  6
CONTINUOUS
 10
3.130600
 20
7.112160
  0
SEQEND
  8
0
  0
SOLID
  8
0
 62
    15
 10
3.135880
 20
7.058920
 11
3.874640
 21
7.043080
 12
3.151280
 22
7.020200
 13
3.890040
 23
7.004360
  0
POLYLINE
  8
0
  6
CONTINUOUS
 66
     1
 40
0.000000
 41
0.000000
  0
VERTEX
  8
0
  6
CONTINUOUS
 10
3.135880
 20
7.058920
  0
VERTEX
  8
0
  6
CONTINUOUS
 10
3.874640
 20
7.043080
  0
VERTEX
  8
0
  6
CONTINUOUS
 10
3.890040
 20
7.004360
  0
VERTEX
  8
0
  6
CONTINUOUS
 10
3.151280
 20
7.020200
  0
VERTEX
  8
0
  6
CONTINUOUS
 10
3.135880
 20
7.058920
  0
SEQEND
  8
0
  0
SOLID
  8
0
 62
    15
 10
3.151280
 20
7.020200
 11
3.890040
 21
7.004360
 12
3.175480
 22
6.992920
 13
3.914680
 23
6.976640
  0
POLYLINE
  8
0
  6
CONTINUOUS
 66
     1
 40
0.000000
 41
0.000000
  0
VERTEX
  8
0
  6
CONTINUOUS
 10
3.151280
 20
7.020200
  0
VERTEX
  8
0
  6
CONTINUOUS
 10
3.890040
 20
7.004360
  0
VERTEX
  8
0
  6
CONTINUOUS
 10
3.914680
 20
6.976640
  0
VERTEX
  8
0
  6
CONTINUOUS
 10
3.175480
 20
6.992920
  0
VERTEX
  8
0
  6
CONTINUOUS
 10
3.151280
 20
7.020200
  0
SEQEND
  8
0
  0
SOLID
  8
0
 62
    15
 10
3.175480
 20
6.992920
 11
3.914680
 21
6.976640
 12
3.208480
 22
6.972240
 13
3.947240
 23
6.955960
  0
POLYLINE
  8
0
  6
CONTINUOUS
 66
     1
 40
0.000000
 41
0.000000
  0
VERTEX
  8
0
  6
CONTINUOUS
 10
3.175480
 20
6.992920
  0
VERTEX
  8
0
  6
CONTINUOUS
 10
3.914680
 20
6.976640
  0
VERTEX
  8
0
  6
CONTINUOUS
 10
3.947240
 20
6.955960
  0
VERTEX
  8
0
  6
CONTINUOUS
 10
3.208480
 20
6.972240
  0
VERTEX
  8
0
  6
CONTINUOUS
 10
3.175480
 20
6.992920
  0
SEQEND
  8
0
  0
SOLID
  8
0
 62
    15
 10
3.208480
 20
6.972240
 11
3.947240
 21
6.955960
 12
3.248520
 22
6.954640
 13
3.987280
 23
6.938800
  0
POLYLINE
  8
0
  6
CONTINUOUS
 66
     1
 40
0.000000
 41
0.000000
  0
VERTEX
  8
0
  6
CONTINUOUS
 10
3.208480
 20
6.972240
  0
VERTEX
  8
0
  6
CONTINUOUS
 10
3.947240
 20
6.955960
  0
VERTEX
  8
0
  6
CONTINUOUS
 10
3.987280
 20
6.938800
  0
VERTEX
  8
0
  6
CONTINUOUS
 10
3.248520
 20
6.954640
  0
VERTEX
  8
0
  6
CONTINUOUS
 10
3.208480
 20
6.972240
  0
SEQEND
  8
0
  0
SOLID
  8
0
 62
    15
 10
3.248520
 20
6.954640
 11
3.987280
 21
6.938800
 12
3.294720
 22
6.937040
 13
4.033920
 23
6.920760
  0
POLYLINE
  8
0
  6
CONTINUOUS
 66
     1
 40
0.000000
 41
0.000000
  0
VERTEX
  8
0
  6
CONTINUOUS
 10
3.248520
 20
6.954640
  0
VERTEX
  8
0
  6
CONTINUOUS
 10
3.987280
 20
6.938800
  0
VERTEX
  8
0
  6
CONTINUOUS
 10
4.033920
 20
6.920760
  0
VERTEX
  8
0
  6
CONTINUOUS
 10
3.294720
 20
6.937040
  0
VERTEX
  8
0
  6
CONTINUOUS
 10
3.248520
 20
6.954640
  0
SEQEND
  8
0
  0
SOLID
  8
0
 62
    15
 10
3.294720
 20
6.937040
 11
4.033920
 21
6.920760
 12
3.346640
 22
6.915040
 13
4.085840
 23
6.898760
  0
POLYLINE
  8
0
  6
CONTINUOUS
 66
     1
 40
0.000000
 41
0.000000
  0
VERTEX
  8
0
  6
CONTINUOUS
 10
3.294720
 20
6.937040
  0
VERTEX
  8
0
  6
CONTINUOUS
 10
4.033920
 20
6.920760
  0
VERTEX
  8
0
  6
CONTINUOUS
 10
4.085840
 20
6.898760
  0
VERTEX
  8
0
  6
CONTINUOUS
 10
3.346640
 20
6.915040
  0
VERTEX
  8
0
  6
CONTINUOUS
 10
3.294720
 20
6.937040
  0
SEQEND
  8
0
  0
SOLID
  8
0
 62
    15
 10
3.346640
 20
6.915040
 11
4.085840
 21
6.898760
 12
3.403400
 22
6.885120
 13
4.142600
 23
6.868840
  0
POLYLINE
  8
0
  6
CONTINUOUS
 66
     1
 40
0.000000
 41
0.000000
  0
VERTEX
  8
0
  6
CONTINUOUS
 10
3.346640
 20
6.915040
  0
VERTEX
  8
0
  6
CONTINUOUS
 10
4.085840
 20
6.898760
  0
VERTEX
  8
0
  6
CONTINUOUS
 10
4.142600
 20
6.868840
  0
VERTEX
  8
0
  6
CONTINUOUS
 10
3.403400
 20
6.885120
  0
VERTEX
  8
0
  6
CONTINUOUS
 10
3.346640
 20
6.915040
  0
SEQEND
  8
0
  0
SOLID
  8
0
 62
    15
 10
3.403400
 20
6.885120
 11
4.142600
 21
6.868840
 12
3.437280
 22
6.861360
 13
4.176040
 23
6.845520
  0
POLYLINE
  8
0
  6
CONTINUOUS
 66
     1
 40
0.000000
 41
0.000000
  0
VERTEX
  8
0
  6
CONTINUOUS
 10
3.403400
 20
6.885120
  0
VERTEX
  8
0
  6
CONTINUOUS
 10
4.142600
 20
6.868840
  0
VERTEX
  8
0
  6
CONTINUOUS
 10
4.176040
 20
6.845520
  0
VERTEX
  8
0
  6
CONTINUOUS
 10
3.437280
 20
6.861360
  0
VERTEX
  8
0
  6
CONTINUOUS
 10
3.403400
 20
6.885120
  0
SEQEND
  8
0
  0
SOLID
  8
0
 62
    15
 10
3.437280
 20
6.861360
 11
4.176040
 21
6.845520
 12
3.468960
 22
6.832760
 13
4.207720
 23
6.816480
  0
POLYLINE
  8
0
  6
CONTINUOUS
 66
     1
 40
0.000000
 41
0.000000
  0
VERTEX
  8
0
  6
CONTINUOUS
 10
3.437280
 20
6.861360
  0
VERTEX
  8
0
  6
CONTINUOUS
 10
4.176040
 20
6.845520
  0
VERTEX
  8
0
  6
CONTINUOUS
 10
4.207720
 20
6.816480
  0
VERTEX
  8
0
  6
CONTINUOUS
 10
3.468960
 20
6.832760
  0
VERTEX
  8
0
  6
CONTINUOUS
 10
3.437280
 20
6.861360
  0
SEQEND
  8
0
  0
SOLID
  8
0
 62
    15
 10
3.468960
 20
6.832760
 11
4.207720
 21
6.816480
 12
3.523520
 22
6.761480
 13
4.262720
 23
6.745640
  0
POLYLINE
  8
0
  6
CONTINUOUS
 66
     1
 40
0.000000
 41
0.000000
  0
VERTEX
  8
0
  6
CONTINUOUS
 10
3.468960
 20
6.832760
  0
VERTEX
  8
0
  6
CONTINUOUS
 10
4.207720
 20
6.816480
  0
VERTEX
  8
0
  6
CONTINUOUS
 10
4.262720
 20
6.745640
  0
VERTEX
  8
0
  6
CONTINUOUS
 10
3.523520
 20
6.761480
  0
VERTEX
  8
0
  6
CONTINUOUS
 10
3.468960
 20
6.832760
  0
SEQEND
  8
0
  0
SOLID
  8
0
 62
    15
 10
3.523520
 20
6.761480
 11
4.262720
 21
6.745640
 12
3.545080
 22
6.721000
 13
4.283840
 23
6.704720
  0
POLYLINE
  8
0
  6
CONTINUOUS
 66
     1
 40
0.000000
 41
0.000000
  0
VERTEX
  8
0
  6
CONTINUOUS
 10
3.523520
 20
6.761480
  0
VERTEX
  8
0
  6
CONTINUOUS
 10
4.262720
 20
6.745640
  0
VERTEX
  8
0
  6
CONTINUOUS
 10
4.283840
 20
6.704720
  0
VERTEX
  8
0
  6
CONTINUOUS
 10
3.545080
 20
6.721000
  0
VERTEX
  8
0
  6
CONTINUOUS
 10
3.523520
 20
6.761480
  0
SEQEND
  8
0
  0
SOLID
  8
0
 62
    15
 10
3.545080
 20
6.721000
 11
4.283840
 21
6.704720
 12
3.561360
 22
6.677000
 13
4.300560
 23
6.661160
  0
POLYLINE
  8
0
  6
CONTINUOUS
 66
     1
 40
0.000000
 41
0.000000
  0
VERTEX
  8
0
  6
CONTINUOUS
 10
3.545080
 20
6.721000
  0
VERTEX
  8
0
  6
CONTINUOUS
 10
4.283840
 20
6.704720
  0
VERTEX
  8
0
  6
CONTINUOUS
 10
4.300560
 20
6.661160
  0
VERTEX
  8
0
  6
CONTINUOUS
 10
3.561360
 20
6.677000
  0
VERTEX
  8
0
  6
CONTINUOUS
 10
3.545080
 20
6.721000
  0
SEQEND
  8
0
  0
SOLID
  8
0
 62
    15
 10
3.561360
 20
6.677000
 11
4.300560
 21
6.661160
 12
3.571920
 22
6.631240
 13
4.311120
 23
6.615400
  0
POLYLINE
  8
0
  6
CONTINUOUS
 66
     1
 40
0.000000
 41
0.000000
  0
VERTEX
  8
0
  6
CONTINUOUS
 10
3.561360
 20
6.677000
  0
VERTEX
  8
0
  6
CONTINUOUS
 10
4.300560
 20
6.661160
  0
VERTEX
  8
0
  6
CONTINUOUS
 10
4.311120
 20
6.615400
  0
VERTEX
  8
0
  6
CONTINUOUS
 10
3.571920
 20
6.631240
  0
VERTEX
  8
0
  6
CONTINUOUS
 10
3.561360
 20
6.677000
  0
SEQEND
  8
0
  0
SOLID
  8
0
 62
    15
 10
3.571920
 20
6.631240
 11
4.311120
 21
6.615400
 12
3.575880
 22
6.584160
 13
4.315080
 23
6.567880
  0
POLYLINE
  8
0
  6
CONTINUOUS
 66
     1
 40
0.000000
 41
0.000000
  0
VERTEX
  8
0
  6
CONTINUOUS
 10
3.571920
 20
6.631240
  0
VERTEX
  8
0
  6
CONTINUOUS
 10
4.311120
 20
6.615400
  0
VERTEX
  8
0
  6
CONTINUOUS
 10
4.315080
 20
6.567880
  0
VERTEX
  8
0
  6
CONTINUOUS
 10
3.575880
 20
6.584160
  0
VERTEX
  8
0
  6
CONTINUOUS
 10
3.571920
 20
6.631240
  0
SEQEND
  8
0
  0
SOLID
  8
0
 62
    15
 10
3.575880
 20
6.584160
 11
4.315080
 21
6.567880
 12
3.572800
 22
6.535760
 13
4.311560
 23
6.519920
  0
POLYLINE
  8
0
  6
CONTINUOUS
 66
     1
 40
0.000000
 41
0.000000
  0
VERTEX
  8
0
  6
CONTINUOUS
 10
3.575880
 20
6.584160
  0
VERTEX
  8
0
  6
CONTINUOUS
 10
4.315080
 20
6.567880
  0
VERTEX
  8
0
  6
CONTINUOUS
 10
4.311560
 20
6.519920
  0
VERTEX
  8
0
  6
CONTINUOUS
 10
3.572800
 20
6.535760
  0
VERTEX
  8
0
  6
CONTINUOUS
 10
3.575880
 20
6.584160
  0
SEQEND
  8
0
  0
SOLID
  8
0
 62
    15
 10
3.572800
 20
6.535760
 11
4.311560
 21
6.519920
 12
3.561360
 22
6.487360
 13
4.300120
 23
6.471520
  0
POLYLINE
  8
0
  6
CONTINUOUS
 66
     1
 40
0.000000
 41
0.000000
  0
VERTEX
  8
0
  6
CONTINUOUS
 10
3.572800
 20
6.535760
  0
VERTEX
  8
0
  6
CONTINUOUS
 10
4.311560
 20
6.519920
  0
VERTEX
  8
0
  6
CONTINUOUS
 10
4.300120
 20
6.471520
  0
VERTEX
  8
0
  6
CONTINUOUS
 10
3.561360
 20
6.487360
  0
VERTEX
  8
0
  6
CONTINUOUS
 10
3.572800
 20
6.535760
  0
SEQEND
  8
0
  0
SOLID
  8
0
 62
    15
 10
3.561360
 20
6.487360
 11
4.300120
 21
6.471520
 12
3.541120
 22
6.439400
 13
4.279880
 23
6.423120
  0
POLYLINE
  8
0
  6
CONTINUOUS
 66
     1
 40
0.000000
 41
0.000000
  0
VERTEX
  8
0
  6
CONTINUOUS
 10
3.561360
 20
6.487360
  0
VERTEX
  8
0
  6
CONTINUOUS
 10
4.300120
 20
6.471520
  0
VERTEX
  8
0
  6
CONTINUOUS
 10
4.279880
 20
6.423120
  0
VERTEX
  8
0
  6
CONTINUOUS
 10
3.541120
 20
6.439400
  0
VERTEX
  8
0
  6
CONTINUOUS
 10
3.561360
 20
6.487360
  0
SEQEND
  8
0
  0
SOLID
  8
0
 62
    15
 10
3.541120
 20
6.439400
 11
4.279880
 21
6.423120
 12
3.510760
 22
6.392320
 13
4.249960
 23
6.376040
  0
POLYLINE
  8
0
  6
CONTINUOUS
 66
     1
 40
0.000000
 41
0.000000
  0
VERTEX
  8
0
  6
CONTINUOUS
 10
3.541120
 20
6.439400
  0
VERTEX
  8
0
  6
CONTINUOUS
 10
4.279880
 20
6.423120
  0
VERTEX
  8
0
  6
CONTINUOUS
 10
4.249960
 20
6.376040
  0
VERTEX
  8
0
  6
CONTINUOUS
 10
3.510760
 20
6.392320
  0
VERTEX
  8
0
  6
CONTINUOUS
 10
3.541120
 20
6.439400
  0
SEQEND
  8
0
  0
SOLID
  8
0
 62
    15
 10
3.510760
 20
6.392320
 11
4.249960
 21
6.376040
 12
3.470280
 22
6.347000
 13
4.209480
 23
6.330720
  0
POLYLINE
  8
0
  6
CONTINUOUS
 66
     1
 40
0.000000
 41
0.000000
  0
VERTEX
  8
0
  6
CONTINUOUS
 10
3.510760
 20
6.392320
  0
VERTEX
  8
0
  6
CONTINUOUS
 10
4.249960
 20
6.376040
  0
VERTEX
  8
0
  6
CONTINUOUS
 10
4.209480
 20
6.330720
  0
VERTEX
  8
0
  6
CONTINUOUS
 10
3.470280
 20
6.347000
  0
VERTEX
  8
0
  6
CONTINUOUS
 10
3.510760
 20
6.392320
  0
SEQEND
  8
0
  0
SOLID
  8
0
 62
    15
 10
3.470280
 20
6.347000
 11
4.209480
 21
6.330720
 12
3.418800
 22
6.303880
 13
4.157560
 23
6.287600
  0
POLYLINE
  8
0
  6
CONTINUOUS
 66
     1
 40
0.000000
 41
0.000000
  0
VERTEX
  8
0
  6
CONTINUOUS
 10
3.470280
 20
6.347000
  0
VERTEX
  8
0
  6
CONTINUOUS
 10
4.209480
 20
6.330720
  0
VERTEX
  8
0
  6
CONTINUOUS
 10
4.157560
 20
6.287600
  0
VERTEX
  8
0
  6
CONTINUOUS
 10
3.418800
 20
6.303880
  0
VERTEX
  8
0
  6
CONTINUOUS
 10
3.470280
 20
6.347000
  0
SEQEND
  8
0
  0
SOLID
  8
0
 62
    15
 10
3.418800
 20
6.303880
 11
4.157560
 21
6.287600
 12
3.355000
 22
6.263400
 13
4.093760
 23
6.247560
  0
POLYLINE
  8
0
  6
CONTINUOUS
 66
     1
 40
0.000000
 41
0.000000
  0
VERTEX
  8
0
  6
CONTINUOUS
 10
3.418800
 20
6.303880
  0
VERTEX
  8
0
  6
CONTINUOUS
 10
4.157560
 20
6.287600
  0
VERTEX
  8
0
  6
CONTINUOUS
 10
4.093760
 20
6.247560
  0
VERTEX
  8
0
  6
CONTINUOUS
 10
3.355000
 20
6.263400
  0
VERTEX
  8
0
  6
CONTINUOUS
 10
3.418800
 20
6.303880
  0
SEQEND
  8
0
  0
SOLID
  8
0
 62
    15
 10
3.355000
 20
6.263400
 11
4.093760
 21
6.247560
 12
3.278440
 22
6.226880
 13
4.017640
 23
6.210600
  0
POLYLINE
  8
0
  6
CONTINUOUS
 66
     1
 40
0.000000
 41
0.000000
  0
VERTEX
  8
0
  6
CONTINUOUS
 10
3.355000
 20
6.263400
  0
VERTEX
  8
0
  6
CONTINUOUS
 10
4.093760
 20
6.247560
  0
VERTEX
  8
0
  6
CONTINUOUS
 10
4.017640
 20
6.210600
  0
VERTEX
  8
0
  6
CONTINUOUS
 10
3.278440
 20
6.226880
  0
VERTEX
  8
0
  6
CONTINUOUS
 10
3.355000
 20
6.263400
  0
SEQEND
  8
0
  0
SOLID
  8
0
 62
    15
 10
3.278440
 20
6.226880
 11
4.017640
 21
6.210600
 12
3.274480
 22
6.214120
 13
4.013240
 23
6.198280
  0
POLYLINE
  8
0
  6
CONTINUOUS
 66
     1
 40
0.000000
 41
0.000000
  0
VERTEX
  8
0
  6
CONTINUOUS
 10
3.278440
 20
6.226880
  0
VERTEX
  8
0
  6
CONTINUOUS
 10
4.017640
 20
6.210600
  0
VERTEX
  8
0
  6
CONTINUOUS
 10
4.013240
 20
6.198280
  0
VERTEX
  8
0
  6
CONTINUOUS
 10
3.274480
 20
6.214120
  0
VERTEX
  8
0
  6
CONTINUOUS
 10
3.278440
 20
6.226880
  0
SEQEND
  8
0
  0
SOLID
  8
0
 62
    15
 10
3.274480
 20
6.214120
 11
4.013240
 21
6.198280
 12
3.371720
 22
6.114680
 13
4.110480
 23
6.098840
  0
POLYLINE
  8
0
  6
CONTINUOUS
 66
     1
 40
0.000000
 41
0.000000
  0
VERTEX
  8
0
  6
CONTINUOUS
 10
3.274480
 20
6.214120
  0
VERTEX
  8
0
  6
CONTINUOUS
 10
4.013240
 20
6.198280
  0
VERTEX
  8
0
  6
CONTINUOUS
 10
4.110480
 20
6.098840
  0
VERTEX
  8
0
  6
CONTINUOUS
 10
3.371720
 20
6.114680
  0
VERTEX
  8
0
  6
CONTINUOUS
 10
3.274480
 20
6.214120
  0
SEQEND
  8
0
  0
SOLID
  8
0
 62
    15
 10
3.371720
 20
6.114680
 11
4.110480
 21
6.098840
 12
3.471600
 22
6.001160
 13
4.210360
 23
5.985320
  0
POLYLINE
  8
0
  6
CONTINUOUS
 66
     1
 40
0.000000
 41
0.000000
  0
VERTEX
  8
0
  6
CONTINUOUS
 10
3.371720
 20
6.114680
  0
VERTEX
  8
0
  6
CONTINUOUS
 10
4.110480
 20
6.098840
  0
VERTEX
  8
0
  6
CONTINUOUS
 10
4.210360
 20
5.985320
  0
VERTEX
  8
0
  6
CONTINUOUS
 10
3.471600
 20
6.001160
  0
VERTEX
  8
0
  6
CONTINUOUS
 10
3.371720
 20
6.114680
  0
SEQEND
  8
0
  0
SOLID
  8
0
 62
    15
 10
3.471600
 20
6.001160
 11
4.210360
 21
5.985320
 12
3.520880
 22
5.937360
 13
4.260080
 23
5.921080
  0
POLYLINE
  8
0
  6
CONTINUOUS
 66
     1
 40
0.000000
 41
0.000000
  0
VERTEX
  8
0
  6
CONTINUOUS
 10
3.471600
 20
6.001160
  0
VERTEX
  8
0
  6
CONTINUOUS
 10
4.210360
 20
5.985320
  0
VERTEX
  8
0
  6
CONTINUOUS
 10
4.260080
 20
5.921080
  0
VERTEX
  8
0
  6
CONTINUOUS
 10
3.520880
 20
5.937360
  0
VERTEX
  8
0
  6
CONTINUOUS
 10
3.471600
 20
6.001160
  0
SEQEND
  8
0
  0
SOLID
  8
0
 62
    15
 10
3.520880
 20
5.937360
 11
4.260080
 21
5.921080
 12
3.569280
 22
5.867400
 13
4.308480
 23
5.851120
  0
POLYLINE
  8
0
  6
CONTINUOUS
 66
     1
 40
0.000000
 41
0.000000
  0
VERTEX
  8
0
  6
CONTINUOUS
 10
3.520880
 20
5.937360
  0
VERTEX
  8
0
  6
CONTINUOUS
 10
4.260080
 20
5.921080
  0
VERTEX
  8
0
  6
CONTINUOUS
 10
4.308480
 20
5.851120
  0
VERTEX
  8
0
  6
CONTINUOUS
 10
3.569280
 20
5.867400
  0
VERTEX
  8
0
  6
CONTINUOUS
 10
3.520880
 20
5.937360
  0
SEQEND
  8
0
  0
SOLID
  8
0
 62
    15
 10
3.569280
 20
5.867400
 11
4.308480
 21
5.851120
 12
3.615920
 22
5.790400
 13
4.354680
 23
5.774560
  0
POLYLINE
  8
0
  6
CONTINUOUS
 66
     1
 40
0.000000
 41
0.000000
  0
VERTEX
  8
0
  6
CONTINUOUS
 10
3.569280
 20
5.867400
  0
VERTEX
  8
0
  6
CONTINUOUS
 10
4.308480
 20
5.851120
  0
VERTEX
  8
0
  6
CONTINUOUS
 10
4.354680
 20
5.774560
  0
VERTEX
  8
0
  6
CONTINUOUS
 10
3.615920
 20
5.790400
  0
VERTEX
  8
0
  6
CONTINUOUS
 10
3.569280
 20
5.867400
  0
SEQEND
  8
0
  0
SOLID
  8
0
 62
    15
 10
3.615920
 20
5.790400
 11
4.354680
 21
5.774560
 12
3.660360
 22
5.705920
 13
4.399120
 23
5.690080
  0
POLYLINE
  8
0
  6
CONTINUOUS
 66
     1
 40
0.000000
 41
0.000000
  0
VERTEX
  8
0
  6
CONTINUOUS
 10
3.615920
 20
5.790400
  0
VERTEX
  8
0
  6
CONTINUOUS
 10
4.354680
 20
5.774560
  0
VERTEX
  8
0
  6
CONTINUOUS
 10
4.399120
 20
5.690080
  0
VERTEX
  8
0
  6
CONTINUOUS
 10
3.660360
 20
5.705920
  0
VERTEX
  8
0
  6
CONTINUOUS
 10
3.615920
 20
5.790400
  0
SEQEND
  8
0
  0
SOLID
  8
0
 62
    15
 10
3.660360
 20
5.705920
 11
4.399120
 21
5.690080
 12
3.701720
 22
5.613520
 13
4.440480
 23
5.597240
  0
POLYLINE
  8
0
  6
CONTINUOUS
 66
     1
 40
0.000000
 41
0.000000
  0
VERTEX
  8
0
  6
CONTINUOUS
 10
3.660360
 20
5.705920
  0
VERTEX
  8
0
  6
CONTINUOUS
 10
4.399120
 20
5.690080
  0
VERTEX
  8
0
  6
CONTINUOUS
 10
4.440480
 20
5.597240
  0
VERTEX
  8
0
  6
CONTINUOUS
 10
3.701720
 20
5.613520
  0
VERTEX
  8
0
  6
CONTINUOUS
 10
3.660360
 20
5.705920
  0
SEQEND
  8
0
  0
SOLID
  8
0
 62
    15
 10
3.701720
 20
5.613520
 11
4.440480
 21
5.597240
 12
3.739560
 22
5.511440
 13
4.478760
 23
5.495600
  0
POLYLINE
  8
0
  6
CONTINUOUS
 66
     1
 40
0.000000
 41
0.000000
  0
VERTEX
  8
0
  6
CONTINUOUS
 10
3.701720
 20
5.613520
  0
VERTEX
  8
0
  6
CONTINUOUS
 10
4.440480
 20
5.597240
  0
VERTEX
  8
0
  6
CONTINUOUS
 10
4.478760
 20
5.495600
  0
VERTEX
  8
0
  6
CONTINUOUS
 10
3.739560
 20
5.511440
  0
VERTEX
  8
0
  6
CONTINUOUS
 10
3.701720
 20
5.613520
  0
SEQEND
  8
0
  0
SOLID
  8
0
 62
    15
 10
3.739560
 20
5.511440
 11
4.478760
 21
5.495600
 12
3.773440
 22
5.399680
 13
4.512640
 23
5.383840
  0
POLYLINE
  8
0
  6
CONTINUOUS
 66
     1
 40
0.000000
 41
0.000000
  0
VERTEX
  8
0
  6
CONTINUOUS
 10
3.739560
 20
5.511440
  0
VERTEX
  8
0
  6
CONTINUOUS
 10
4.478760
 20
5.495600
  0
VERTEX
  8
0
  6
CONTINUOUS
 10
4.512640
 20
5.383840
  0
VERTEX
  8
0
  6
CONTINUOUS
 10
3.773440
 20
5.399680
  0
VERTEX
  8
0
  6
CONTINUOUS
 10
3.739560
 20
5.511440
  0
SEQEND
  8
0
  0
SOLID
  8
0
 62
    15
 10
3.773440
 20
5.399680
 11
4.512640
 21
5.383840
 12
3.802920
 22
5.276920
 13
4.541680
 23
5.261080
  0
POLYLINE
  8
0
  6
CONTINUOUS
 66
     1
 40
0.000000
 41
0.000000
  0
VERTEX
  8
0
  6
CONTINUOUS
 10
3.773440
 20
5.399680
  0
VERTEX
  8
0
  6
CONTINUOUS
 10
4.512640
 20
5.383840
  0
VERTEX
  8
0
  6
CONTINUOUS
 10
4.541680
 20
5.261080
  0
VERTEX
  8
0
  6
CONTINUOUS
 10
3.802920
 20
5.276920
  0
VERTEX
  8
0
  6
CONTINUOUS
 10
3.773440
 20
5.399680
  0
SEQEND
  8
0
  0
SOLID
  8
0
 62
    15
 10
3.802920
 20
5.276920
 11
4.541680
 21
5.261080
 12
3.826680
 22
5.142720
 13
4.565880
 23
5.126880
  0
POLYLINE
  8
0
  6
CONTINUOUS
 66
     1
 40
0.000000
 41
0.000000
  0
VERTEX
  8
0
  6
CONTINUOUS
 10
3.802920
 20
5.276920
  0
VERTEX
  8
0
  6
CONTINUOUS
 10
4.541680
 20
5.261080
  0
VERTEX
  8
0
  6
CONTINUOUS
 10
4.565880
 20
5.126880
  0
VERTEX
  8
0
  6
CONTINUOUS
 10
3.826680
 20
5.142720
  0
VERTEX
  8
0
  6
CONTINUOUS
 10
3.802920
 20
5.276920
  0
SEQEND
  8
0
  0
SOLID
  8
0
 62
    15
 10
3.826680
 20
5.142720
 11
4.565880
 21
5.126880
 12
3.845160
 22
4.996200
 13
4.583920
 23
4.979920
  0
POLYLINE
  8
0
  6
CONTINUOUS
 66
     1
 40
0.000000
 41
0.000000
  0
VERTEX
  8
0
  6
CONTINUOUS
 10
3.826680
 20
5.142720
  0
VERTEX
  8
0
  6
CONTINUOUS
 10
4.565880
 20
5.126880
  0
VERTEX
  8
0
  6
CONTINUOUS
 10
4.583920
 20
4.979920
  0
VERTEX
  8
0
  6
CONTINUOUS
 10
3.845160
 20
4.996200
  0
VERTEX
  8
0
  6
CONTINUOUS
 10
3.826680
 20
5.142720
  0
SEQEND
  8
0
  0
SOLID
  8
0
 62
    15
 10
3.845160
 20
4.996200
 11
4.583920
 21
4.979920
 12
3.857040
 22
4.836040
 13
4.595800
 23
4.820200
  0
POLYLINE
  8
0
  6
CONTINUOUS
 66
     1
 40
0.000000
 41
0.000000
  0
VERTEX
  8
0
  6
CONTINUOUS
 10
3.845160
 20
4.996200
  0
VERTEX
  8
0
  6
CONTINUOUS
 10
4.583920
 20
4.979920
  0
VERTEX
  8
0
  6
CONTINUOUS
 10
4.595800
 20
4.820200
  0
VERTEX
  8
0
  6
CONTINUOUS
 10
3.857040
 20
4.836040
  0
VERTEX
  8
0
  6
CONTINUOUS
 10
3.845160
 20
4.996200
  0
SEQEND
  8
0
  0
SOLID
  8
0
 62
    15
 10
3.857040
 20
4.836040
 11
4.595800
 21
4.820200
 12
3.861880
 22
4.662240
 13
4.600640
 23
4.645960
  0
POLYLINE
  8
0
  6
CONTINUOUS
 66
     1
 40
0.000000
 41
0.000000
  0
VERTEX
  8
0
  6
CONTINUOUS
 10
3.857040
 20
4.836040
  0
VERTEX
  8
0
  6
CONTINUOUS
 10
4.595800
 20
4.820200
  0
VERTEX
  8
0
  6
CONTINUOUS
 10
4.600640
 20
4.645960
  0
VERTEX
  8
0
  6
CONTINUOUS
 10
3.861880
 20
4.662240
  0
VERTEX
  8
0
  6
CONTINUOUS
 10
3.857040
 20
4.836040
  0
SEQEND
  8
0
  0
SOLID
  8
0
 62
    15
 10
3.863640
 20
4.674560
 11
4.602840
 21
4.658280
 12
3.858800
 22
4.500760
 13
4.598000
 23
4.484480
  0
POLYLINE
  8
0
  6
CONTINUOUS
 66
     1
 40
0.000000
 41
0.000000
  0
VERTEX
  8
0
  6
CONTINUOUS
 10
3.863640
 20
4.674560
  0
VERTEX
  8
0
  6
CONTINUOUS
 10
4.602840
 20
4.658280
  0
VERTEX
  8
0
  6
CONTINUOUS
 10
4.598000
 20
4.484480
  0
VERTEX
  8
0
  6
CONTINUOUS
 10
3.858800
 20
4.500760
  0
VERTEX
  8
0
  6
CONTINUOUS
 10
3.863640
 20
4.674560
  0
SEQEND
  8
0
  0
SOLID
  8
0
 62
    15
 10
3.122240
 20
7.716280
 11
3.861440
 21
7.700000
 12
3.182520
 22
7.710120
 13
3.921280
 23
7.694280
  0
POLYLINE
  8
0
  6
CONTINUOUS
 66
     1
 40
0.000000
 41
0.000000
  0
VERTEX
  8
0
  6
CONTINUOUS
 10
3.122240
 20
7.716280
  0
VERTEX
  8
0
  6
CONTINUOUS
 10
3.861440
 20
7.700000
  0
VERTEX
  8
0
  6
CONTINUOUS
 10
3.921280
 20
7.694280
  0
VERTEX
  8
0
  6
CONTINUOUS
 10
3.182520
 20
7.710120
  0
VERTEX
  8
0
  6
CONTINUOUS
 10
3.122240
 20
7.716280
  0
SEQEND
  8
0
  0
SOLID
  8
0
 62
    15
 10
3.846920
 20
4.340600
 11
4.586120
 21
4.324760
 12
3.828880
 22
4.194080
 13
4.567640
 23
4.177800
  0
POLYLINE
  8
0
  6
CONTINUOUS
 66
     1
 40
0.000000
 41
0.000000
  0
VERTEX
  8
0
  6
CONTINUOUS
 10
3.846920
 20
4.340600
  0
VERTEX
  8
0
  6
CONTINUOUS
 10
4.586120
 20
4.324760
  0
VERTEX
  8
0
  6
CONTINUOUS
 10
4.567640
 20
4.177800
  0
VERTEX
  8
0
  6
CONTINUOUS
 10
3.828880
 20
4.194080
  0
VERTEX
  8
0
  6
CONTINUOUS
 10
3.846920
 20
4.340600
  0
SEQEND
  8
0
  0
SOLID
  8
0
 62
    15
 10
3.828880
 20
4.194080
 11
4.567640
 21
4.177800
 12
3.804680
 22
4.059880
 13
4.543880
 23
4.043600
  0
POLYLINE
  8
0
  6
CONTINUOUS
 66
     1
 40
0.000000
 41
0.000000
  0
VERTEX
  8
0
  6
CONTINUOUS
 10
3.828880
 20
4.194080
  0
VERTEX
  8
0
  6
CONTINUOUS
 10
4.567640
 20
4.177800
  0
VERTEX
  8
0
  6
CONTINUOUS
 10
4.543880
 20
4.043600
  0
VERTEX
  8
0
  6
CONTINUOUS
 10
3.804680
 20
4.059880
  0
VERTEX
  8
0
  6
CONTINUOUS
 10
3.828880
 20
4.194080
  0
SEQEND
  8
0
  0
SOLID
  8
0
 62
    15
 10
3.804680
 20
4.059880
 11
4.543880
 21
4.043600
 12
3.775640
 22
3.937120
 13
4.514400
 23
3.920840
  0
POLYLINE
  8
0
  6
CONTINUOUS
 66
     1
 40
0.000000
 41
0.000000
  0
VERTEX
  8
0
  6
CONTINUOUS
 10
3.804680
 20
4.059880
  0
VERTEX
  8
0
  6
CONTINUOUS
 10
4.543880
 20
4.043600
  0
VERTEX
  8
0
  6
CONTINUOUS
 10
4.514400
 20
3.920840
  0
VERTEX
  8
0
  6
CONTINUOUS
 10
3.775640
 20
3.937120
  0
VERTEX
  8
0
  6
CONTINUOUS
 10
3.804680
 20
4.059880
  0
SEQEND
  8
0
  0
SOLID
  8
0
 62
    15
 10
3.775640
 20
3.937120
 11
4.514400
 21
3.920840
 12
3.741760
 22
3.825360
 13
4.480520
 23
3.809080
  0
POLYLINE
  8
0
  6
CONTINUOUS
 66
     1
 40
0.000000
 41
0.000000
  0
VERTEX
  8
0
  6
CONTINUOUS
 10
3.775640
 20
3.937120
  0
VERTEX
  8
0
  6
CONTINUOUS
 10
4.514400
 20
3.920840
  0
VERTEX
  8
0
  6
CONTINUOUS
 10
4.480520
 20
3.809080
  0
VERTEX
  8
0
  6
CONTINUOUS
 10
3.741760
 20
3.825360
  0
VERTEX
  8
0
  6
CONTINUOUS
 10
3.775640
 20
3.937120
  0
SEQEND
  8
0
  0
SOLID
  8
0
 62
    15
 10
3.741760
 20
3.825360
 11
4.480520
 21
3.809080
 12
3.703480
 22
3.723280
 13
4.442680
 23
3.707440
  0
POLYLINE
  8
0
  6
CONTINUOUS
 66
     1
 40
0.000000
 41
0.000000
  0
VERTEX
  8
0
  6
CONTINUOUS
 10
3.741760
 20
3.825360
  0
VERTEX
  8
0
  6
CONTINUOUS
 10
4.480520
 20
3.809080
  0
VERTEX
  8
0
  6
CONTINUOUS
 10
4.442680
 20
3.707440
  0
VERTEX
  8
0
  6
CONTINUOUS
 10
3.703480
 20
3.723280
  0
VERTEX
  8
0
  6
CONTINUOUS
 10
3.741760
 20
3.825360
  0
SEQEND
  8
0
  0
SOLID
  8
0
 62
    15
 10
3.703480
 20
3.723280
 11
4.442680
 21
3.707440
 12
3.662120
 22
3.630440
 13
4.401320
 23
3.614600
  0
POLYLINE
  8
0
  6
CONTINUOUS
 66
     1
 40
0.000000
 41
0.000000
  0
VERTEX
  8
0
  6
CONTINUOUS
 10
3.703480
 20
3.723280
  0
VERTEX
  8
0
  6
CONTINUOUS
 10
4.442680
 20
3.707440
  0
VERTEX
  8
0
  6
CONTINUOUS
 10
4.401320
 20
3.614600
  0
VERTEX
  8
0
  6
CONTINUOUS
 10
3.662120
 20
3.630440
  0
VERTEX
  8
0
  6
CONTINUOUS
 10
3.703480
 20
3.723280
  0
SEQEND
  8
0
  0
SOLID
  8
0
 62
    15
 10
3.662120
 20
3.630440
 11
4.401320
 21
3.614600
 12
3.617680
 22
3.546400
 13
4.356880
 23
3.530120
  0
POLYLINE
  8
0
  6
CONTINUOUS
 66
     1
 40
0.000000
 41
0.000000
  0
VERTEX
  8
0
  6
CONTINUOUS
 10
3.662120
 20
3.630440
  0
VERTEX
  8
0
  6
CONTINUOUS
 10
4.401320
 20
3.614600
  0
VERTEX
  8
0
  6
CONTINUOUS
 10
4.356880
 20
3.530120
  0
VERTEX
  8
0
  6
CONTINUOUS
 10
3.617680
 20
3.546400
  0
VERTEX
  8
0
  6
CONTINUOUS
 10
3.662120
 20
3.630440
  0
SEQEND
  8
0
  0
SOLID
  8
0
 62
    15
 10
3.617680
 20
3.546400
 11
4.356880
 21
3.530120
 12
3.571040
 22
3.469400
 13
4.310240
 23
3.453560
  0
POLYLINE
  8
0
  6
CONTINUOUS
 66
     1
 40
0.000000
 41
0.000000
  0
VERTEX
  8
0
  6
CONTINUOUS
 10
3.617680
 20
3.546400
  0
VERTEX
  8
0
  6
CONTINUOUS
 10
4.356880
 20
3.530120
  0
VERTEX
  8
0
  6
CONTINUOUS
 10
4.310240
 20
3.453560
  0
VERTEX
  8
0
  6
CONTINUOUS
 10
3.571040
 20
3.469400
  0
VERTEX
  8
0
  6
CONTINUOUS
 10
3.617680
 20
3.546400
  0
SEQEND
  8
0
  0
SOLID
  8
0
 62
    15
 10
3.571040
 20
3.469400
 11
4.310240
 21
3.453560
 12
3.523080
 22
3.399440
 13
4.261840
 23
3.383600
  0
POLYLINE
  8
0
  6
CONTINUOUS
 66
     1
 40
0.000000
 41
0.000000
  0
VERTEX
  8
0
  6
CONTINUOUS
 10
3.571040
 20
3.469400
  0
VERTEX
  8
0
  6
CONTINUOUS
 10
4.310240
 20
3.453560
  0
VERTEX
  8
0
  6
CONTINUOUS
 10
4.261840
 20
3.383600
  0
VERTEX
  8
0
  6
CONTINUOUS
 10
3.523080
 20
3.399440
  0
VERTEX
  8
0
  6
CONTINUOUS
 10
3.571040
 20
3.469400
  0
SEQEND
  8
0
  0
SOLID
  8
0
 62
    15
 10
3.523080
 20
3.399440
 11
4.261840
 21
3.383600
 12
3.473360
 22
3.335640
 13
4.212560
 23
3.319360
  0
POLYLINE
  8
0
  6
CONTINUOUS
 66
     1
 40
0.000000
 41
0.000000
  0
VERTEX
  8
0
  6
CONTINUOUS
 10
3.523080
 20
3.399440
  0
VERTEX
  8
0
  6
CONTINUOUS
 10
4.261840
 20
3.383600
  0
VERTEX
  8
0
  6
CONTINUOUS
 10
4.212560
 20
3.319360
  0
VERTEX
  8
0
  6
CONTINUOUS
 10
3.473360
 20
3.335640
  0
VERTEX
  8
0
  6
CONTINUOUS
 10
3.523080
 20
3.399440
  0
SEQEND
  8
0
  0
SOLID
  8
0
 62
    15
 10
3.473360
 20
3.335640
 11
4.212560
 21
3.319360
 12
3.373480
 22
3.222120
 13
4.112680
 23
3.205840
  0
POLYLINE
  8
0
  6
CONTINUOUS
 66
     1
 40
0.000000
 41
0.000000
  0
VERTEX
  8
0
  6
CONTINUOUS
 10
3.473360
 20
3.335640
  0
VERTEX
  8
0
  6
CONTINUOUS
 10
4.212560
 20
3.319360
  0
VERTEX
  8
0
  6
CONTINUOUS
 10
4.112680
 20
3.205840
  0
VERTEX
  8
0
  6
CONTINUOUS
 10
3.373480
 20
3.222120
  0
VERTEX
  8
0
  6
CONTINUOUS
 10
3.473360
 20
3.335640
  0
SEQEND
  8
0
  0
SOLID
  8
0
 62
    15
 10
3.373480
 20
3.222120
 11
4.112680
 21
3.205840
 12
3.276240
 22
3.122680
 13
4.015440
 23
3.106400
  0
POLYLINE
  8
0
  6
CONTINUOUS
 66
     1
 40
0.000000
 41
0.000000
  0
VERTEX
  8
0
  6
CONTINUOUS
 10
3.373480
 20
3.222120
  0
VERTEX
  8
0
  6
CONTINUOUS
 10
4.112680
 20
3.205840
  0
VERTEX
  8
0
  6
CONTINUOUS
 10
4.015440
 20
3.106400
  0
VERTEX
  8
0
  6
CONTINUOUS
 10
3.276240
 20
3.122680
  0
VERTEX
  8
0
  6
CONTINUOUS
 10
3.373480
 20
3.222120
  0
SEQEND
  8
0
  0
SOLID
  8
0
 62
    15
 10
3.276240
 20
3.122680
 11
4.015440
 21
3.106400
 12
3.280640
 22
3.109920
 13
4.019400
 23
3.094080
  0
POLYLINE
  8
0
  6
CONTINUOUS
 66
     1
 40
0.000000
 41
0.000000
  0
VERTEX
  8
0
  6
CONTINUOUS
 10
3.276240
 20
3.122680
  0
VERTEX
  8
0
  6
CONTINUOUS
 10
4.015440
 20
3.106400
  0
VERTEX
  8
0
  6
CONTINUOUS
 10
4.019400
 20
3.094080
  0
VERTEX
  8
0
  6
CONTINUOUS
 10
3.280640
 20
3.109920
  0
VERTEX
  8
0
  6
CONTINUOUS
 10
3.276240
 20
3.122680
  0
SEQEND
  8
0
  0
SOLID
  8
0
 62
    15
 10
3.280640
 20
3.109920
 11
4.019400
 21
3.094080
 12
3.356760
 22
3.073400
 13
4.095960
 23
3.057120
  0
POLYLINE
  8
0
  6
CONTINUOUS
 66
     1
 40
0.000000
 41
0.000000
  0
VERTEX
  8
0
  6
CONTINUOUS
 10
3.280640
 20
3.109920
  0
VERTEX
  8
0
  6
CONTINUOUS
 10
4.019400
 20
3.094080
  0
VERTEX
  8
0
  6
CONTINUOUS
 10
4.095960
 20
3.057120
  0
VERTEX
  8
0
  6
CONTINUOUS
 10
3.356760
 20
3.073400
  0
VERTEX
  8
0
  6
CONTINUOUS
 10
3.280640
 20
3.109920
  0
SEQEND
  8
0
  0
SOLID
  8
0
 62
    15
 10
3.356760
 20
3.073400
 11
4.095960
 21
3.057120
 12
3.420560
 22
3.032920
 13
4.159760
 23
3.017080
  0
POLYLINE
  8
0
  6
CONTINUOUS
 66
     1
 40
0.000000
 41
0.000000
  0
VERTEX
  8
0
  6
CONTINUOUS
 10
3.356760
 20
3.073400
  0
VERTEX
  8
0
  6
CONTINUOUS
 10
4.095960
 20
3.057120
  0
VERTEX
  8
0
  6
CONTINUOUS
 10
4.159760
 20
3.017080
  0
VERTEX
  8
0
  6
CONTINUOUS
 10
3.420560
 20
3.032920
  0
VERTEX
  8
0
  6
CONTINUOUS
 10
3.356760
 20
3.073400
  0
SEQEND
  8
0
  0
SOLID
  8
0
 62
    15
 10
3.420560
 20
3.032920
 11
4.159760
 21
3.017080
 12
3.472480
 22
2.989800
 13
4.211680
 23
2.973960
  0
POLYLINE
  8
0
  6
CONTINUOUS
 66
     1
 40
0.000000
 41
0.000000
  0
VERTEX
  8
0
  6
CONTINUOUS
 10
3.420560
 20
3.032920
  0
VERTEX
  8
0
  6
CONTINUOUS
 10
4.159760
 20
3.017080
  0
VERTEX
  8
0
  6
CONTINUOUS
 10
4.211680
 20
2.973960
  0
VERTEX
  8
0
  6
CONTINUOUS
 10
3.472480
 20
2.989800
  0
VERTEX
  8
0
  6
CONTINUOUS
 10
3.420560
 20
3.032920
  0
SEQEND
  8
0
  0
SOLID
  8
0
 62
    15
 10
3.472480
 20
2.989800
 11
4.211680
 21
2.973960
 12
3.512960
 22
2.944480
 13
4.252160
 23
2.928200
  0
POLYLINE
  8
0
  6
CONTINUOUS
 66
     1
 40
0.000000
 41
0.000000
  0
VERTEX
  8
0
  6
CONTINUOUS
 10
3.472480
 20
2.989800
  0
VERTEX
  8
0
  6
CONTINUOUS
 10
4.211680
 20
2.973960
  0
VERTEX
  8
0
  6
CONTINUOUS
 10
4.252160
 20
2.928200
  0
VERTEX
  8
0
  6
CONTINUOUS
 10
3.512960
 20
2.944480
  0
VERTEX
  8
0
  6
CONTINUOUS
 10
3.472480
 20
2.989800
  0
SEQEND
  8
0
  0
SOLID
  8
0
 62
    15
 10
3.512960
 20
2.944480
 11
4.252160
 21
2.928200
 12
3.542880
 22
2.897400
 13
4.282080
 23
2.881560
  0
POLYLINE
  8
0
  6
CONTINUOUS
 66
     1
 40
0.000000
 41
0.000000
  0
VERTEX
  8
0
  6
CONTINUOUS
 10
3.512960
 20
2.944480
  0
VERTEX
  8
0
  6
CONTINUOUS
 10
4.252160
 20
2.928200
  0
VERTEX
  8
0
  6
CONTINUOUS
 10
4.282080
 20
2.881560
  0
VERTEX
  8
0
  6
CONTINUOUS
 10
3.542880
 20
2.897400
  0
VERTEX
  8
0
  6
CONTINUOUS
 10
3.512960
 20
2.944480
  0
SEQEND
  8
0
  0
SOLID
  8
0
 62
    15
 10
3.542880
 20
2.897400
 11
4.282080
 21
2.881560
 12
3.563560
 22
2.849440
 13
4.302320
 23
2.833160
  0
POLYLINE
  8
0
  6
CONTINUOUS
 66
     1
 40
0.000000
 41
0.000000
  0
VERTEX
  8
0
  6
CONTINUOUS
 10
3.542880
 20
2.897400
  0
VERTEX
  8
0
  6
CONTINUOUS
 10
4.282080
 20
2.881560
  0
VERTEX
  8
0
  6
CONTINUOUS
 10
4.302320
 20
2.833160
  0
VERTEX
  8
0
  6
CONTINUOUS
 10
3.563560
 20
2.849440
  0
VERTEX
  8
0
  6
CONTINUOUS
 10
3.542880
 20
2.897400
  0
SEQEND
  8
0
  0
SOLID
  8
0
 62
    15
 10
3.563560
 20
2.849440
 11
4.302320
 21
2.833160
 12
3.574560
 22
2.801040
 13
4.313760
 23
2.784760
  0
POLYLINE
  8
0
  6
CONTINUOUS
 66
     1
 40
0.000000
 41
0.000000
  0
VERTEX
  8
0
  6
CONTINUOUS
 10
3.563560
 20
2.849440
  0
VERTEX
  8
0
  6
CONTINUOUS
 10
4.302320
 20
2.833160
  0
VERTEX
  8
0
  6
CONTINUOUS
 10
4.313760
 20
2.784760
  0
VERTEX
  8
0
  6
CONTINUOUS
 10
3.574560
 20
2.801040
  0
VERTEX
  8
0
  6
CONTINUOUS
 10
3.563560
 20
2.849440
  0
SEQEND
  8
0
  0
SOLID
  8
0
 62
    15
 10
3.574560
 20
2.801040
 11
4.313760
 21
2.784760
 12
3.578080
 22
2.752640
 13
4.317280
 23
2.736800
  0
POLYLINE
  8
0
  6
CONTINUOUS
 66
     1
 40
0.000000
 41
0.000000
  0
VERTEX
  8
0
  6
CONTINUOUS
 10
3.574560
 20
2.801040
  0
VERTEX
  8
0
  6
CONTINUOUS
 10
4.313760
 20
2.784760
  0
VERTEX
  8
0
  6
CONTINUOUS
 10
4.317280
 20
2.736800
  0
VERTEX
  8
0
  6
CONTINUOUS
 10
3.578080
 20
2.752640
  0
VERTEX
  8
0
  6
CONTINUOUS
 10
3.574560
 20
2.801040
  0
SEQEND
  8
0
  0
SOLID
  8
0
 62
    15
 10
3.578080
 20
2.752640
 11
4.317280
 21
2.736800
 12
3.574120
 22
2.705560
 13
4.313320
 23
2.689280
  0
POLYLINE
  8
0
  6
CONTINUOUS
 66
     1
 40
0.000000
 41
0.000000
  0
VERTEX
  8
0
  6
CONTINUOUS
 10
3.578080
 20
2.752640
  0
VERTEX
  8
0
  6
CONTINUOUS
 10
4.317280
 20
2.736800
  0
VERTEX
  8
0
  6
CONTINUOUS
 10
4.313320
 20
2.689280
  0
VERTEX
  8
0
  6
CONTINUOUS
 10
3.574120
 20
2.705560
  0
VERTEX
  8
0
  6
CONTINUOUS
 10
3.578080
 20
2.752640
  0
SEQEND
  8
0
  0
SOLID
  8
0
 62
    15
 10
3.574120
 20
2.705560
 11
4.313320
 21
2.689280
 12
3.563560
 22
2.659800
 13
4.302320
 23
2.643520
  0
POLYLINE
  8
0
  6
CONTINUOUS
 66
     1
 40
0.000000
 41
0.000000
  0
VERTEX
  8
0
  6
CONTINUOUS
 10
3.574120
 20
2.705560
  0
VERTEX
  8
0
  6
CONTINUOUS
 10
4.313320
 20
2.689280
  0
VERTEX
  8
0
  6
CONTINUOUS
 10
4.302320
 20
2.643520
  0
VERTEX
  8
0
  6
CONTINUOUS
 10
3.563560
 20
2.659800
  0
VERTEX
  8
0
  6
CONTINUOUS
 10
3.574120
 20
2.705560
  0
SEQEND
  8
0
  0
SOLID
  8
0
 62
    15
 10
3.563560
 20
2.659800
 11
4.302320
 21
2.643520
 12
3.547280
 22
2.615800
 13
4.286040
 23
2.599960
  0
POLYLINE
  8
0
  6
CONTINUOUS
 66
     1
 40
0.000000
 41
0.000000
  0
VERTEX
  8
0
  6
CONTINUOUS
 10
3.563560
 20
2.659800
  0
VERTEX
  8
0
  6
CONTINUOUS
 10
4.302320
 20
2.643520
  0
VERTEX
  8
0
  6
CONTINUOUS
 10
4.286040
 20
2.599960
  0
VERTEX
  8
0
  6
CONTINUOUS
 10
3.547280
 20
2.615800
  0
VERTEX
  8
0
  6
CONTINUOUS
 10
3.563560
 20
2.659800
  0
SEQEND
  8
0
  0
SOLID
  8
0
 62
    15
 10
3.547280
 20
2.615800
 11
4.286040
 21
2.599960
 12
3.525720
 22
2.574880
 13
4.264920
 23
2.559040
  0
POLYLINE
  8
0
  6
CONTINUOUS
 66
     1
 40
0.000000
 41
0.000000
  0
VERTEX
  8
0
  6
CONTINUOUS
 10
3.547280
 20
2.615800
  0
VERTEX
  8
0
  6
CONTINUOUS
 10
4.286040
 20
2.599960
  0
VERTEX
  8
0
  6
CONTINUOUS
 10
4.264920
 20
2.559040
  0
VERTEX
  8
0
  6
CONTINUOUS
 10
3.525720
 20
2.574880
  0
VERTEX
  8
0
  6
CONTINUOUS
 10
3.547280
 20
2.615800
  0
SEQEND
  8
0
  0
SOLID
  8
0
 62
    15
 10
3.525720
 20
2.574880
 11
4.264920
 21
2.559040
 12
3.471160
 22
2.504040
 13
4.209920
 23
2.488200
  0
POLYLINE
  8
0
  6
CONTINUOUS
 66
     1
 40
0.000000
 41
0.000000
  0
VERTEX
  8
0
  6
CONTINUOUS
 10
3.525720
 20
2.574880
  0
VERTEX
  8
0
  6
CONTINUOUS
 10
4.264920
 20
2.559040
  0
VERTEX
  8
0
  6
CONTINUOUS
 10
4.209920
 20
2.488200
  0
VERTEX
  8
0
  6
CONTINUOUS
 10
3.471160
 20
2.504040
  0
VERTEX
  8
0
  6
CONTINUOUS
 10
3.525720
 20
2.574880
  0
SEQEND
  8
0
  0
SOLID
  8
0
 62
    15
 10
3.471160
 20
2.504040
 11
4.209920
 21
2.488200
 12
3.439040
 22
2.475440
 13
4.178240
 23
2.459160
  0
POLYLINE
  8
0
  6
CONTINUOUS
 66
     1
 40
0.000000
 41
0.000000
  0
VERTEX
  8
0
  6
CONTINUOUS
 10
3.471160
 20
2.504040
  0
VERTEX
  8
0
  6
CONTINUOUS
 10
4.209920
 20
2.488200
  0
VERTEX
  8
0
  6
CONTINUOUS
 10
4.178240
 20
2.459160
  0
VERTEX
  8
0
  6
CONTINUOUS
 10
3.439040
 20
2.475440
  0
VERTEX
  8
0
  6
CONTINUOUS
 10
3.471160
 20
2.504040
  0
SEQEND
  8
0
  0
SOLID
  8
0
 62
    15
 10
3.405600
 20
2.451680
 11
4.144360
 21
2.435400
 12
3.348840
 22
2.421760
 13
4.088040
 23
2.405480
  0
POLYLINE
  8
0
  6
CONTINUOUS
 66
     1
 40
0.000000
 41
0.000000
  0
VERTEX
  8
0
  6
CONTINUOUS
 10
3.405600
 20
2.451680
  0
VERTEX
  8
0
  6
CONTINUOUS
 10
4.144360
 20
2.435400
  0
VERTEX
  8
0
  6
CONTINUOUS
 10
4.088040
 20
2.405480
  0
VERTEX
  8
0
  6
CONTINUOUS
 10
3.348840
 20
2.421760
  0
VERTEX
  8
0
  6
CONTINUOUS
 10
3.405600
 20
2.451680
  0
SEQEND
  8
0
  0
SOLID
  8
0
 62
    15
 10
3.439040
 20
2.475440
 11
4.178240
 21
2.459160
 12
3.405600
 22
2.451680
 13
4.144360
 23
2.435400
  0
POLYLINE
  8
0
  6
CONTINUOUS
 66
     1
 40
0.000000
 41
0.000000
  0
VERTEX
  8
0
  6
CONTINUOUS
 10
3.439040
 20
2.475440
  0
VERTEX
  8
0
  6
CONTINUOUS
 10
4.178240
 20
2.459160
  0
VERTEX
  8
0
  6
CONTINUOUS
 10
4.144360
 20
2.435400
  0
VERTEX
  8
0
  6
CONTINUOUS
 10
3.405600
 20
2.451680
  0
VERTEX
  8
0
  6
CONTINUOUS
 10
3.439040
 20
2.475440
  0
SEQEND
  8
0
  0
SOLID
  8
0
 62
    15
 10
3.348840
 20
2.421760
 11
4.088040
 21
2.405480
 12
3.296920
 22
2.399760
 13
4.036120
 23
2.383920
  0
POLYLINE
  8
0
  6
CONTINUOUS
 66
     1
 40
0.000000
 41
0.000000
  0
VERTEX
  8
0
  6
CONTINUOUS
 10
3.348840
 20
2.421760
  0
VERTEX
  8
0
  6
CONTINUOUS
 10
4.088040
 20
2.405480
  0
VERTEX
  8
0
  6
CONTINUOUS
 10
4.036120
 20
2.383920
  0
VERTEX
  8
0
  6
CONTINUOUS
 10
3.296920
 20
2.399760
  0
VERTEX
  8
0
  6
CONTINUOUS
 10
3.348840
 20
2.421760
  0
SEQEND
  8
0
  0
SOLID
  8
0
 62
    15
 10
3.296920
 20
2.399760
 11
4.036120
 21
2.383920
 12
3.250280
 22
2.382160
 13
3.989480
 23
2.365880
  0
POLYLINE
  8
0
  6
CONTINUOUS
 66
     1
 40
0.000000
 41
0.000000
  0
VERTEX
  8
0
  6
CONTINUOUS
 10
3.296920
 20
2.399760
  0
VERTEX
  8
0
  6
CONTINUOUS
 10
4.036120
 20
2.383920
  0
VERTEX
  8
0
  6
CONTINUOUS
 10
3.989480
 20
2.365880
  0
VERTEX
  8
0
  6
CONTINUOUS
 10
3.250280
 20
2.382160
  0
VERTEX
  8
0
  6
CONTINUOUS
 10
3.296920
 20
2.399760
  0
SEQEND
  8
0
  0
SOLID
  8
0
 62
    15
 10
3.210240
 20
2.364560
 11
3.949440
 21
2.348720
 12
3.177680
 22
2.344320
 13
3.916880
 23
2.328040
  0
POLYLINE
  8
0
  6
CONTINUOUS
 66
     1
 40
0.000000
 41
0.000000
  0
VERTEX
  8
0
  6
CONTINUOUS
 10
3.210240
 20
2.364560
  0
VERTEX
  8
0
  6
CONTINUOUS
 10
3.949440
 20
2.348720
  0
VERTEX
  8
0
  6
CONTINUOUS
 10
3.916880
 20
2.328040
  0
VERTEX
  8
0
  6
CONTINUOUS
 10
3.177680
 20
2.344320
  0
VERTEX
  8
0
  6
CONTINUOUS
 10
3.210240
 20
2.364560
  0
SEQEND
  8
0
  0
SOLID
  8
0
 62
    15
 10
3.250280
 20
2.382160
 11
3.989480
 21
2.365880
 12
3.210240
 22
2.364560
 13
3.949440
 23
2.348720
  0
POLYLINE
  8
0
  6
CONTINUOUS
 66
     1
 40
0.000000
 41
0.000000
  0
VERTEX
  8
0
  6
CONTINUOUS
 10
3.250280
 20
2.382160
  0
VERTEX
  8
0
  6
CONTINUOUS
 10
3.989480
 20
2.365880
  0
VERTEX
  8
0
  6
CONTINUOUS
 10
3.949440
 20
2.348720
  0
VERTEX
  8
0
  6
CONTINUOUS
 10
3.210240
 20
2.364560
  0
VERTEX
  8
0
  6
CONTINUOUS
 10
3.250280
 20
2.382160
  0
SEQEND
  8
0
  0
SOLID
  8
0
 62
    15
 10
3.177680
 20
2.344320
 11
3.916880
 21
2.328040
 12
3.153040
 22
2.316160
 13
3.892240
 23
2.300320
  0
POLYLINE
  8
0
  6
CONTINUOUS
 66
     1
 40
0.000000
 41
0.000000
  0
VERTEX
  8
0
  6
CONTINUOUS
 10
3.177680
 20
2.344320
  0
VERTEX
  8
0
  6
CONTINUOUS
 10
3.916880
 20
2.328040
  0
VERTEX
  8
0
  6
CONTINUOUS
 10
3.892240
 20
2.300320
  0
VERTEX
  8
0
  6
CONTINUOUS
 10
3.153040
 20
2.316160
  0
VERTEX
  8
0
  6
CONTINUOUS
 10
3.177680
 20
2.344320
  0
SEQEND
  8
0
  0
SOLID
  8
0
 62
    15
 10
3.153040
 20
2.316160
 11
3.892240
 21
2.300320
 12
3.138080
 22
2.277880
 13
3.876840
 23
2.261600
  0
POLYLINE
  8
0
  6
CONTINUOUS
 66
     1
 40
0.000000
 41
0.000000
  0
VERTEX
  8
0
  6
CONTINUOUS
 10
3.153040
 20
2.316160
  0
VERTEX
  8
0
  6
CONTINUOUS
 10
3.892240
 20
2.300320
  0
VERTEX
  8
0
  6
CONTINUOUS
 10
3.876840
 20
2.261600
  0
VERTEX
  8
0
  6
CONTINUOUS
 10
3.138080
 20
2.277880
  0
VERTEX
  8
0
  6
CONTINUOUS
 10
3.153040
 20
2.316160
  0
SEQEND
  8
0
  0
SOLID
  8
0
 62
    15
 10
3.138080
 20
2.277880
 11
3.876840
 21
2.261600
 12
3.132800
 22
2.224640
 13
3.871560
 23
2.208360
  0
POLYLINE
  8
0
  6
CONTINUOUS
 66
     1
 40
0.000000
 41
0.000000
  0
VERTEX
  8
0
  6
CONTINUOUS
 10
3.138080
 20
2.277880
  0
VERTEX
  8
0
  6
CONTINUOUS
 10
3.876840
 20
2.261600
  0
VERTEX
  8
0
  6
CONTINUOUS
 10
3.871560
 20
2.208360
  0
VERTEX
  8
0
  6
CONTINUOUS
 10
3.132800
 20
2.224640
  0
VERTEX
  8
0
  6
CONTINUOUS
 10
3.138080
 20
2.277880
  0
SEQEND
  8
0
  0
SOLID
  8
0
 62
    15
 10
3.132800
 20
2.224640
 11
3.871560
 21
2.208360
 12
3.132800
 22
2.218480
 13
3.871560
 23
2.202200
  0
POLYLINE
  8
0
  6
CONTINUOUS
 66
     1
 40
0.000000
 41
0.000000
  0
VERTEX
  8
0
  6
CONTINUOUS
 10
3.132800
 20
2.224640
  0
VERTEX
  8
0
  6
CONTINUOUS
 10
3.871560
 20
2.208360
  0
VERTEX
  8
0
  6
CONTINUOUS
 10
3.871560
 20
2.202200
  0
VERTEX
  8
0
  6
CONTINUOUS
 10
3.132800
 20
2.218480
  0
VERTEX
  8
0
  6
CONTINUOUS
 10
3.132800
 20
2.224640
  0
SEQEND
  8
0
  0
SOLID
  8
0
 62
    15
 10
3.132800
 20
2.218480
 11
3.871560
 21
2.202200
 12
3.192200
 22
2.212320
 13
3.931400
 23
2.196480
  0
POLYLINE
  8
0
  6
CONTINUOUS
 66
     1
 40
0.000000
 41
0.000000
  0
VERTEX
  8
0
  6
CONTINUOUS
 10
3.132800
 20
2.218480
  0
VERTEX
  8
0
  6
CONTINUOUS
 10
3.871560
 20
2.202200
  0
VERTEX
  8
0
  6
CONTINUOUS
 10
3.931400
 20
2.196480
  0
VERTEX
  8
0
  6
CONTINUOUS
 10
3.192200
 20
2.212320
  0
VERTEX
  8
0
  6
CONTINUOUS
 10
3.132800
 20
2.218480
  0
SEQEND
  8
0
  0
SOLID
  8
0
 62
    15
 10
3.192200
 20
2.212320
 11
3.931400
 21
2.196480
 12
3.247640
 22
2.195160
 13
3.986400
 23
2.178880
  0
POLYLINE
  8
0
  6
CONTINUOUS
 66
     1
 40
0.000000
 41
0.000000
  0
VERTEX
  8
0
  6
CONTINUOUS
 10
3.192200
 20
2.212320
  0
VERTEX
  8
0
  6
CONTINUOUS
 10
3.931400
 20
2.196480
  0
VERTEX
  8
0
  6
CONTINUOUS
 10
3.986400
 20
2.178880
  0
VERTEX
  8
0
  6
CONTINUOUS
 10
3.247640
 20
2.195160
  0
VERTEX
  8
0
  6
CONTINUOUS
 10
3.192200
 20
2.212320
  0
SEQEND
  8
0
  0
SOLID
  8
0
 62
    15
 10
3.247640
 20
2.195160
 11
3.986400
 21
2.178880
 12
3.297360
 22
2.167440
 13
4.036120
 23
2.151600
  0
POLYLINE
  8
0
  6
CONTINUOUS
 66
     1
 40
0.000000
 41
0.000000
  0
VERTEX
  8
0
  6
CONTINUOUS
 10
3.247640
 20
2.195160
  0
VERTEX
  8
0
  6
CONTINUOUS
 10
3.986400
 20
2.178880
  0
VERTEX
  8
0
  6
CONTINUOUS
 10
4.036120
 20
2.151600
  0
VERTEX
  8
0
  6
CONTINUOUS
 10
3.297360
 20
2.167440
  0
VERTEX
  8
0
  6
CONTINUOUS
 10
3.247640
 20
2.195160
  0
SEQEND
  8
0
  0
SOLID
  8
0
 62
    15
 10
3.297360
 20
2.167440
 11
4.036120
 21
2.151600
 12
3.340040
 22
2.130920
 13
4.079240
 23
2.115080
  0
POLYLINE
  8
0
  6
CONTINUOUS
 66
     1
 40
0.000000
 41
0.000000
  0
VERTEX
  8
0
  6
CONTINUOUS
 10
3.297360
 20
2.167440
  0
VERTEX
  8
0
  6
CONTINUOUS
 10
4.036120
 20
2.151600
  0
VERTEX
  8
0
  6
CONTINUOUS
 10
4.079240
 20
2.115080
  0
VERTEX
  8
0
  6
CONTINUOUS
 10
3.340040
 20
2.130920
  0
VERTEX
  8
0
  6
CONTINUOUS
 10
3.297360
 20
2.167440
  0
SEQEND
  8
0
  0
SOLID
  8
0
 62
    15
 10
3.340040
 20
2.130920
 11
4.079240
 21
2.115080
 12
3.375240
 22
2.086920
 13
4.114440
 23
2.071080
  0
POLYLINE
  8
0
  6
CONTINUOUS
 66
     1
 40
0.000000
 41
0.000000
  0
VERTEX
  8
0
  6
CONTINUOUS
 10
3.340040
 20
2.130920
  0
VERTEX
  8
0
  6
CONTINUOUS
 10
4.079240
 20
2.115080
  0
VERTEX
  8
0
  6
CONTINUOUS
 10
4.114440
 20
2.071080
  0
VERTEX
  8
0
  6
CONTINUOUS
 10
3.375240
 20
2.086920
  0
VERTEX
  8
0
  6
CONTINUOUS
 10
3.340040
 20
2.130920
  0
SEQEND
  8
0
  0
SOLID
  8
0
 62
    15
 10
3.375240
 20
2.086920
 11
4.114440
 21
2.071080
 12
3.401640
 22
2.036320
 13
4.140840
 23
2.020480
  0
POLYLINE
  8
0
  6
CONTINUOUS
 66
     1
 40
0.000000
 41
0.000000
  0
VERTEX
  8
0
  6
CONTINUOUS
 10
3.375240
 20
2.086920
  0
VERTEX
  8
0
  6
CONTINUOUS
 10
4.114440
 20
2.071080
  0
VERTEX
  8
0
  6
CONTINUOUS
 10
4.140840
 20
2.020480
  0
VERTEX
  8
0
  6
CONTINUOUS
 10
3.401640
 20
2.036320
  0
VERTEX
  8
0
  6
CONTINUOUS
 10
3.375240
 20
2.086920
  0
SEQEND
  8
0
  0
SOLID
  8
0
 62
    15
 10
3.401640
 20
2.036320
 11
4.140840
 21
2.020480
 12
3.418360
 22
1.980440
 13
4.157560
 23
1.964600
  0
POLYLINE
  8
0
  6
CONTINUOUS
 66
     1
 40
0.000000
 41
0.000000
  0
VERTEX
  8
0
  6
CONTINUOUS
 10
3.401640
 20
2.036320
  0
VERTEX
  8
0
  6
CONTINUOUS
 10
4.140840
 20
2.020480
  0
VERTEX
  8
0
  6
CONTINUOUS
 10
4.157560
 20
1.964600
  0
VERTEX
  8
0
  6
CONTINUOUS
 10
3.418360
 20
1.980440
  0
VERTEX
  8
0
  6
CONTINUOUS
 10
3.401640
 20
2.036320
  0
SEQEND
  8
0
  0
SOLID
  8
0
 62
    15
 10
3.418360
 20
1.980440
 11
4.157560
 21
1.964600
 12
3.424080
 22
1.920600
 13
4.163280
 23
1.904320
  0
POLYLINE
  8
0
  6
CONTINUOUS
 66
     1
 40
0.000000
 41
0.000000
  0
VERTEX
  8
0
  6
CONTINUOUS
 10
3.418360
 20
1.980440
  0
VERTEX
  8
0
  6
CONTINUOUS
 10
4.157560
 20
1.964600
  0
VERTEX
  8
0
  6
CONTINUOUS
 10
4.163280
 20
1.904320
  0
VERTEX
  8
0
  6
CONTINUOUS
 10
3.424080
 20
1.920600
  0
VERTEX
  8
0
  6
CONTINUOUS
 10
3.418360
 20
1.980440
  0
SEQEND
  8
0
  0
SOLID
  8
0
 62
    15
 10
2.822160
 20
1.918400
 11
3.561360
 21
1.902120
 12
2.745160
 22
1.918400
 13
3.484360
 23
1.902120
  0
POLYLINE
  8
0
  6
CONTINUOUS
 66
     1
 40
0.000000
 41
0.000000
  0
VERTEX
  8
0
  6
CONTINUOUS
 10
2.822160
 20
1.918400
  0
VERTEX
  8
0
  6
CONTINUOUS
 10
3.561360
 20
1.902120
  0
VERTEX
  8
0
  6
CONTINUOUS
 10
3.484360
 20
1.902120
  0
VERTEX
  8
0
  6
CONTINUOUS
 10
2.745160
 20
1.918400
  0
VERTEX
  8
0
  6
CONTINUOUS
 10
2.822160
 20
1.918400
  0
SEQEND
  8
0
  0
SOLID
  8
0
 62
    15
 10
3.417920
 20
1.860320
 11
4.157120
 21
1.844040
 12
3.400760
 22
1.804000
 13
4.139520
 23
1.788160
  0
POLYLINE
  8
0
  6
CONTINUOUS
 66
     1
 40
0.000000
 41
0.000000
  0
VERTEX
  8
0
  6
CONTINUOUS
 10
3.417920
 20
1.860320
  0
VERTEX
  8
0
  6
CONTINUOUS
 10
4.157120
 20
1.844040
  0
VERTEX
  8
0
  6
CONTINUOUS
 10
4.139520
 20
1.788160
  0
VERTEX
  8
0
  6
CONTINUOUS
 10
3.400760
 20
1.804000
  0
VERTEX
  8
0
  6
CONTINUOUS
 10
3.417920
 20
1.860320
  0
SEQEND
  8
0
  0
SOLID
  8
0
 62
    15
 10
3.400760
 20
1.804000
 11
4.139520
 21
1.788160
 12
3.372600
 22
1.753400
 13
4.111800
 23
1.737120
  0
POLYLINE
  8
0
  6
CONTINUOUS
 66
     1
 40
0.000000
 41
0.000000
  0
VERTEX
  8
0
  6
CONTINUOUS
 10
3.400760
 20
1.804000
  0
VERTEX
  8
0
  6
CONTINUOUS
 10
4.139520
 20
1.788160
  0
VERTEX
  8
0
  6
CONTINUOUS
 10
4.111800
 20
1.737120
  0
VERTEX
  8
0
  6
CONTINUOUS
 10
3.372600
 20
1.753400
  0
VERTEX
  8
0
  6
CONTINUOUS
 10
3.400760
 20
1.804000
  0
SEQEND
  8
0
  0
SOLID
  8
0
 62
    15
 10
3.372600
 20
1.753400
 11
4.111800
 21
1.737120
 12
3.336080
 22
1.708520
 13
4.074840
 23
1.692680
  0
POLYLINE
  8
0
  6
CONTINUOUS
 66
     1
 40
0.000000
 41
0.000000
  0
VERTEX
  8
0
  6
CONTINUOUS
 10
3.372600
 20
1.753400
  0
VERTEX
  8
0
  6
CONTINUOUS
 10
4.111800
 20
1.737120
  0
VERTEX
  8
0
  6
CONTINUOUS
 10
4.074840
 20
1.692680
  0
VERTEX
  8
0
  6
CONTINUOUS
 10
3.336080
 20
1.708520
  0
VERTEX
  8
0
  6
CONTINUOUS
 10
3.372600
 20
1.753400
  0
SEQEND
  8
0
  0
SOLID
  8
0
 62
    15
 10
3.291640
 20
1.672000
 11
4.030400
 21
1.655720
 12
3.240600
 22
1.644280
 13
3.979800
 23
1.628000
  0
POLYLINE
  8
0
  6
CONTINUOUS
 66
     1
 40
0.000000
 41
0.000000
  0
VERTEX
  8
0
  6
CONTINUOUS
 10
3.291640
 20
1.672000
  0
VERTEX
  8
0
  6
CONTINUOUS
 10
4.030400
 20
1.655720
  0
VERTEX
  8
0
  6
CONTINUOUS
 10
3.979800
 20
1.628000
  0
VERTEX
  8
0
  6
CONTINUOUS
 10
3.240600
 20
1.644280
  0
VERTEX
  8
0
  6
CONTINUOUS
 10
3.291640
 20
1.672000
  0
SEQEND
  8
0
  0
SOLID
  8
0
 62
    15
 10
3.336080
 20
1.708520
 11
4.074840
 21
1.692680
 12
3.291640
 22
1.672000
 13
4.030400
 23
1.655720
  0
POLYLINE
  8
0
  6
CONTINUOUS
 66
     1
 40
0.000000
 41
0.000000
  0
VERTEX
  8
0
  6
CONTINUOUS
 10
3.336080
 20
1.708520
  0
VERTEX
  8
0
  6
CONTINUOUS
 10
4.074840
 20
1.692680
  0
VERTEX
  8
0
  6
CONTINUOUS
 10
4.030400
 20
1.655720
  0
VERTEX
  8
0
  6
CONTINUOUS
 10
3.291640
 20
1.672000
  0
VERTEX
  8
0
  6
CONTINUOUS
 10
3.336080
 20
1.708520
  0
SEQEND
  8
0
  0
SOLID
  8
0
 62
    15
 10
3.240600
 20
1.644280
 11
3.979800
 21
1.628000
 12
3.184280
 22
1.626680
 13
3.923480
 23
1.610400
  0
POLYLINE
  8
0
  6
CONTINUOUS
 66
     1
 40
0.000000
 41
0.000000
  0
VERTEX
  8
0
  6
CONTINUOUS
 10
3.240600
 20
1.644280
  0
VERTEX
  8
0
  6
CONTINUOUS
 10
3.979800
 20
1.628000
  0
VERTEX
  8
0
  6
CONTINUOUS
 10
3.923480
 20
1.610400
  0
VERTEX
  8
0
  6
CONTINUOUS
 10
3.184280
 20
1.626680
  0
VERTEX
  8
0
  6
CONTINUOUS
 10
3.240600
 20
1.644280
  0
SEQEND
  8
0
  0
SOLID
  8
0
 62
    15
 10
3.184280
 20
1.626680
 11
3.923480
 21
1.610400
 12
3.124440
 22
1.620520
 13
3.863200
 23
1.604240
  0
POLYLINE
  8
0
  6
CONTINUOUS
 66
     1
 40
0.000000
 41
0.000000
  0
VERTEX
  8
0
  6
CONTINUOUS
 10
3.184280
 20
1.626680
  0
VERTEX
  8
0
  6
CONTINUOUS
 10
3.923480
 20
1.610400
  0
VERTEX
  8
0
  6
CONTINUOUS
 10
3.863200
 20
1.604240
  0
VERTEX
  8
0
  6
CONTINUOUS
 10
3.124440
 20
1.620520
  0
VERTEX
  8
0
  6
CONTINUOUS
 10
3.184280
 20
1.626680
  0
SEQEND
  8
0
  0
SOLID
  8
0
 62
    15
 10
2.824360
 20
1.920600
 11
3.563560
 21
1.904320
 12
2.822160
 22
1.918400
 13
3.561360
 23
1.902120
  0
POLYLINE
  8
0
  6
CONTINUOUS
 66
     1
 40
0.000000
 41
0.000000
  0
VERTEX
  8
0
  6
CONTINUOUS
 10
2.824360
 20
1.920600
  0
VERTEX
  8
0
  6
CONTINUOUS
 10
3.563560
 20
1.904320
  0
VERTEX
  8
0
  6
CONTINUOUS
 10
3.561360
 20
1.902120
  0
VERTEX
  8
0
  6
CONTINUOUS
 10
2.822160
 20
1.918400
  0
VERTEX
  8
0
  6
CONTINUOUS
 10
2.824360
 20
1.920600
  0
SEQEND
  8
0
  0
SOLID
  8
0
 62
    15
 10
3.424080
 20
1.920600
 11
4.163280
 21
1.904320
 12
3.417920
 22
1.860320
 13
4.157120
 23
1.844040
  0
POLYLINE
  8
0
  6
CONTINUOUS
 66
     1
 40
0.000000
 41
0.000000
  0
VERTEX
  8
0
  6
CONTINUOUS
 10
3.424080
 20
1.920600
  0
VERTEX
  8
0
  6
CONTINUOUS
 10
4.163280
 20
1.904320
  0
VERTEX
  8
0
  6
CONTINUOUS
 10
4.157120
 20
1.844040
  0
VERTEX
  8
0
  6
CONTINUOUS
 10
3.417920
 20
1.860320
  0
VERTEX
  8
0
  6
CONTINUOUS
 10
3.424080
 20
1.920600
  0
SEQEND
  8
0
  0
SOLID
  8
0
 62
    15
 10
2.745160
 20
1.918400
 11
3.484360
 21
1.902120
 12
2.736800
 22
1.916200
 13
3.476000
 23
1.900360
  0
POLYLINE
  8
0
  6
CONTINUOUS
 66
     1
 40
0.000000
 41
0.000000
  0
VERTEX
  8
0
  6
CONTINUOUS
 10
2.745160
 20
1.918400
  0
VERTEX
  8
0
  6
CONTINUOUS
 10
3.484360
 20
1.902120
  0
VERTEX
  8
0
  6
CONTINUOUS
 10
3.476000
 20
1.900360
  0
VERTEX
  8
0
  6
CONTINUOUS
 10
2.736800
 20
1.916200
  0
VERTEX
  8
0
  6
CONTINUOUS
 10
2.745160
 20
1.918400
  0
SEQEND
  8
0
  0
POLYLINE
  8
0
  6
CONTINUOUS
 66
     1
 40
0.000000
 41
0.000000
  0
VERTEX
  8
0
  6
CONTINUOUS
 10
2.822160
 20
7.416200
  0
VERTEX
  8
0
  6
CONTINUOUS
 10
2.828320
 20
7.476480
  0
VERTEX
  8
0
  6
CONTINUOUS
 10
2.845920
 20
7.532800
  0
VERTEX
  8
0
  6
CONTINUOUS
 10
2.873640
 20
7.583400
  0
VERTEX
  8
0
  6
CONTINUOUS
 10
2.910600
 20
7.627840
  0
VERTEX
  8
0
  6
CONTINUOUS
 10
2.955040
 20
7.664800
  0
VERTEX
  8
0
  6
CONTINUOUS
 10
3.005640
 20
7.692520
  0
VERTEX
  8
0
  6
CONTINUOUS
 10
3.061960
 20
7.710120
  0
VERTEX
  8
0
  6
CONTINUOUS
 10
3.122240
 20
7.716280
  0
VERTEX
  8
0
  6
CONTINUOUS
 10
3.182520
 20
7.710120
  0
VERTEX
  8
0
  6
CONTINUOUS
 10
3.238400
 20
7.692520
  0
VERTEX
  8
0
  6
CONTINUOUS
 10
3.289440
 20
7.664800
  0
VERTEX
  8
0
  6
CONTINUOUS
 10
3.333880
 20
7.627840
  0
VERTEX
  8
0
  6
CONTINUOUS
 10
3.370840
 20
7.583400
  0
VERTEX
  8
0
  6
CONTINUOUS
 10
3.398560
 20
7.532800
  0
VERTEX
  8
0
  6
CONTINUOUS
 10
3.416160
 20
7.476480
  0
VERTEX
  8
0
  6
CONTINUOUS
 10
3.422320
 20
7.416200
  0
VERTEX
  8
0
  6
CONTINUOUS
 10
3.416160
 20
7.356360
  0
VERTEX
  8
0
  6
CONTINUOUS
 10
3.399880
 20
7.300480
  0
VERTEX
  8
0
  6
CONTINUOUS
 10
3.373480
 20
7.249880
  0
VERTEX
  8
0
  6
CONTINUOUS
 10
3.338280
 20
7.205440
  0
VERTEX
  8
0
  6
CONTINUOUS
 10
3.295160
 20
7.169360
  0
VERTEX
  8
0
  6
CONTINUOUS
 10
3.245440
 20
7.141640
  0
VERTEX
  8
0
  6
CONTINUOUS
 10
3.190440
 20
7.124480
  0
VERTEX
  8
0
  6
CONTINUOUS
 10
3.130600
 20
7.118320
  0
VERTEX
  8
0
  6
CONTINUOUS
 10
3.135880
 20
7.058920
  0
VERTEX
  8
0
  6
CONTINUOUS
 10
3.151280
 20
7.020200
  0
VERTEX
  8
0
  6
CONTINUOUS
 10
3.175480
 20
6.992920
  0
VERTEX
  8
0
  6
CONTINUOUS
 10
3.208480
 20
6.972240
  0
VERTEX
  8
0
  6
CONTINUOUS
 10
3.248520
 20
6.954640
  0
VERTEX
  8
0
  6
CONTINUOUS
 10
3.294720
 20
6.937040
  0
VERTEX
  8
0
  6
CONTINUOUS
 10
3.346640
 20
6.915040
  0
VERTEX
  8
0
  6
CONTINUOUS
 10
3.403400
 20
6.885120
  0
VERTEX
  8
0
  6
CONTINUOUS
 10
3.437280
 20
6.861360
  0
VERTEX
  8
0
  6
CONTINUOUS
 10
3.468960
 20
6.832760
  0
VERTEX
  8
0
  6
CONTINUOUS
 10
3.523520
 20
6.761480
  0
VERTEX
  8
0
  6
CONTINUOUS
 10
3.545080
 20
6.721000
  0
VERTEX
  8
0
  6
CONTINUOUS
 10
3.561360
 20
6.677000
  0
VERTEX
  8
0
  6
CONTINUOUS
 10
3.571920
 20
6.631240
  0
VERTEX
  8
0
  6
CONTINUOUS
 10
3.575880
 20
6.584160
  0
VERTEX
  8
0
  6
CONTINUOUS
 10
3.572800
 20
6.535760
  0
VERTEX
  8
0
  6
CONTINUOUS
 10
3.561360
 20
6.487360
  0
VERTEX
  8
0
  6
CONTINUOUS
 10
3.541120
 20
6.439400
  0
VERTEX
  8
0
  6
CONTINUOUS
 10
3.510760
 20
6.392320
  0
VERTEX
  8
0
  6
CONTINUOUS
 10
3.470280
 20
6.347000
  0
VERTEX
  8
0
  6
CONTINUOUS
 10
3.418800
 20
6.303880
  0
VERTEX
  8
0
  6
CONTINUOUS
 10
3.355000
 20
6.263400
  0
VERTEX
  8
0
  6
CONTINUOUS
 10
3.278440
 20
6.226880
  0
VERTEX
  8
0
  6
CONTINUOUS
 10
3.274480
 20
6.214120
  0
VERTEX
  8
0
  6
CONTINUOUS
 10
3.371720
 20
6.114680
  0
VERTEX
  8
0
  6
CONTINUOUS
 10
3.471600
 20
6.001160
  0
VERTEX
  8
0
  6
CONTINUOUS
 10
3.520880
 20
5.937360
  0
VERTEX
  8
0
  6
CONTINUOUS
 10
3.569280
 20
5.867400
  0
VERTEX
  8
0
  6
CONTINUOUS
 10
3.615920
 20
5.790400
  0
VERTEX
  8
0
  6
CONTINUOUS
 10
3.660360
 20
5.705920
  0
VERTEX
  8
0
  6
CONTINUOUS
 10
3.701720
 20
5.613520
  0
VERTEX
  8
0
  6
CONTINUOUS
 10
3.739560
 20
5.511440
  0
VERTEX
  8
0
  6
CONTINUOUS
 10
3.773440
 20
5.399680
  0
VERTEX
  8
0
  6
CONTINUOUS
 10
3.802920
 20
5.276920
  0
VERTEX
  8
0
  6
CONTINUOUS
 10
3.826680
 20
5.142720
  0
VERTEX
  8
0
  6
CONTINUOUS
 10
3.845160
 20
4.996200
  0
VERTEX
  8
0
  6
CONTINUOUS
 10
3.857040
 20
4.836040
  0
VERTEX
  8
0
  6
CONTINUOUS
 10
3.861880
 20
4.662240
  0
VERTEX
  8
0
  6
CONTINUOUS
 10
3.863640
 20
4.674560
  0
VERTEX
  8
0
  6
CONTINUOUS
 10
3.858800
 20
4.500760
  0
VERTEX
  8
0
  6
CONTINUOUS
 10
3.846920
 20
4.340600
  0
VERTEX
  8
0
  6
CONTINUOUS
 10
3.828880
 20
4.194080
  0
VERTEX
  8
0
  6
CONTINUOUS
 10
3.804680
 20
4.059880
  0
VERTEX
  8
0
  6
CONTINUOUS
 10
3.775640
 20
3.937120
  0
VERTEX
  8
0
  6
CONTINUOUS
 10
3.741760
 20
3.825360
  0
VERTEX
  8
0
  6
CONTINUOUS
 10
3.703480
 20
3.723280
  0
VERTEX
  8
0
  6
CONTINUOUS
 10
3.662120
 20
3.630440
  0
VERTEX
  8
0
  6
CONTINUOUS
 10
3.617680
 20
3.546400
  0
VERTEX
  8
0
  6
CONTINUOUS
 10
3.571040
 20
3.469400
  0
VERTEX
  8
0
  6
CONTINUOUS
 10
3.523080
 20
3.399440
  0
VERTEX
  8
0
  6
CONTINUOUS
 10
3.473360
 20
3.335640
  0
VERTEX
  8
0
  6
CONTINUOUS
 10
3.373480
 20
3.222120
  0
VERTEX
  8
0
  6
CONTINUOUS
 10
3.276240
 20
3.122680
  0
VERTEX
  8
0
  6
CONTINUOUS
 10
3.280640
 20
3.109920
  0
VERTEX
  8
0
  6
CONTINUOUS
 10
3.356760
 20
3.073400
  0
VERTEX
  8
0
  6
CONTINUOUS
 10
3.420560
 20
3.032920
  0
VERTEX
  8
0
  6
CONTINUOUS
 10
3.472480
 20
2.989800
  0
VERTEX
  8
0
  6
CONTINUOUS
 10
3.512960
 20
2.944480
  0
VERTEX
  8
0
  6
CONTINUOUS
 10
3.542880
 20
2.897400
  0
VERTEX
  8
0
  6
CONTINUOUS
 10
3.563560
 20
2.849440
  0
VERTEX
  8
0
  6
CONTINUOUS
 10
3.574560
 20
2.801040
  0
VERTEX
  8
0
  6
CONTINUOUS
 10
3.578080
 20
2.752640
  0
VERTEX
  8
0
  6
CONTINUOUS
 10
3.574120
 20
2.705560
  0
VERTEX
  8
0
  6
CONTINUOUS
 10
3.563560
 20
2.659800
  0
VERTEX
  8
0
  6
CONTINUOUS
 10
3.547280
 20
2.615800
  0
VERTEX
  8
0
  6
CONTINUOUS
 10
3.525720
 20
2.574880
  0
VERTEX
  8
0
  6
CONTINUOUS
 10
3.471160
 20
2.504040
  0
VERTEX
  8
0
  6
CONTINUOUS
 10
3.439040
 20
2.475440
  0
VERTEX
  8
0
  6
CONTINUOUS
 10
3.405600
 20
2.451680
  0
VERTEX
  8
0
  6
CONTINUOUS
 10
3.348840
 20
2.421760
  0
VERTEX
  8
0
  6
CONTINUOUS
 10
3.296920
 20
2.399760
  0
VERTEX
  8
0
  6
CONTINUOUS
 10
3.250280
 20
2.382160
  0
VERTEX
  8
0
  6
CONTINUOUS
 10
3.210240
 20
2.364560
  0
VERTEX
  8
0
  6
CONTINUOUS
 10
3.177680
 20
2.344320
  0
VERTEX
  8
0
  6
CONTINUOUS
 10
3.153040
 20
2.316160
  0
VERTEX
  8
0
  6
CONTINUOUS
 10
3.138080
 20
2.277880
  0
VERTEX
  8
0
  6
CONTINUOUS
 10
3.132800
 20
2.218480
  0
VERTEX
  8
0
  6
CONTINUOUS
 10
3.192200
 20
2.212320
  0
VERTEX
  8
0
  6
CONTINUOUS
 10
3.247640
 20
2.195160
  0
VERTEX
  8
0
  6
CONTINUOUS
 10
3.297360
 20
2.167440
  0
VERTEX
  8
0
  6
CONTINUOUS
 10
3.340040
 20
2.130920
  0
VERTEX
  8
0
  6
CONTINUOUS
 10
3.375240
 20
2.086920
  0
VERTEX
  8
0
  6
CONTINUOUS
 10
3.401640
 20
2.036320
  0
VERTEX
  8
0
  6
CONTINUOUS
 10
3.418360
 20
1.980440
  0
VERTEX
  8
0
  6
CONTINUOUS
 10
3.424080
 20
1.920600
  0
VERTEX
  8
0
  6
CONTINUOUS
 10
3.417920
 20
1.860320
  0
VERTEX
  8
0
  6
CONTINUOUS
 10
3.400760
 20
1.804000
  0
VERTEX
  8
0
  6
CONTINUOUS
 10
3.372600
 20
1.753400
  0
VERTEX
  8
0
  6
CONTINUOUS
 10
3.336080
 20
1.708520
  0
VERTEX
  8
0
  6
CONTINUOUS
 10
3.291640
 20
1.672000
  0
VERTEX
  8
0
  6
CONTINUOUS
 10
3.240600
 20
1.644280
  0
VERTEX
  8
0
  6
CONTINUOUS
 10
3.184280
 20
1.626680
  0
VERTEX
  8
0
  6
CONTINUOUS
 10
3.124440
 20
1.620520
  0
VERTEX
  8
0
  6
CONTINUOUS
 10
3.064160
 20
1.626680
  0
VERTEX
  8
0
  6
CONTINUOUS
 10
3.007840
 20
1.644280
  0
VERTEX
  8
0
  6
CONTINUOUS
 10
2.956800
 20
1.672000
  0
VERTEX
  8
0
  6
CONTINUOUS
 10
2.912360
 20
1.708520
  0
VERTEX
  8
0
  6
CONTINUOUS
 10
2.875840
 20
1.753400
  0
VERTEX
  8
0
  6
CONTINUOUS
 10
2.848120
 20
1.804000
  0
VERTEX
  8
0
  6
CONTINUOUS
 10
2.830520
 20
1.860320
  0
VERTEX
  8
0
  6
CONTINUOUS
 10
2.824360
 20
1.920600
  0
VERTEX
  8
0
  6
CONTINUOUS
 10
2.822160
 20
1.918400
  0
VERTEX
  8
0
  6
CONTINUOUS
 10
2.745160
 20
1.918400
  0
VERTEX
  8
0
  6
CONTINUOUS
 10
2.736800
 20
1.916200
  0
VERTEX
  8
0
  6
CONTINUOUS
 10
2.736800
 20
7.403880
  0
VERTEX
  8
0
  6
CONTINUOUS
 10
2.811600
 20
7.403880
  0
VERTEX
  8
0
  6
CONTINUOUS
 10
2.822160
 20
7.416200
  0
SEQEND
  8
0
  0
TEXT
  8
0
 10
3.374360
 20
1.272040
 40
0.138120
  1
BA  656
 41
1.000000
  7
SN0
 71
     0
 72
     5
 11
3.964624
 21
1.272040
  0
TEXT
  8
0
 10
3.144680
 20
1.080200
 40
0.138120
  1
1-1/8" x 6-1/8"
 41
1.000000
  7
SN0
 71
     0
 72
     5
 11
4.193165
 21
1.080200
  0
ENDSEC
  0
EOF
