  0
SECTION
  2
HEADER
  9
$ACADVER
  1
AC1006
  9
$EXTMIN
 10
0.843040
 20
0.946000
  9
$EXTMAX
 10
7.551280
 20
5.830880
  9
$LTSCALE
 40
0.044000
  9
$PDMODE
 70
    35
  9
$PDSIZE
 40
0.035200
  0
ENDSEC
  0
SECTION
  2
TABLES
  0
TABLE
  2
LTYPE
 70
     9
  0
LTYPE
  2
CONTINUOUS
 70
    64
  3
Solid line
 72
    65
 73
     0
 40
0.000000
  0
LTYPE
  2
DASHED
 70
    64
  3
__ __ __ __ __ __ __ __ __ __ __ __ __ __ __
 72
    65
 73
     2
 40
0.000330
 49
0.000220
 49
-0.000110
  0
LTYPE
  2
HIDDEN
 70
    64
  3
 _ _ _ _ _ _ _ _ _ _ _ _ _ _ _ _ _ _ _ _ _ _
 72
    65
 73
     2
 40
0.000165
 49
0.000110
 49
-0.000055
  0
LTYPE
  2
CENTER
 70
    64
  3
____ _ ____ _ ____ _ ____ _ ____ _ ____ _ ____
 72
    65
 73
     4
 40
0.000880
 49
0.000550
 49
-0.000110
 49
0.000110
 49
-0.000110
  0
LTYPE
  2
PHANTOM
 70
    64
  3
_____ _ _ _____ _ _ _____ _ _ _____ _ _ ____
 72
    65
 73
     6
 40
0.001100
 49
0.000550
 49
-0.000110
 49
0.000110
 49
-0.000110
 49
0.000110
 49
-0.000110
  0
LTYPE
  2
DOT
 70
    64
  3
...............................................
 72
    65
 73
     2
 40
0.000110
 49
0.000000
 49
-0.000110
  0
LTYPE
  2
DASHDOT
 70
    64
  3
__ . __ . __ . __ . __ . __ . __ . __ . __ . __
 72
    65
 73
     4
 40
0.000440
 49
0.000220
 49
-0.000110
 49
0.000000
 49
-0.000110
  0
LTYPE
  2
BORDER
 70
    64
  3
__ __ . __ __ . __ __ . __ __ . __ __ . __ __
 72
    65
 73
     6
 40
0.000770
 49
0.000220
 49
-0.000110
 49
0.000220
 49
-0.000110
 49
0.000000
 49
-0.000110
  0
LTYPE
  2
DIVIDE
 70
    64
  3
__ . . __ . . __ . . __ . . __ . . __ . . __
 72
    65
 73
     6
 40
0.000550
 49
0.000220
 49
-0.000110
 49
0.000000
 49
-0.000110
 49
0.000000
 49
-0.000110
  0
LTYPE
  2
DOTDOT
 70
    64
  3
 . .  . .  . .  . .  . .  . . 
 72
    65
 73
     5
 40
0.000242
 49
-0.000110
 49
0.000000
 49
-0.000110
 49
0.000000
 49
-0.000110
  0
ENDTAB
  0
TABLE
  2
STYLE
 70
     2
  0
STYLE
 70
     0
  2
SN0
 40
0.000000
 41
0.000440
 50
0.000000
 71
     0
 42
0.000000
  3
ROMAND
  0
STYLE
 70
    68
  2
SV0
 40
0.000000
 41
0.000440
 50
0.000000
 71
     0
 42
0.000000
  3
ROMAND
  0
ENDTAB
  0
TABLE
  2
LAYER
 70
     3
  0
LAYER
  2
FOREGROUND
 70
    64
 62
     7
  6
CONTINUOUS
  0
LAYER
  2
BACKGROUND
 70
    65
 62
    -7
  6
CONTINUOUS
  0
LAYER
  2
0
 70
    64
 62
     7
  6
CONTINUOUS
  0
ENDTAB
  0
ENDSEC
  0
SECTION
  2
ENTITIES
  0
POLYLINE
  8
FOREGROUND
  6
CONTINUOUS
 66
     1
 40
0.000000
 41
0.000000
  0
VERTEX
  8
FOREGROUND
  6
CONTINUOUS
 10
0.000000
 20
6.776880
  0
VERTEX
  8
FOREGROUND
  6
CONTINUOUS
 10
8.499920
 20
6.776880
  0
VERTEX
  8
FOREGROUND
  6
CONTINUOUS
 10
8.499920
 20
-4.223120
  0
VERTEX
  8
FOREGROUND
  6
CONTINUOUS
 10
0.000000
 20
-4.223120
  0
VERTEX
  8
FOREGROUND
  6
CONTINUOUS
 10
0.000000
 20
6.776880
  0
SEQEND
  8
0
  0
POLYLINE
  8
FOREGROUND
  6
CONTINUOUS
 66
     1
 40
0.000000
 41
0.000000
  0
VERTEX
  8
FOREGROUND
  6
CONTINUOUS
 10
0.000000
 20
6.776880
  0
VERTEX
  8
FOREGROUND
  6
CONTINUOUS
 10
8.499920
 20
6.776880
  0
VERTEX
  8
FOREGROUND
  6
CONTINUOUS
 10
8.499920
 20
-4.223120
  0
VERTEX
  8
FOREGROUND
  6
CONTINUOUS
 10
0.000000
 20
-4.223120
  0
VERTEX
  8
FOREGROUND
  6
CONTINUOUS
 10
0.000000
 20
6.776880
  0
SEQEND
  8
0
  0
POLYLINE
  8
0
  6
CONTINUOUS
 66
     1
 40
0.014080
 41
0.014080
  0
VERTEX
  8
0
  6
CONTINUOUS
 10
2.723600
 20
5.073640
  0
VERTEX
  8
0
  6
CONTINUOUS
 10
2.687080
 20
5.138760
  0
VERTEX
  8
0
  6
CONTINUOUS
 10
2.648800
 20
5.195960
  0
VERTEX
  8
0
  6
CONTINUOUS
 10
2.608760
 20
5.245240
  0
VERTEX
  8
0
  6
CONTINUOUS
 10
2.567840
 20
5.287480
  0
VERTEX
  8
0
  6
CONTINUOUS
 10
2.526040
 20
5.322240
  0
VERTEX
  8
0
  6
CONTINUOUS
 10
2.483800
 20
5.350400
  0
VERTEX
  8
0
  6
CONTINUOUS
 10
2.455200
 20
5.365800
  0
VERTEX
  8
0
  6
CONTINUOUS
 10
2.426600
 20
5.378560
  0
VERTEX
  8
0
  6
CONTINUOUS
 10
2.397560
 20
5.389120
  0
VERTEX
  8
0
  6
CONTINUOUS
 10
2.368960
 20
5.396600
  0
VERTEX
  8
0
  6
CONTINUOUS
 10
2.340360
 20
5.402320
  0
VERTEX
  8
0
  6
CONTINUOUS
 10
2.312200
 20
5.405400
  0
VERTEX
  8
0
  6
CONTINUOUS
 10
2.284040
 20
5.406720
  0
VERTEX
  8
0
  6
CONTINUOUS
 10
2.256320
 20
5.405840
  0
VERTEX
  8
0
  6
CONTINUOUS
 10
2.229040
 20
5.403200
  0
VERTEX
  8
0
  6
CONTINUOUS
 10
2.175800
 20
5.392640
  0
VERTEX
  8
0
  6
CONTINUOUS
 10
2.125200
 20
5.375920
  0
VERTEX
  8
0
  6
CONTINUOUS
 10
2.078120
 20
5.353920
  0
VERTEX
  8
0
  6
CONTINUOUS
 10
2.034120
 20
5.327520
  0
VERTEX
  8
0
  6
CONTINUOUS
 10
1.994960
 20
5.297600
  0
VERTEX
  8
0
  6
CONTINUOUS
 10
1.960640
 20
5.265480
  0
VERTEX
  8
0
  6
CONTINUOUS
 10
1.932040
 20
5.231600
  0
VERTEX
  8
0
  6
CONTINUOUS
 10
1.829960
 20
5.092560
  0
VERTEX
  8
0
  6
CONTINUOUS
 10
1.784200
 20
5.039760
  0
VERTEX
  8
0
  6
CONTINUOUS
 10
1.745480
 20
5.003680
  0
VERTEX
  8
0
  6
CONTINUOUS
 10
1.701480
 20
4.971560
  0
VERTEX
  8
0
  6
CONTINUOUS
 10
1.668920
 20
4.952640
  0
VERTEX
  8
0
  6
CONTINUOUS
 10
1.614360
 20
4.928880
  0
VERTEX
  8
0
  6
CONTINUOUS
 10
1.551440
 20
4.911720
  0
VERTEX
  8
0
  6
CONTINUOUS
 10
1.504360
 20
4.904680
  0
VERTEX
  8
0
  6
CONTINUOUS
 10
1.479280
 20
4.902040
  0
VERTEX
  8
0
  6
CONTINUOUS
 10
1.452880
 20
4.900720
  0
VERTEX
  8
0
  6
CONTINUOUS
 10
1.450680
 20
4.902480
  0
VERTEX
  8
0
  6
CONTINUOUS
 10
1.448920
 20
4.932400
  0
VERTEX
  8
0
  6
CONTINUOUS
 10
1.444520
 20
4.961880
  0
VERTEX
  8
0
  6
CONTINUOUS
 10
1.431760
 20
5.003680
  0
VERTEX
  8
0
  6
CONTINUOUS
 10
1.420320
 20
5.030080
  0
VERTEX
  8
0
  6
CONTINUOUS
 10
1.397880
 20
5.067040
  0
VERTEX
  8
0
  6
CONTINUOUS
 10
1.370600
 20
5.100480
  0
VERTEX
  8
0
  6
CONTINUOUS
 10
1.338920
 20
5.129520
  0
VERTEX
  8
0
  6
CONTINUOUS
 10
1.303280
 20
5.154160
  0
VERTEX
  8
0
  6
CONTINUOUS
 10
1.264560
 20
5.173520
  0
VERTEX
  8
0
  6
CONTINUOUS
 10
1.222760
 20
5.187160
  0
VERTEX
  8
0
  6
CONTINUOUS
 10
1.179200
 20
5.195080
  0
VERTEX
  8
0
  6
CONTINUOUS
 10
1.148840
 20
5.196400
  0
VERTEX
  8
0
  6
CONTINUOUS
 10
1.118480
 20
5.194640
  0
VERTEX
  8
0
  6
CONTINUOUS
 10
1.089440
 20
5.190240
  0
VERTEX
  8
0
  6
CONTINUOUS
 10
1.060840
 20
5.182760
  0
VERTEX
  8
0
  6
CONTINUOUS
 10
1.020360
 20
5.166480
  0
VERTEX
  8
0
  6
CONTINUOUS
 10
0.982960
 20
5.144920
  0
VERTEX
  8
0
  6
CONTINUOUS
 10
0.949080
 20
5.118080
  0
VERTEX
  8
0
  6
CONTINUOUS
 10
0.919600
 20
5.087280
  0
VERTEX
  8
0
  6
CONTINUOUS
 10
0.894520
 20
5.052080
  0
VERTEX
  8
0
  6
CONTINUOUS
 10
0.880440
 20
5.026560
  0
VERTEX
  8
0
  6
CONTINUOUS
 10
0.864600
 20
4.986520
  0
VERTEX
  8
0
  6
CONTINUOUS
 10
0.854480
 20
4.943400
  0
VERTEX
  8
0
  6
CONTINUOUS
 10
0.851400
 20
4.913480
  0
VERTEX
  8
0
  6
CONTINUOUS
 10
0.851400
 20
4.883560
  0
VERTEX
  8
0
  6
CONTINUOUS
 10
0.854480
 20
4.853640
  0
VERTEX
  8
0
  6
CONTINUOUS
 10
0.864600
 20
4.810520
  0
VERTEX
  8
0
  6
CONTINUOUS
 10
0.880440
 20
4.770480
  0
VERTEX
  8
0
  6
CONTINUOUS
 10
0.894520
 20
4.744960
  0
VERTEX
  8
0
  6
CONTINUOUS
 10
0.919600
 20
4.709760
  0
VERTEX
  8
0
  6
CONTINUOUS
 10
0.949080
 20
4.678960
  0
VERTEX
  8
0
  6
CONTINUOUS
 10
0.982960
 20
4.652120
  0
VERTEX
  8
0
  6
CONTINUOUS
 10
1.020360
 20
4.630560
  0
VERTEX
  8
0
  6
CONTINUOUS
 10
1.060840
 20
4.614280
  0
VERTEX
  8
0
  6
CONTINUOUS
 10
1.103960
 20
4.604160
  0
VERTEX
  8
0
  6
CONTINUOUS
 10
1.133880
 20
4.601080
  0
VERTEX
  8
0
  6
CONTINUOUS
 10
1.148840
 20
4.600640
  0
VERTEX
  8
0
  6
CONTINUOUS
 10
1.150600
 20
4.598440
  0
VERTEX
  8
0
  6
CONTINUOUS
 10
1.150600
 20
4.479640
  0
VERTEX
  8
0
  6
CONTINUOUS
 10
7.086200
 20
4.479640
  0
VERTEX
  8
0
  6
CONTINUOUS
 10
7.082240
 20
4.488000
  0
VERTEX
  8
0
  6
CONTINUOUS
 10
7.082240
 20
4.590080
  0
VERTEX
  8
0
  6
CONTINUOUS
 10
7.116560
 20
4.591840
  0
VERTEX
  8
0
  6
CONTINUOUS
 10
7.146480
 20
4.596240
  0
VERTEX
  8
0
  6
CONTINUOUS
 10
7.175080
 20
4.603720
  0
VERTEX
  8
0
  6
CONTINUOUS
 10
7.216000
 20
4.620000
  0
VERTEX
  8
0
  6
CONTINUOUS
 10
7.253400
 20
4.641560
  0
VERTEX
  8
0
  6
CONTINUOUS
 10
7.287720
 20
4.668400
  0
VERTEX
  8
0
  6
CONTINUOUS
 10
7.317200
 20
4.699640
  0
VERTEX
  8
0
  6
CONTINUOUS
 10
7.342720
 20
4.735280
  0
VERTEX
  8
0
  6
CONTINUOUS
 10
7.362520
 20
4.774000
  0
VERTEX
  8
0
  6
CONTINUOUS
 10
7.376600
 20
4.815360
  0
VERTEX
  8
0
  6
CONTINUOUS
 10
7.382760
 20
4.844840
  0
VERTEX
  8
0
  6
CONTINUOUS
 10
7.385840
 20
4.874760
  0
VERTEX
  8
0
  6
CONTINUOUS
 10
7.385840
 20
4.905560
  0
VERTEX
  8
0
  6
CONTINUOUS
 10
7.380120
 20
4.950440
  0
VERTEX
  8
0
  6
CONTINUOUS
 10
7.372640
 20
4.979040
  0
VERTEX
  8
0
  6
CONTINUOUS
 10
7.356360
 20
5.019960
  0
VERTEX
  8
0
  6
CONTINUOUS
 10
7.334800
 20
5.057360
  0
VERTEX
  8
0
  6
CONTINUOUS
 10
7.307960
 20
5.091680
  0
VERTEX
  8
0
  6
CONTINUOUS
 10
7.276720
 20
5.121160
  0
VERTEX
  8
0
  6
CONTINUOUS
 10
7.241080
 20
5.146680
  0
VERTEX
  8
0
  6
CONTINUOUS
 10
7.202360
 20
5.166480
  0
VERTEX
  8
0
  6
CONTINUOUS
 10
7.161000
 20
5.180560
  0
VERTEX
  8
0
  6
CONTINUOUS
 10
7.131520
 20
5.186720
  0
VERTEX
  8
0
  6
CONTINUOUS
 10
7.101600
 20
5.189800
  0
VERTEX
  8
0
  6
CONTINUOUS
 10
7.070800
 20
5.189800
  0
VERTEX
  8
0
  6
CONTINUOUS
 10
7.025920
 20
5.184080
  0
VERTEX
  8
0
  6
CONTINUOUS
 10
6.997320
 20
5.176600
  0
VERTEX
  8
0
  6
CONTINUOUS
 10
6.956400
 20
5.160320
  0
VERTEX
  8
0
  6
CONTINUOUS
 10
6.919000
 20
5.138760
  0
VERTEX
  8
0
  6
CONTINUOUS
 10
6.884680
 20
5.111920
  0
VERTEX
  8
0
  6
CONTINUOUS
 10
6.855200
 20
5.080680
  0
VERTEX
  8
0
  6
CONTINUOUS
 10
6.829680
 20
5.045040
  0
VERTEX
  8
0
  6
CONTINUOUS
 10
6.809880
 20
5.006320
  0
VERTEX
  8
0
  6
CONTINUOUS
 10
6.795800
 20
4.964960
  0
VERTEX
  8
0
  6
CONTINUOUS
 10
6.789640
 20
4.935480
  0
VERTEX
  8
0
  6
CONTINUOUS
 10
6.786560
 20
4.905560
  0
VERTEX
  8
0
  6
CONTINUOUS
 10
6.786120
 20
4.890160
  0
VERTEX
  8
0
  6
CONTINUOUS
 10
6.783920
 20
4.887960
  0
VERTEX
  8
0
  6
CONTINUOUS
 10
6.764560
 20
4.886200
  0
VERTEX
  8
0
  6
CONTINUOUS
 10
6.744760
 20
4.886200
  0
VERTEX
  8
0
  6
CONTINUOUS
 10
6.724520
 20
4.888840
  0
VERTEX
  8
0
  6
CONTINUOUS
 10
6.683600
 20
4.899840
  0
VERTEX
  8
0
  6
CONTINUOUS
 10
6.640920
 20
4.918760
  0
VERTEX
  8
0
  6
CONTINUOUS
 10
6.619360
 20
4.930200
  0
VERTEX
  8
0
  6
CONTINUOUS
 10
6.575360
 20
4.958360
  0
VERTEX
  8
0
  6
CONTINUOUS
 10
6.508480
 20
5.010280
  0
VERTEX
  8
0
  6
CONTINUOUS
 10
6.439840
 20
5.071440
  0
VERTEX
  8
0
  6
CONTINUOUS
 10
6.348320
 20
5.162520
  0
VERTEX
  8
0
  6
CONTINUOUS
 10
6.124360
 20
5.395280
  0
VERTEX
  8
0
  6
CONTINUOUS
 10
6.082120
 20
5.436200
  0
VERTEX
  8
0
  6
CONTINUOUS
 10
6.012600
 20
5.496920
  0
VERTEX
  8
0
  6
CONTINUOUS
 10
5.943960
 20
5.551480
  0
VERTEX
  8
0
  6
CONTINUOUS
 10
5.842320
 20
5.622760
  0
VERTEX
  8
0
  6
CONTINUOUS
 10
5.775440
 20
5.663680
  0
VERTEX
  8
0
  6
CONTINUOUS
 10
5.709880
 20
5.699320
  0
VERTEX
  8
0
  6
CONTINUOUS
 10
5.644760
 20
5.730120
  0
VERTEX
  8
0
  6
CONTINUOUS
 10
5.580080
 20
5.756080
  0
VERTEX
  8
0
  6
CONTINUOUS
 10
5.516720
 20
5.777640
  0
VERTEX
  8
0
  6
CONTINUOUS
 10
5.453800
 20
5.794800
  0
VERTEX
  8
0
  6
CONTINUOUS
 10
5.391760
 20
5.807560
  0
VERTEX
  8
0
  6
CONTINUOUS
 10
5.330160
 20
5.816360
  0
VERTEX
  8
0
  6
CONTINUOUS
 10
5.269880
 20
5.821640
  0
VERTEX
  8
0
  6
CONTINUOUS
 10
5.209600
 20
5.823400
  0
VERTEX
  8
0
  6
CONTINUOUS
 10
5.150640
 20
5.821640
  0
VERTEX
  8
0
  6
CONTINUOUS
 10
5.092120
 20
5.816800
  0
VERTEX
  8
0
  6
CONTINUOUS
 10
5.036240
 20
5.809320
  0
VERTEX
  8
0
  6
CONTINUOUS
 10
4.954840
 20
5.791720
  0
VERTEX
  8
0
  6
CONTINUOUS
 10
4.869920
 20
5.767080
  0
VERTEX
  8
0
  6
CONTINUOUS
 10
4.782360
 20
5.736280
  0
VERTEX
  8
0
  6
CONTINUOUS
 10
4.722520
 20
5.712960
  0
VERTEX
  8
0
  6
CONTINUOUS
 10
4.598440
 20
5.659720
  0
VERTEX
  8
0
  6
CONTINUOUS
 10
4.403520
 20
5.567760
  0
VERTEX
  8
0
  6
CONTINUOUS
 10
4.053720
 20
5.399680
  0
VERTEX
  8
0
  6
CONTINUOUS
 10
3.905000
 20
5.332360
  0
VERTEX
  8
0
  6
CONTINUOUS
 10
3.828880
 20
5.299800
  0
VERTEX
  8
0
  6
CONTINUOUS
 10
3.672680
 20
5.238200
  0
VERTEX
  8
0
  6
CONTINUOUS
 10
3.593040
 20
5.209160
  0
VERTEX
  8
0
  6
CONTINUOUS
 10
3.512080
 20
5.181880
  0
VERTEX
  8
0
  6
CONTINUOUS
 10
3.388440
 20
5.144920
  0
VERTEX
  8
0
  6
CONTINUOUS
 10
3.261720
 20
5.113240
  0
VERTEX
  8
0
  6
CONTINUOUS
 10
3.175920
 20
5.095640
  0
VERTEX
  8
0
  6
CONTINUOUS
 10
3.089240
 20
5.080680
  0
VERTEX
  8
0
  6
CONTINUOUS
 10
3.001240
 20
5.068800
  0
VERTEX
  8
0
  6
CONTINUOUS
 10
2.911920
 20
5.060440
  0
VERTEX
  8
0
  6
CONTINUOUS
 10
2.821280
 20
5.055600
  0
VERTEX
  8
0
  6
CONTINUOUS
 10
2.729760
 20
5.054720
  0
VERTEX
  8
0
  6
CONTINUOUS
 10
2.723600
 20
5.073640
  0
SEQEND
  8
0
  0
SOLID
  8
0
 62
    15
 10
7.462840
 20
2.110240
 11
7.456680
 21
2.838440
 12
7.499360
 22
2.065800
 13
7.493640
 23
2.794000
  0
POLYLINE
  8
0
  6
CONTINUOUS
 66
     1
 40
0.000000
 41
0.000000
  0
VERTEX
  8
0
  6
CONTINUOUS
 10
7.462840
 20
2.110240
  0
VERTEX
  8
0
  6
CONTINUOUS
 10
7.456680
 20
2.838440
  0
VERTEX
  8
0
  6
CONTINUOUS
 10
7.493640
 20
2.794000
  0
VERTEX
  8
0
  6
CONTINUOUS
 10
7.499360
 20
2.065800
  0
VERTEX
  8
0
  6
CONTINUOUS
 10
7.462840
 20
2.110240
  0
SEQEND
  8
0
  0
SOLID
  8
0
 62
    15
 10
3.076920
 20
2.068880
 11
3.070760
 21
2.797080
 12
3.254240
 22
2.089120
 13
3.248080
 23
2.817320
  0
POLYLINE
  8
0
  6
CONTINUOUS
 66
     1
 40
0.000000
 41
0.000000
  0
VERTEX
  8
0
  6
CONTINUOUS
 10
3.076920
 20
2.068880
  0
VERTEX
  8
0
  6
CONTINUOUS
 10
3.070760
 20
2.797080
  0
VERTEX
  8
0
  6
CONTINUOUS
 10
3.248080
 20
2.817320
  0
VERTEX
  8
0
  6
CONTINUOUS
 10
3.254240
 20
2.089120
  0
VERTEX
  8
0
  6
CONTINUOUS
 10
3.076920
 20
2.068880
  0
SEQEND
  8
0
  0
SOLID
  8
0
 62
    15
 10
3.254240
 20
2.089120
 11
3.248080
 21
2.817320
 12
3.426720
 22
2.121680
 13
3.421000
 23
2.849880
  0
POLYLINE
  8
0
  6
CONTINUOUS
 66
     1
 40
0.000000
 41
0.000000
  0
VERTEX
  8
0
  6
CONTINUOUS
 10
3.254240
 20
2.089120
  0
VERTEX
  8
0
  6
CONTINUOUS
 10
3.248080
 20
2.817320
  0
VERTEX
  8
0
  6
CONTINUOUS
 10
3.421000
 20
2.849880
  0
VERTEX
  8
0
  6
CONTINUOUS
 10
3.426720
 20
2.121680
  0
VERTEX
  8
0
  6
CONTINUOUS
 10
3.254240
 20
2.089120
  0
SEQEND
  8
0
  0
SOLID
  8
0
 62
    15
 10
3.426720
 20
2.121680
 11
3.421000
 21
2.849880
 12
3.594800
 22
2.165240
 13
3.588640
 23
2.893440
  0
POLYLINE
  8
0
  6
CONTINUOUS
 66
     1
 40
0.000000
 41
0.000000
  0
VERTEX
  8
0
  6
CONTINUOUS
 10
3.426720
 20
2.121680
  0
VERTEX
  8
0
  6
CONTINUOUS
 10
3.421000
 20
2.849880
  0
VERTEX
  8
0
  6
CONTINUOUS
 10
3.588640
 20
2.893440
  0
VERTEX
  8
0
  6
CONTINUOUS
 10
3.594800
 20
2.165240
  0
VERTEX
  8
0
  6
CONTINUOUS
 10
3.426720
 20
2.121680
  0
SEQEND
  8
0
  0
SOLID
  8
0
 62
    15
 10
3.594800
 20
2.165240
 11
3.588640
 21
2.893440
 12
3.758040
 22
2.217600
 13
3.751880
 23
2.945800
  0
POLYLINE
  8
0
  6
CONTINUOUS
 66
     1
 40
0.000000
 41
0.000000
  0
VERTEX
  8
0
  6
CONTINUOUS
 10
3.594800
 20
2.165240
  0
VERTEX
  8
0
  6
CONTINUOUS
 10
3.588640
 20
2.893440
  0
VERTEX
  8
0
  6
CONTINUOUS
 10
3.751880
 20
2.945800
  0
VERTEX
  8
0
  6
CONTINUOUS
 10
3.758040
 20
2.217600
  0
VERTEX
  8
0
  6
CONTINUOUS
 10
3.594800
 20
2.165240
  0
SEQEND
  8
0
  0
SOLID
  8
0
 62
    15
 10
3.758040
 20
2.217600
 11
3.751880
 21
2.945800
 12
3.916440
 22
2.277000
 13
3.910280
 23
3.004760
  0
POLYLINE
  8
0
  6
CONTINUOUS
 66
     1
 40
0.000000
 41
0.000000
  0
VERTEX
  8
0
  6
CONTINUOUS
 10
3.758040
 20
2.217600
  0
VERTEX
  8
0
  6
CONTINUOUS
 10
3.751880
 20
2.945800
  0
VERTEX
  8
0
  6
CONTINUOUS
 10
3.910280
 20
3.004760
  0
VERTEX
  8
0
  6
CONTINUOUS
 10
3.916440
 20
2.277000
  0
VERTEX
  8
0
  6
CONTINUOUS
 10
3.758040
 20
2.217600
  0
SEQEND
  8
0
  0
SOLID
  8
0
 62
    15
 10
3.916440
 20
2.277000
 11
3.910280
 21
3.004760
 12
4.218280
 22
2.408120
 13
4.212560
 23
3.136320
  0
POLYLINE
  8
0
  6
CONTINUOUS
 66
     1
 40
0.000000
 41
0.000000
  0
VERTEX
  8
0
  6
CONTINUOUS
 10
3.916440
 20
2.277000
  0
VERTEX
  8
0
  6
CONTINUOUS
 10
3.910280
 20
3.004760
  0
VERTEX
  8
0
  6
CONTINUOUS
 10
4.212560
 20
3.136320
  0
VERTEX
  8
0
  6
CONTINUOUS
 10
4.218280
 20
2.408120
  0
VERTEX
  8
0
  6
CONTINUOUS
 10
3.916440
 20
2.277000
  0
SEQEND
  8
0
  0
SOLID
  8
0
 62
    15
 10
4.218280
 20
2.408120
 11
4.212560
 21
3.136320
 12
4.500760
 22
2.543640
 13
4.495040
 23
3.271840
  0
POLYLINE
  8
0
  6
CONTINUOUS
 66
     1
 40
0.000000
 41
0.000000
  0
VERTEX
  8
0
  6
CONTINUOUS
 10
4.218280
 20
2.408120
  0
VERTEX
  8
0
  6
CONTINUOUS
 10
4.212560
 20
3.136320
  0
VERTEX
  8
0
  6
CONTINUOUS
 10
4.495040
 20
3.271840
  0
VERTEX
  8
0
  6
CONTINUOUS
 10
4.500760
 20
2.543640
  0
VERTEX
  8
0
  6
CONTINUOUS
 10
4.218280
 20
2.408120
  0
SEQEND
  8
0
  0
SOLID
  8
0
 62
    15
 10
4.500760
 20
2.543640
 11
4.495040
 21
3.271840
 12
4.634520
 22
2.607880
 13
4.628800
 23
3.336080
  0
POLYLINE
  8
0
  6
CONTINUOUS
 66
     1
 40
0.000000
 41
0.000000
  0
VERTEX
  8
0
  6
CONTINUOUS
 10
4.500760
 20
2.543640
  0
VERTEX
  8
0
  6
CONTINUOUS
 10
4.495040
 20
3.271840
  0
VERTEX
  8
0
  6
CONTINUOUS
 10
4.628800
 20
3.336080
  0
VERTEX
  8
0
  6
CONTINUOUS
 10
4.634520
 20
2.607880
  0
VERTEX
  8
0
  6
CONTINUOUS
 10
4.500760
 20
2.543640
  0
SEQEND
  8
0
  0
SOLID
  8
0
 62
    15
 10
4.634520
 20
2.607880
 11
4.628800
 21
3.336080
 12
4.763440
 22
2.668160
 13
4.757720
 23
3.395920
  0
POLYLINE
  8
0
  6
CONTINUOUS
 66
     1
 40
0.000000
 41
0.000000
  0
VERTEX
  8
0
  6
CONTINUOUS
 10
4.634520
 20
2.607880
  0
VERTEX
  8
0
  6
CONTINUOUS
 10
4.628800
 20
3.336080
  0
VERTEX
  8
0
  6
CONTINUOUS
 10
4.757720
 20
3.395920
  0
VERTEX
  8
0
  6
CONTINUOUS
 10
4.763440
 20
2.668160
  0
VERTEX
  8
0
  6
CONTINUOUS
 10
4.634520
 20
2.607880
  0
SEQEND
  8
0
  0
SOLID
  8
0
 62
    15
 10
4.763440
 20
2.668160
 11
4.757720
 21
3.395920
 12
4.887080
 22
2.720960
 13
4.881360
 23
3.449160
  0
POLYLINE
  8
0
  6
CONTINUOUS
 66
     1
 40
0.000000
 41
0.000000
  0
VERTEX
  8
0
  6
CONTINUOUS
 10
4.763440
 20
2.668160
  0
VERTEX
  8
0
  6
CONTINUOUS
 10
4.757720
 20
3.395920
  0
VERTEX
  8
0
  6
CONTINUOUS
 10
4.881360
 20
3.449160
  0
VERTEX
  8
0
  6
CONTINUOUS
 10
4.887080
 20
2.720960
  0
VERTEX
  8
0
  6
CONTINUOUS
 10
4.763440
 20
2.668160
  0
SEQEND
  8
0
  0
SOLID
  8
0
 62
    15
 10
4.887080
 20
2.720960
 11
4.881360
 21
3.449160
 12
5.005880
 22
2.765840
 13
5.000160
 23
3.494040
  0
POLYLINE
  8
0
  6
CONTINUOUS
 66
     1
 40
0.000000
 41
0.000000
  0
VERTEX
  8
0
  6
CONTINUOUS
 10
4.887080
 20
2.720960
  0
VERTEX
  8
0
  6
CONTINUOUS
 10
4.881360
 20
3.449160
  0
VERTEX
  8
0
  6
CONTINUOUS
 10
5.000160
 20
3.494040
  0
VERTEX
  8
0
  6
CONTINUOUS
 10
5.005880
 20
2.765840
  0
VERTEX
  8
0
  6
CONTINUOUS
 10
4.887080
 20
2.720960
  0
SEQEND
  8
0
  0
SOLID
  8
0
 62
    15
 10
5.005880
 20
2.765840
 11
5.000160
 21
3.494040
 12
5.119400
 22
2.799720
 13
5.113680
 23
3.527920
  0
POLYLINE
  8
0
  6
CONTINUOUS
 66
     1
 40
0.000000
 41
0.000000
  0
VERTEX
  8
0
  6
CONTINUOUS
 10
5.005880
 20
2.765840
  0
VERTEX
  8
0
  6
CONTINUOUS
 10
5.000160
 20
3.494040
  0
VERTEX
  8
0
  6
CONTINUOUS
 10
5.113680
 20
3.527920
  0
VERTEX
  8
0
  6
CONTINUOUS
 10
5.119400
 20
2.799720
  0
VERTEX
  8
0
  6
CONTINUOUS
 10
5.005880
 20
2.765840
  0
SEQEND
  8
0
  0
SOLID
  8
0
 62
    15
 10
5.119400
 20
2.799720
 11
5.113680
 21
3.527920
 12
5.228080
 22
2.821720
 13
5.222360
 23
3.549920
  0
POLYLINE
  8
0
  6
CONTINUOUS
 66
     1
 40
0.000000
 41
0.000000
  0
VERTEX
  8
0
  6
CONTINUOUS
 10
5.119400
 20
2.799720
  0
VERTEX
  8
0
  6
CONTINUOUS
 10
5.113680
 20
3.527920
  0
VERTEX
  8
0
  6
CONTINUOUS
 10
5.222360
 20
3.549920
  0
VERTEX
  8
0
  6
CONTINUOUS
 10
5.228080
 20
2.821720
  0
VERTEX
  8
0
  6
CONTINUOUS
 10
5.119400
 20
2.799720
  0
SEQEND
  8
0
  0
SOLID
  8
0
 62
    15
 10
5.228080
 20
2.821720
 11
5.222360
 21
3.549920
 12
5.345120
 22
2.831400
 13
5.338960
 23
3.559600
  0
POLYLINE
  8
0
  6
CONTINUOUS
 66
     1
 40
0.000000
 41
0.000000
  0
VERTEX
  8
0
  6
CONTINUOUS
 10
5.228080
 20
2.821720
  0
VERTEX
  8
0
  6
CONTINUOUS
 10
5.222360
 20
3.549920
  0
VERTEX
  8
0
  6
CONTINUOUS
 10
5.338960
 20
3.559600
  0
VERTEX
  8
0
  6
CONTINUOUS
 10
5.345120
 20
2.831400
  0
VERTEX
  8
0
  6
CONTINUOUS
 10
5.228080
 20
2.821720
  0
SEQEND
  8
0
  0
SOLID
  8
0
 62
    15
 10
5.345120
 20
2.831400
 11
5.338960
 21
3.559600
 12
5.464800
 22
2.827880
 13
5.459080
 23
3.556080
  0
POLYLINE
  8
0
  6
CONTINUOUS
 66
     1
 40
0.000000
 41
0.000000
  0
VERTEX
  8
0
  6
CONTINUOUS
 10
5.345120
 20
2.831400
  0
VERTEX
  8
0
  6
CONTINUOUS
 10
5.338960
 20
3.559600
  0
VERTEX
  8
0
  6
CONTINUOUS
 10
5.459080
 20
3.556080
  0
VERTEX
  8
0
  6
CONTINUOUS
 10
5.464800
 20
2.827880
  0
VERTEX
  8
0
  6
CONTINUOUS
 10
5.345120
 20
2.831400
  0
SEQEND
  8
0
  0
SOLID
  8
0
 62
    15
 10
5.464800
 20
2.827880
 11
5.459080
 21
3.556080
 12
5.587560
 22
2.810280
 13
5.581840
 23
3.538040
  0
POLYLINE
  8
0
  6
CONTINUOUS
 66
     1
 40
0.000000
 41
0.000000
  0
VERTEX
  8
0
  6
CONTINUOUS
 10
5.464800
 20
2.827880
  0
VERTEX
  8
0
  6
CONTINUOUS
 10
5.459080
 20
3.556080
  0
VERTEX
  8
0
  6
CONTINUOUS
 10
5.581840
 20
3.538040
  0
VERTEX
  8
0
  6
CONTINUOUS
 10
5.587560
 20
2.810280
  0
VERTEX
  8
0
  6
CONTINUOUS
 10
5.464800
 20
2.827880
  0
SEQEND
  8
0
  0
SOLID
  8
0
 62
    15
 10
5.587560
 20
2.810280
 11
5.581840
 21
3.538040
 12
5.713400
 22
2.775960
 13
5.707240
 23
3.504160
  0
POLYLINE
  8
0
  6
CONTINUOUS
 66
     1
 40
0.000000
 41
0.000000
  0
VERTEX
  8
0
  6
CONTINUOUS
 10
5.587560
 20
2.810280
  0
VERTEX
  8
0
  6
CONTINUOUS
 10
5.581840
 20
3.538040
  0
VERTEX
  8
0
  6
CONTINUOUS
 10
5.707240
 20
3.504160
  0
VERTEX
  8
0
  6
CONTINUOUS
 10
5.713400
 20
2.775960
  0
VERTEX
  8
0
  6
CONTINUOUS
 10
5.587560
 20
2.810280
  0
SEQEND
  8
0
  0
SOLID
  8
0
 62
    15
 10
5.713400
 20
2.775960
 11
5.707240
 21
3.504160
 12
5.841880
 22
2.724040
 13
5.836160
 23
3.452240
  0
POLYLINE
  8
0
  6
CONTINUOUS
 66
     1
 40
0.000000
 41
0.000000
  0
VERTEX
  8
0
  6
CONTINUOUS
 10
5.713400
 20
2.775960
  0
VERTEX
  8
0
  6
CONTINUOUS
 10
5.707240
 20
3.504160
  0
VERTEX
  8
0
  6
CONTINUOUS
 10
5.836160
 20
3.452240
  0
VERTEX
  8
0
  6
CONTINUOUS
 10
5.841880
 20
2.724040
  0
VERTEX
  8
0
  6
CONTINUOUS
 10
5.713400
 20
2.775960
  0
SEQEND
  8
0
  0
SOLID
  8
0
 62
    15
 10
5.841880
 20
2.724040
 11
5.836160
 21
3.452240
 12
5.973880
 22
2.652760
 13
5.967720
 23
3.380520
  0
POLYLINE
  8
0
  6
CONTINUOUS
 66
     1
 40
0.000000
 41
0.000000
  0
VERTEX
  8
0
  6
CONTINUOUS
 10
5.841880
 20
2.724040
  0
VERTEX
  8
0
  6
CONTINUOUS
 10
5.836160
 20
3.452240
  0
VERTEX
  8
0
  6
CONTINUOUS
 10
5.967720
 20
3.380520
  0
VERTEX
  8
0
  6
CONTINUOUS
 10
5.973880
 20
2.652760
  0
VERTEX
  8
0
  6
CONTINUOUS
 10
5.841880
 20
2.724040
  0
SEQEND
  8
0
  0
SOLID
  8
0
 62
    15
 10
5.973880
 20
2.652760
 11
5.967720
 21
3.380520
 12
6.108520
 22
2.559920
 13
6.102800
 23
3.288120
  0
POLYLINE
  8
0
  6
CONTINUOUS
 66
     1
 40
0.000000
 41
0.000000
  0
VERTEX
  8
0
  6
CONTINUOUS
 10
5.973880
 20
2.652760
  0
VERTEX
  8
0
  6
CONTINUOUS
 10
5.967720
 20
3.380520
  0
VERTEX
  8
0
  6
CONTINUOUS
 10
6.102800
 20
3.288120
  0
VERTEX
  8
0
  6
CONTINUOUS
 10
6.108520
 20
2.559920
  0
VERTEX
  8
0
  6
CONTINUOUS
 10
5.973880
 20
2.652760
  0
SEQEND
  8
0
  0
SOLID
  8
0
 62
    15
 10
6.108520
 20
2.559920
 11
6.102800
 21
3.288120
 12
6.246680
 22
2.444640
 13
6.240960
 23
3.172840
  0
POLYLINE
  8
0
  6
CONTINUOUS
 66
     1
 40
0.000000
 41
0.000000
  0
VERTEX
  8
0
  6
CONTINUOUS
 10
6.108520
 20
2.559920
  0
VERTEX
  8
0
  6
CONTINUOUS
 10
6.102800
 20
3.288120
  0
VERTEX
  8
0
  6
CONTINUOUS
 10
6.240960
 20
3.172840
  0
VERTEX
  8
0
  6
CONTINUOUS
 10
6.246680
 20
2.444640
  0
VERTEX
  8
0
  6
CONTINUOUS
 10
6.108520
 20
2.559920
  0
SEQEND
  8
0
  0
SOLID
  8
0
 62
    15
 10
6.246680
 20
2.444640
 11
6.240960
 21
3.172840
 12
6.332480
 22
2.359720
 13
6.326760
 23
3.087920
  0
POLYLINE
  8
0
  6
CONTINUOUS
 66
     1
 40
0.000000
 41
0.000000
  0
VERTEX
  8
0
  6
CONTINUOUS
 10
6.246680
 20
2.444640
  0
VERTEX
  8
0
  6
CONTINUOUS
 10
6.240960
 20
3.172840
  0
VERTEX
  8
0
  6
CONTINUOUS
 10
6.326760
 20
3.087920
  0
VERTEX
  8
0
  6
CONTINUOUS
 10
6.332480
 20
2.359720
  0
VERTEX
  8
0
  6
CONTINUOUS
 10
6.246680
 20
2.444640
  0
SEQEND
  8
0
  0
SOLID
  8
0
 62
    15
 10
6.332480
 20
2.359720
 11
6.326760
 21
3.087920
 12
6.421800
 22
2.266440
 13
6.416080
 23
2.994640
  0
POLYLINE
  8
0
  6
CONTINUOUS
 66
     1
 40
0.000000
 41
0.000000
  0
VERTEX
  8
0
  6
CONTINUOUS
 10
6.332480
 20
2.359720
  0
VERTEX
  8
0
  6
CONTINUOUS
 10
6.326760
 20
3.087920
  0
VERTEX
  8
0
  6
CONTINUOUS
 10
6.416080
 20
2.994640
  0
VERTEX
  8
0
  6
CONTINUOUS
 10
6.421800
 20
2.266440
  0
VERTEX
  8
0
  6
CONTINUOUS
 10
6.332480
 20
2.359720
  0
SEQEND
  8
0
  0
SOLID
  8
0
 62
    15
 10
6.421800
 20
2.266440
 11
6.416080
 21
2.994640
 12
6.604840
 22
2.079880
 13
6.599120
 23
2.808080
  0
POLYLINE
  8
0
  6
CONTINUOUS
 66
     1
 40
0.000000
 41
0.000000
  0
VERTEX
  8
0
  6
CONTINUOUS
 10
6.421800
 20
2.266440
  0
VERTEX
  8
0
  6
CONTINUOUS
 10
6.416080
 20
2.994640
  0
VERTEX
  8
0
  6
CONTINUOUS
 10
6.599120
 20
2.808080
  0
VERTEX
  8
0
  6
CONTINUOUS
 10
6.604840
 20
2.079880
  0
VERTEX
  8
0
  6
CONTINUOUS
 10
6.421800
 20
2.266440
  0
SEQEND
  8
0
  0
SOLID
  8
0
 62
    15
 10
6.604840
 20
2.079880
 11
6.599120
 21
2.808080
 12
6.695920
 22
2.000240
 13
6.689760
 23
2.728440
  0
POLYLINE
  8
0
  6
CONTINUOUS
 66
     1
 40
0.000000
 41
0.000000
  0
VERTEX
  8
0
  6
CONTINUOUS
 10
6.604840
 20
2.079880
  0
VERTEX
  8
0
  6
CONTINUOUS
 10
6.599120
 20
2.808080
  0
VERTEX
  8
0
  6
CONTINUOUS
 10
6.689760
 20
2.728440
  0
VERTEX
  8
0
  6
CONTINUOUS
 10
6.695920
 20
2.000240
  0
VERTEX
  8
0
  6
CONTINUOUS
 10
6.604840
 20
2.079880
  0
SEQEND
  8
0
  0
SOLID
  8
0
 62
    15
 10
6.695920
 20
2.000240
 11
6.689760
 21
2.728440
 12
6.784360
 22
1.938640
 13
6.778640
 23
2.666840
  0
POLYLINE
  8
0
  6
CONTINUOUS
 66
     1
 40
0.000000
 41
0.000000
  0
VERTEX
  8
0
  6
CONTINUOUS
 10
6.695920
 20
2.000240
  0
VERTEX
  8
0
  6
CONTINUOUS
 10
6.689760
 20
2.728440
  0
VERTEX
  8
0
  6
CONTINUOUS
 10
6.778640
 20
2.666840
  0
VERTEX
  8
0
  6
CONTINUOUS
 10
6.784360
 20
1.938640
  0
VERTEX
  8
0
  6
CONTINUOUS
 10
6.695920
 20
2.000240
  0
SEQEND
  8
0
  0
SOLID
  8
0
 62
    15
 10
6.784360
 20
1.938640
 11
6.778640
 21
2.666840
 12
6.827480
 22
1.917080
 13
6.821320
 23
2.644840
  0
POLYLINE
  8
0
  6
CONTINUOUS
 66
     1
 40
0.000000
 41
0.000000
  0
VERTEX
  8
0
  6
CONTINUOUS
 10
6.784360
 20
1.938640
  0
VERTEX
  8
0
  6
CONTINUOUS
 10
6.778640
 20
2.666840
  0
VERTEX
  8
0
  6
CONTINUOUS
 10
6.821320
 20
2.644840
  0
VERTEX
  8
0
  6
CONTINUOUS
 10
6.827480
 20
1.917080
  0
VERTEX
  8
0
  6
CONTINUOUS
 10
6.784360
 20
1.938640
  0
SEQEND
  8
0
  0
SOLID
  8
0
 62
    15
 10
6.827480
 20
1.917080
 11
6.821320
 21
2.644840
 12
6.869280
 22
1.902120
 13
6.863120
 23
2.630320
  0
POLYLINE
  8
0
  6
CONTINUOUS
 66
     1
 40
0.000000
 41
0.000000
  0
VERTEX
  8
0
  6
CONTINUOUS
 10
6.827480
 20
1.917080
  0
VERTEX
  8
0
  6
CONTINUOUS
 10
6.821320
 20
2.644840
  0
VERTEX
  8
0
  6
CONTINUOUS
 10
6.863120
 20
2.630320
  0
VERTEX
  8
0
  6
CONTINUOUS
 10
6.869280
 20
1.902120
  0
VERTEX
  8
0
  6
CONTINUOUS
 10
6.827480
 20
1.917080
  0
SEQEND
  8
0
  0
SOLID
  8
0
 62
    15
 10
6.869280
 20
1.902120
 11
6.863120
 21
2.630320
 12
6.909760
 22
1.895080
 13
6.903600
 23
2.623280
  0
POLYLINE
  8
0
  6
CONTINUOUS
 66
     1
 40
0.000000
 41
0.000000
  0
VERTEX
  8
0
  6
CONTINUOUS
 10
6.869280
 20
1.902120
  0
VERTEX
  8
0
  6
CONTINUOUS
 10
6.863120
 20
2.630320
  0
VERTEX
  8
0
  6
CONTINUOUS
 10
6.903600
 20
2.623280
  0
VERTEX
  8
0
  6
CONTINUOUS
 10
6.909760
 20
1.895080
  0
VERTEX
  8
0
  6
CONTINUOUS
 10
6.869280
 20
1.902120
  0
SEQEND
  8
0
  0
SOLID
  8
0
 62
    15
 10
6.909760
 20
1.895080
 11
6.903600
 21
2.623280
 12
6.948920
 22
1.896840
 13
6.943200
 23
2.624600
  0
POLYLINE
  8
0
  6
CONTINUOUS
 66
     1
 40
0.000000
 41
0.000000
  0
VERTEX
  8
0
  6
CONTINUOUS
 10
6.909760
 20
1.895080
  0
VERTEX
  8
0
  6
CONTINUOUS
 10
6.903600
 20
2.623280
  0
VERTEX
  8
0
  6
CONTINUOUS
 10
6.943200
 20
2.624600
  0
VERTEX
  8
0
  6
CONTINUOUS
 10
6.948920
 20
1.896840
  0
VERTEX
  8
0
  6
CONTINUOUS
 10
6.909760
 20
1.895080
  0
SEQEND
  8
0
  0
SOLID
  8
0
 62
    15
 10
6.948920
 20
1.896840
 11
6.943200
 21
2.624600
 12
6.951120
 22
1.898600
 13
6.944960
 23
2.626800
  0
POLYLINE
  8
0
  6
CONTINUOUS
 66
     1
 40
0.000000
 41
0.000000
  0
VERTEX
  8
0
  6
CONTINUOUS
 10
6.948920
 20
1.896840
  0
VERTEX
  8
0
  6
CONTINUOUS
 10
6.943200
 20
2.624600
  0
VERTEX
  8
0
  6
CONTINUOUS
 10
6.944960
 20
2.626800
  0
VERTEX
  8
0
  6
CONTINUOUS
 10
6.951120
 20
1.898600
  0
VERTEX
  8
0
  6
CONTINUOUS
 10
6.948920
 20
1.896840
  0
SEQEND
  8
0
  0
SOLID
  8
0
 62
    15
 10
6.951120
 20
1.898600
 11
6.944960
 21
2.626800
 12
6.957280
 22
1.958880
 13
6.951120
 23
2.687080
  0
POLYLINE
  8
0
  6
CONTINUOUS
 66
     1
 40
0.000000
 41
0.000000
  0
VERTEX
  8
0
  6
CONTINUOUS
 10
6.951120
 20
1.898600
  0
VERTEX
  8
0
  6
CONTINUOUS
 10
6.944960
 20
2.626800
  0
VERTEX
  8
0
  6
CONTINUOUS
 10
6.951120
 20
2.687080
  0
VERTEX
  8
0
  6
CONTINUOUS
 10
6.957280
 20
1.958880
  0
VERTEX
  8
0
  6
CONTINUOUS
 10
6.951120
 20
1.898600
  0
SEQEND
  8
0
  0
SOLID
  8
0
 62
    15
 10
6.957280
 20
1.958880
 11
6.951120
 21
2.687080
 12
6.974880
 22
2.014760
 13
6.968720
 23
2.742960
  0
POLYLINE
  8
0
  6
CONTINUOUS
 66
     1
 40
0.000000
 41
0.000000
  0
VERTEX
  8
0
  6
CONTINUOUS
 10
6.957280
 20
1.958880
  0
VERTEX
  8
0
  6
CONTINUOUS
 10
6.951120
 20
2.687080
  0
VERTEX
  8
0
  6
CONTINUOUS
 10
6.968720
 20
2.742960
  0
VERTEX
  8
0
  6
CONTINUOUS
 10
6.974880
 20
2.014760
  0
VERTEX
  8
0
  6
CONTINUOUS
 10
6.957280
 20
1.958880
  0
SEQEND
  8
0
  0
SOLID
  8
0
 62
    15
 10
6.974880
 20
2.014760
 11
6.968720
 21
2.742960
 12
7.002600
 22
2.065800
 13
6.996440
 23
2.794000
  0
POLYLINE
  8
0
  6
CONTINUOUS
 66
     1
 40
0.000000
 41
0.000000
  0
VERTEX
  8
0
  6
CONTINUOUS
 10
6.974880
 20
2.014760
  0
VERTEX
  8
0
  6
CONTINUOUS
 10
6.968720
 20
2.742960
  0
VERTEX
  8
0
  6
CONTINUOUS
 10
6.996440
 20
2.794000
  0
VERTEX
  8
0
  6
CONTINUOUS
 10
7.002600
 20
2.065800
  0
VERTEX
  8
0
  6
CONTINUOUS
 10
6.974880
 20
2.014760
  0
SEQEND
  8
0
  0
SOLID
  8
0
 62
    15
 10
7.002600
 20
2.065800
 11
6.996440
 21
2.794000
 12
7.039120
 22
2.110240
 13
7.033400
 23
2.838440
  0
POLYLINE
  8
0
  6
CONTINUOUS
 66
     1
 40
0.000000
 41
0.000000
  0
VERTEX
  8
0
  6
CONTINUOUS
 10
7.002600
 20
2.065800
  0
VERTEX
  8
0
  6
CONTINUOUS
 10
6.996440
 20
2.794000
  0
VERTEX
  8
0
  6
CONTINUOUS
 10
7.033400
 20
2.838440
  0
VERTEX
  8
0
  6
CONTINUOUS
 10
7.039120
 20
2.110240
  0
VERTEX
  8
0
  6
CONTINUOUS
 10
7.002600
 20
2.065800
  0
SEQEND
  8
0
  0
SOLID
  8
0
 62
    15
 10
7.039120
 20
2.110240
 11
7.033400
 21
2.838440
 12
7.083560
 22
2.147200
 13
7.077840
 23
2.875400
  0
POLYLINE
  8
0
  6
CONTINUOUS
 66
     1
 40
0.000000
 41
0.000000
  0
VERTEX
  8
0
  6
CONTINUOUS
 10
7.039120
 20
2.110240
  0
VERTEX
  8
0
  6
CONTINUOUS
 10
7.033400
 20
2.838440
  0
VERTEX
  8
0
  6
CONTINUOUS
 10
7.077840
 20
2.875400
  0
VERTEX
  8
0
  6
CONTINUOUS
 10
7.083560
 20
2.147200
  0
VERTEX
  8
0
  6
CONTINUOUS
 10
7.039120
 20
2.110240
  0
SEQEND
  8
0
  0
SOLID
  8
0
 62
    15
 10
7.083560
 20
2.147200
 11
7.077840
 21
2.875400
 12
7.134600
 22
2.174920
 13
7.128880
 23
2.903120
  0
POLYLINE
  8
0
  6
CONTINUOUS
 66
     1
 40
0.000000
 41
0.000000
  0
VERTEX
  8
0
  6
CONTINUOUS
 10
7.083560
 20
2.147200
  0
VERTEX
  8
0
  6
CONTINUOUS
 10
7.077840
 20
2.875400
  0
VERTEX
  8
0
  6
CONTINUOUS
 10
7.128880
 20
2.903120
  0
VERTEX
  8
0
  6
CONTINUOUS
 10
7.134600
 20
2.174920
  0
VERTEX
  8
0
  6
CONTINUOUS
 10
7.083560
 20
2.147200
  0
SEQEND
  8
0
  0
SOLID
  8
0
 62
    15
 10
7.134600
 20
2.174920
 11
7.128880
 21
2.903120
 12
7.190920
 22
2.192520
 13
7.184760
 23
2.920720
  0
POLYLINE
  8
0
  6
CONTINUOUS
 66
     1
 40
0.000000
 41
0.000000
  0
VERTEX
  8
0
  6
CONTINUOUS
 10
7.134600
 20
2.174920
  0
VERTEX
  8
0
  6
CONTINUOUS
 10
7.128880
 20
2.903120
  0
VERTEX
  8
0
  6
CONTINUOUS
 10
7.184760
 20
2.920720
  0
VERTEX
  8
0
  6
CONTINUOUS
 10
7.190920
 20
2.192520
  0
VERTEX
  8
0
  6
CONTINUOUS
 10
7.134600
 20
2.174920
  0
SEQEND
  8
0
  0
SOLID
  8
0
 62
    15
 10
7.190920
 20
2.192520
 11
7.184760
 21
2.920720
 12
7.251200
 22
2.198680
 13
7.245040
 23
2.926880
  0
POLYLINE
  8
0
  6
CONTINUOUS
 66
     1
 40
0.000000
 41
0.000000
  0
VERTEX
  8
0
  6
CONTINUOUS
 10
7.190920
 20
2.192520
  0
VERTEX
  8
0
  6
CONTINUOUS
 10
7.184760
 20
2.920720
  0
VERTEX
  8
0
  6
CONTINUOUS
 10
7.245040
 20
2.926880
  0
VERTEX
  8
0
  6
CONTINUOUS
 10
7.251200
 20
2.198680
  0
VERTEX
  8
0
  6
CONTINUOUS
 10
7.190920
 20
2.192520
  0
SEQEND
  8
0
  0
SOLID
  8
0
 62
    15
 10
7.251200
 20
2.198680
 11
7.245040
 21
2.926880
 12
7.311040
 22
2.192520
 13
7.305320
 23
2.920720
  0
POLYLINE
  8
0
  6
CONTINUOUS
 66
     1
 40
0.000000
 41
0.000000
  0
VERTEX
  8
0
  6
CONTINUOUS
 10
7.251200
 20
2.198680
  0
VERTEX
  8
0
  6
CONTINUOUS
 10
7.245040
 20
2.926880
  0
VERTEX
  8
0
  6
CONTINUOUS
 10
7.305320
 20
2.920720
  0
VERTEX
  8
0
  6
CONTINUOUS
 10
7.311040
 20
2.192520
  0
VERTEX
  8
0
  6
CONTINUOUS
 10
7.251200
 20
2.198680
  0
SEQEND
  8
0
  0
SOLID
  8
0
 62
    15
 10
7.311040
 20
2.192520
 11
7.305320
 21
2.920720
 12
7.367360
 22
2.174920
 13
7.361200
 23
2.903120
  0
POLYLINE
  8
0
  6
CONTINUOUS
 66
     1
 40
0.000000
 41
0.000000
  0
VERTEX
  8
0
  6
CONTINUOUS
 10
7.311040
 20
2.192520
  0
VERTEX
  8
0
  6
CONTINUOUS
 10
7.305320
 20
2.920720
  0
VERTEX
  8
0
  6
CONTINUOUS
 10
7.361200
 20
2.903120
  0
VERTEX
  8
0
  6
CONTINUOUS
 10
7.367360
 20
2.174920
  0
VERTEX
  8
0
  6
CONTINUOUS
 10
7.311040
 20
2.192520
  0
SEQEND
  8
0
  0
SOLID
  8
0
 62
    15
 10
7.367360
 20
2.174920
 11
7.361200
 21
2.903120
 12
7.418400
 22
2.147200
 13
7.412240
 23
2.875400
  0
POLYLINE
  8
0
  6
CONTINUOUS
 66
     1
 40
0.000000
 41
0.000000
  0
VERTEX
  8
0
  6
CONTINUOUS
 10
7.367360
 20
2.174920
  0
VERTEX
  8
0
  6
CONTINUOUS
 10
7.361200
 20
2.903120
  0
VERTEX
  8
0
  6
CONTINUOUS
 10
7.412240
 20
2.875400
  0
VERTEX
  8
0
  6
CONTINUOUS
 10
7.418400
 20
2.147200
  0
VERTEX
  8
0
  6
CONTINUOUS
 10
7.367360
 20
2.174920
  0
SEQEND
  8
0
  0
SOLID
  8
0
 62
    15
 10
7.418400
 20
2.147200
 11
7.412240
 21
2.875400
 12
7.462840
 22
2.110240
 13
7.456680
 23
2.838440
  0
POLYLINE
  8
0
  6
CONTINUOUS
 66
     1
 40
0.000000
 41
0.000000
  0
VERTEX
  8
0
  6
CONTINUOUS
 10
7.418400
 20
2.147200
  0
VERTEX
  8
0
  6
CONTINUOUS
 10
7.412240
 20
2.875400
  0
VERTEX
  8
0
  6
CONTINUOUS
 10
7.456680
 20
2.838440
  0
VERTEX
  8
0
  6
CONTINUOUS
 10
7.462840
 20
2.110240
  0
VERTEX
  8
0
  6
CONTINUOUS
 10
7.418400
 20
2.147200
  0
SEQEND
  8
0
  0
SOLID
  8
0
 62
    15
 10
2.894760
 20
2.063160
 11
2.889040
 21
2.791360
 12
3.076920
 22
2.068880
 13
3.070760
 23
2.797080
  0
POLYLINE
  8
0
  6
CONTINUOUS
 66
     1
 40
0.000000
 41
0.000000
  0
VERTEX
  8
0
  6
CONTINUOUS
 10
2.894760
 20
2.063160
  0
VERTEX
  8
0
  6
CONTINUOUS
 10
2.889040
 20
2.791360
  0
VERTEX
  8
0
  6
CONTINUOUS
 10
3.070760
 20
2.797080
  0
VERTEX
  8
0
  6
CONTINUOUS
 10
3.076920
 20
2.068880
  0
VERTEX
  8
0
  6
CONTINUOUS
 10
2.894760
 20
2.063160
  0
SEQEND
  8
0
  0
SOLID
  8
0
 62
    15
 10
7.499360
 20
2.065800
 11
7.493640
 21
2.794000
 12
7.527080
 22
2.014760
 13
7.521360
 23
2.742960
  0
POLYLINE
  8
0
  6
CONTINUOUS
 66
     1
 40
0.000000
 41
0.000000
  0
VERTEX
  8
0
  6
CONTINUOUS
 10
7.499360
 20
2.065800
  0
VERTEX
  8
0
  6
CONTINUOUS
 10
7.493640
 20
2.794000
  0
VERTEX
  8
0
  6
CONTINUOUS
 10
7.521360
 20
2.742960
  0
VERTEX
  8
0
  6
CONTINUOUS
 10
7.527080
 20
2.014760
  0
VERTEX
  8
0
  6
CONTINUOUS
 10
7.499360
 20
2.065800
  0
SEQEND
  8
0
  0
SOLID
  8
0
 62
    15
 10
7.527080
 20
2.014760
 11
7.521360
 21
2.742960
 12
7.544680
 22
1.958880
 13
7.538960
 23
2.687080
  0
POLYLINE
  8
0
  6
CONTINUOUS
 66
     1
 40
0.000000
 41
0.000000
  0
VERTEX
  8
0
  6
CONTINUOUS
 10
7.527080
 20
2.014760
  0
VERTEX
  8
0
  6
CONTINUOUS
 10
7.521360
 20
2.742960
  0
VERTEX
  8
0
  6
CONTINUOUS
 10
7.538960
 20
2.687080
  0
VERTEX
  8
0
  6
CONTINUOUS
 10
7.544680
 20
1.958880
  0
VERTEX
  8
0
  6
CONTINUOUS
 10
7.527080
 20
2.014760
  0
SEQEND
  8
0
  0
SOLID
  8
0
 62
    15
 10
7.544680
 20
1.958880
 11
7.538960
 21
2.687080
 12
7.550840
 22
1.898600
 13
7.545120
 23
2.626800
  0
POLYLINE
  8
0
  6
CONTINUOUS
 66
     1
 40
0.000000
 41
0.000000
  0
VERTEX
  8
0
  6
CONTINUOUS
 10
7.544680
 20
1.958880
  0
VERTEX
  8
0
  6
CONTINUOUS
 10
7.538960
 20
2.687080
  0
VERTEX
  8
0
  6
CONTINUOUS
 10
7.545120
 20
2.626800
  0
VERTEX
  8
0
  6
CONTINUOUS
 10
7.550840
 20
1.898600
  0
VERTEX
  8
0
  6
CONTINUOUS
 10
7.544680
 20
1.958880
  0
SEQEND
  8
0
  0
SOLID
  8
0
 62
    15
 10
7.246800
 20
1.496440
 11
7.241080
 21
2.224640
 12
7.251200
 22
1.488080
 13
7.245040
 23
2.216280
  0
POLYLINE
  8
0
  6
CONTINUOUS
 66
     1
 40
0.000000
 41
0.000000
  0
VERTEX
  8
0
  6
CONTINUOUS
 10
7.246800
 20
1.496440
  0
VERTEX
  8
0
  6
CONTINUOUS
 10
7.241080
 20
2.224640
  0
VERTEX
  8
0
  6
CONTINUOUS
 10
7.245040
 20
2.216280
  0
VERTEX
  8
0
  6
CONTINUOUS
 10
7.251200
 20
1.488080
  0
VERTEX
  8
0
  6
CONTINUOUS
 10
7.246800
 20
1.496440
  0
SEQEND
  8
0
  0
SOLID
  8
0
 62
    15
 10
1.315600
 20
1.488080
 11
1.309880
 21
2.216280
 12
1.315600
 22
1.606880
 13
1.309880
 23
2.335080
  0
POLYLINE
  8
0
  6
CONTINUOUS
 66
     1
 40
0.000000
 41
0.000000
  0
VERTEX
  8
0
  6
CONTINUOUS
 10
1.315600
 20
1.488080
  0
VERTEX
  8
0
  6
CONTINUOUS
 10
1.309880
 20
2.216280
  0
VERTEX
  8
0
  6
CONTINUOUS
 10
1.309880
 20
2.335080
  0
VERTEX
  8
0
  6
CONTINUOUS
 10
1.315600
 20
1.606880
  0
VERTEX
  8
0
  6
CONTINUOUS
 10
1.315600
 20
1.488080
  0
SEQEND
  8
0
  0
SOLID
  8
0
 62
    15
 10
1.015520
 20
1.906960
 11
1.009800
 21
2.635160
 12
1.021680
 22
1.966360
 13
1.015960
 23
2.694560
  0
POLYLINE
  8
0
  6
CONTINUOUS
 66
     1
 40
0.000000
 41
0.000000
  0
VERTEX
  8
0
  6
CONTINUOUS
 10
1.015520
 20
1.906960
  0
VERTEX
  8
0
  6
CONTINUOUS
 10
1.009800
 20
2.635160
  0
VERTEX
  8
0
  6
CONTINUOUS
 10
1.015960
 20
2.694560
  0
VERTEX
  8
0
  6
CONTINUOUS
 10
1.021680
 20
1.966360
  0
VERTEX
  8
0
  6
CONTINUOUS
 10
1.015520
 20
1.906960
  0
SEQEND
  8
0
  0
SOLID
  8
0
 62
    15
 10
1.021680
 20
1.966360
 11
1.015960
 21
2.694560
 12
1.039280
 22
2.022240
 13
1.033560
 23
2.750440
  0
POLYLINE
  8
0
  6
CONTINUOUS
 66
     1
 40
0.000000
 41
0.000000
  0
VERTEX
  8
0
  6
CONTINUOUS
 10
1.021680
 20
1.966360
  0
VERTEX
  8
0
  6
CONTINUOUS
 10
1.015960
 20
2.694560
  0
VERTEX
  8
0
  6
CONTINUOUS
 10
1.033560
 20
2.750440
  0
VERTEX
  8
0
  6
CONTINUOUS
 10
1.039280
 20
2.022240
  0
VERTEX
  8
0
  6
CONTINUOUS
 10
1.021680
 20
1.966360
  0
SEQEND
  8
0
  0
SOLID
  8
0
 62
    15
 10
1.039280
 20
2.022240
 11
1.033560
 21
2.750440
 12
1.067000
 22
2.072840
 13
1.060840
 23
2.800600
  0
POLYLINE
  8
0
  6
CONTINUOUS
 66
     1
 40
0.000000
 41
0.000000
  0
VERTEX
  8
0
  6
CONTINUOUS
 10
1.039280
 20
2.022240
  0
VERTEX
  8
0
  6
CONTINUOUS
 10
1.033560
 20
2.750440
  0
VERTEX
  8
0
  6
CONTINUOUS
 10
1.060840
 20
2.800600
  0
VERTEX
  8
0
  6
CONTINUOUS
 10
1.067000
 20
2.072840
  0
VERTEX
  8
0
  6
CONTINUOUS
 10
1.039280
 20
2.022240
  0
SEQEND
  8
0
  0
SOLID
  8
0
 62
    15
 10
1.067000
 20
2.072840
 11
1.060840
 21
2.800600
 12
1.103520
 22
2.116840
 13
1.097800
 23
2.845040
  0
POLYLINE
  8
0
  6
CONTINUOUS
 66
     1
 40
0.000000
 41
0.000000
  0
VERTEX
  8
0
  6
CONTINUOUS
 10
1.067000
 20
2.072840
  0
VERTEX
  8
0
  6
CONTINUOUS
 10
1.060840
 20
2.800600
  0
VERTEX
  8
0
  6
CONTINUOUS
 10
1.097800
 20
2.845040
  0
VERTEX
  8
0
  6
CONTINUOUS
 10
1.103520
 20
2.116840
  0
VERTEX
  8
0
  6
CONTINUOUS
 10
1.067000
 20
2.072840
  0
SEQEND
  8
0
  0
SOLID
  8
0
 62
    15
 10
1.103520
 20
2.116840
 11
1.097800
 21
2.845040
 12
1.147960
 22
2.153360
 13
1.141800
 23
2.881560
  0
POLYLINE
  8
0
  6
CONTINUOUS
 66
     1
 40
0.000000
 41
0.000000
  0
VERTEX
  8
0
  6
CONTINUOUS
 10
1.103520
 20
2.116840
  0
VERTEX
  8
0
  6
CONTINUOUS
 10
1.097800
 20
2.845040
  0
VERTEX
  8
0
  6
CONTINUOUS
 10
1.141800
 20
2.881560
  0
VERTEX
  8
0
  6
CONTINUOUS
 10
1.147960
 20
2.153360
  0
VERTEX
  8
0
  6
CONTINUOUS
 10
1.103520
 20
2.116840
  0
SEQEND
  8
0
  0
SOLID
  8
0
 62
    15
 10
1.147960
 20
2.153360
 11
1.141800
 21
2.881560
 12
1.198560
 22
2.181080
 13
1.192400
 23
2.909280
  0
POLYLINE
  8
0
  6
CONTINUOUS
 66
     1
 40
0.000000
 41
0.000000
  0
VERTEX
  8
0
  6
CONTINUOUS
 10
1.147960
 20
2.153360
  0
VERTEX
  8
0
  6
CONTINUOUS
 10
1.141800
 20
2.881560
  0
VERTEX
  8
0
  6
CONTINUOUS
 10
1.192400
 20
2.909280
  0
VERTEX
  8
0
  6
CONTINUOUS
 10
1.198560
 20
2.181080
  0
VERTEX
  8
0
  6
CONTINUOUS
 10
1.147960
 20
2.153360
  0
SEQEND
  8
0
  0
SOLID
  8
0
 62
    15
 10
1.198560
 20
2.181080
 11
1.192400
 21
2.909280
 12
1.254000
 22
2.198680
 13
1.248280
 23
2.926880
  0
POLYLINE
  8
0
  6
CONTINUOUS
 66
     1
 40
0.000000
 41
0.000000
  0
VERTEX
  8
0
  6
CONTINUOUS
 10
1.198560
 20
2.181080
  0
VERTEX
  8
0
  6
CONTINUOUS
 10
1.192400
 20
2.909280
  0
VERTEX
  8
0
  6
CONTINUOUS
 10
1.248280
 20
2.926880
  0
VERTEX
  8
0
  6
CONTINUOUS
 10
1.254000
 20
2.198680
  0
VERTEX
  8
0
  6
CONTINUOUS
 10
1.198560
 20
2.181080
  0
SEQEND
  8
0
  0
SOLID
  8
0
 62
    15
 10
1.254000
 20
2.198680
 11
1.248280
 21
2.926880
 12
1.313400
 22
2.204840
 13
1.307680
 23
2.933040
  0
POLYLINE
  8
0
  6
CONTINUOUS
 66
     1
 40
0.000000
 41
0.000000
  0
VERTEX
  8
0
  6
CONTINUOUS
 10
1.254000
 20
2.198680
  0
VERTEX
  8
0
  6
CONTINUOUS
 10
1.248280
 20
2.926880
  0
VERTEX
  8
0
  6
CONTINUOUS
 10
1.307680
 20
2.933040
  0
VERTEX
  8
0
  6
CONTINUOUS
 10
1.313400
 20
2.204840
  0
VERTEX
  8
0
  6
CONTINUOUS
 10
1.254000
 20
2.198680
  0
SEQEND
  8
0
  0
SOLID
  8
0
 62
    15
 10
1.313400
 20
2.204840
 11
1.307680
 21
2.933040
 12
1.373240
 22
2.199120
 13
1.367080
 23
2.926880
  0
POLYLINE
  8
0
  6
CONTINUOUS
 66
     1
 40
0.000000
 41
0.000000
  0
VERTEX
  8
0
  6
CONTINUOUS
 10
1.313400
 20
2.204840
  0
VERTEX
  8
0
  6
CONTINUOUS
 10
1.307680
 20
2.933040
  0
VERTEX
  8
0
  6
CONTINUOUS
 10
1.367080
 20
2.926880
  0
VERTEX
  8
0
  6
CONTINUOUS
 10
1.373240
 20
2.199120
  0
VERTEX
  8
0
  6
CONTINUOUS
 10
1.313400
 20
2.204840
  0
SEQEND
  8
0
  0
SOLID
  8
0
 62
    15
 10
1.373240
 20
2.199120
 11
1.367080
 21
2.926880
 12
1.429120
 22
2.181960
 13
1.423400
 23
2.910160
  0
POLYLINE
  8
0
  6
CONTINUOUS
 66
     1
 40
0.000000
 41
0.000000
  0
VERTEX
  8
0
  6
CONTINUOUS
 10
1.373240
 20
2.199120
  0
VERTEX
  8
0
  6
CONTINUOUS
 10
1.367080
 20
2.926880
  0
VERTEX
  8
0
  6
CONTINUOUS
 10
1.423400
 20
2.910160
  0
VERTEX
  8
0
  6
CONTINUOUS
 10
1.429120
 20
2.181960
  0
VERTEX
  8
0
  6
CONTINUOUS
 10
1.373240
 20
2.199120
  0
SEQEND
  8
0
  0
SOLID
  8
0
 62
    15
 10
1.429120
 20
2.181960
 11
1.423400
 21
2.910160
 12
1.480600
 22
2.154680
 13
1.474440
 23
2.882880
  0
POLYLINE
  8
0
  6
CONTINUOUS
 66
     1
 40
0.000000
 41
0.000000
  0
VERTEX
  8
0
  6
CONTINUOUS
 10
1.429120
 20
2.181960
  0
VERTEX
  8
0
  6
CONTINUOUS
 10
1.423400
 20
2.910160
  0
VERTEX
  8
0
  6
CONTINUOUS
 10
1.474440
 20
2.882880
  0
VERTEX
  8
0
  6
CONTINUOUS
 10
1.480600
 20
2.154680
  0
VERTEX
  8
0
  6
CONTINUOUS
 10
1.429120
 20
2.181960
  0
SEQEND
  8
0
  0
SOLID
  8
0
 62
    15
 10
1.480600
 20
2.154680
 11
1.474440
 21
2.882880
 12
1.525480
 22
2.119040
 13
1.519320
 23
2.847240
  0
POLYLINE
  8
0
  6
CONTINUOUS
 66
     1
 40
0.000000
 41
0.000000
  0
VERTEX
  8
0
  6
CONTINUOUS
 10
1.480600
 20
2.154680
  0
VERTEX
  8
0
  6
CONTINUOUS
 10
1.474440
 20
2.882880
  0
VERTEX
  8
0
  6
CONTINUOUS
 10
1.519320
 20
2.847240
  0
VERTEX
  8
0
  6
CONTINUOUS
 10
1.525480
 20
2.119040
  0
VERTEX
  8
0
  6
CONTINUOUS
 10
1.480600
 20
2.154680
  0
SEQEND
  8
0
  0
SOLID
  8
0
 62
    15
 10
1.525480
 20
2.119040
 11
1.519320
 21
2.847240
 12
1.562880
 22
2.075480
 13
1.556720
 23
2.803680
  0
POLYLINE
  8
0
  6
CONTINUOUS
 66
     1
 40
0.000000
 41
0.000000
  0
VERTEX
  8
0
  6
CONTINUOUS
 10
1.525480
 20
2.119040
  0
VERTEX
  8
0
  6
CONTINUOUS
 10
1.519320
 20
2.847240
  0
VERTEX
  8
0
  6
CONTINUOUS
 10
1.556720
 20
2.803680
  0
VERTEX
  8
0
  6
CONTINUOUS
 10
1.562880
 20
2.075480
  0
VERTEX
  8
0
  6
CONTINUOUS
 10
1.525480
 20
2.119040
  0
SEQEND
  8
0
  0
SOLID
  8
0
 62
    15
 10
1.562880
 20
2.075480
 11
1.556720
 21
2.803680
 12
1.591040
 22
2.025760
 13
1.585320
 23
2.753520
  0
POLYLINE
  8
0
  6
CONTINUOUS
 66
     1
 40
0.000000
 41
0.000000
  0
VERTEX
  8
0
  6
CONTINUOUS
 10
1.562880
 20
2.075480
  0
VERTEX
  8
0
  6
CONTINUOUS
 10
1.556720
 20
2.803680
  0
VERTEX
  8
0
  6
CONTINUOUS
 10
1.585320
 20
2.753520
  0
VERTEX
  8
0
  6
CONTINUOUS
 10
1.591040
 20
2.025760
  0
VERTEX
  8
0
  6
CONTINUOUS
 10
1.562880
 20
2.075480
  0
SEQEND
  8
0
  0
SOLID
  8
0
 62
    15
 10
1.591040
 20
2.025760
 11
1.585320
 21
2.753520
 12
1.609080
 22
1.970320
 13
1.603360
 23
2.698520
  0
POLYLINE
  8
0
  6
CONTINUOUS
 66
     1
 40
0.000000
 41
0.000000
  0
VERTEX
  8
0
  6
CONTINUOUS
 10
1.591040
 20
2.025760
  0
VERTEX
  8
0
  6
CONTINUOUS
 10
1.585320
 20
2.753520
  0
VERTEX
  8
0
  6
CONTINUOUS
 10
1.603360
 20
2.698520
  0
VERTEX
  8
0
  6
CONTINUOUS
 10
1.609080
 20
1.970320
  0
VERTEX
  8
0
  6
CONTINUOUS
 10
1.591040
 20
2.025760
  0
SEQEND
  8
0
  0
SOLID
  8
0
 62
    15
 10
1.609080
 20
1.970320
 11
1.603360
 21
2.698520
 12
1.615680
 22
1.911360
 13
1.609520
 23
2.639120
  0
POLYLINE
  8
0
  6
CONTINUOUS
 66
     1
 40
0.000000
 41
0.000000
  0
VERTEX
  8
0
  6
CONTINUOUS
 10
1.609080
 20
1.970320
  0
VERTEX
  8
0
  6
CONTINUOUS
 10
1.603360
 20
2.698520
  0
VERTEX
  8
0
  6
CONTINUOUS
 10
1.609520
 20
2.639120
  0
VERTEX
  8
0
  6
CONTINUOUS
 10
1.615680
 20
1.911360
  0
VERTEX
  8
0
  6
CONTINUOUS
 10
1.609080
 20
1.970320
  0
SEQEND
  8
0
  0
SOLID
  8
0
 62
    15
 10
1.615680
 20
1.911360
 11
1.609520
 21
2.639120
 12
1.617880
 22
1.909160
 13
1.611720
 23
2.637360
  0
POLYLINE
  8
0
  6
CONTINUOUS
 66
     1
 40
0.000000
 41
0.000000
  0
VERTEX
  8
0
  6
CONTINUOUS
 10
1.615680
 20
1.911360
  0
VERTEX
  8
0
  6
CONTINUOUS
 10
1.609520
 20
2.639120
  0
VERTEX
  8
0
  6
CONTINUOUS
 10
1.611720
 20
2.637360
  0
VERTEX
  8
0
  6
CONTINUOUS
 10
1.617880
 20
1.909160
  0
VERTEX
  8
0
  6
CONTINUOUS
 10
1.615680
 20
1.911360
  0
SEQEND
  8
0
  0
SOLID
  8
0
 62
    15
 10
1.617880
 20
1.909160
 11
1.611720
 21
2.637360
 12
1.716440
 22
1.920160
 13
1.710280
 23
2.648360
  0
POLYLINE
  8
0
  6
CONTINUOUS
 66
     1
 40
0.000000
 41
0.000000
  0
VERTEX
  8
0
  6
CONTINUOUS
 10
1.617880
 20
1.909160
  0
VERTEX
  8
0
  6
CONTINUOUS
 10
1.611720
 20
2.637360
  0
VERTEX
  8
0
  6
CONTINUOUS
 10
1.710280
 20
2.648360
  0
VERTEX
  8
0
  6
CONTINUOUS
 10
1.716440
 20
1.920160
  0
VERTEX
  8
0
  6
CONTINUOUS
 10
1.617880
 20
1.909160
  0
SEQEND
  8
0
  0
SOLID
  8
0
 62
    15
 10
1.716440
 20
1.920160
 11
1.710280
 21
2.648360
 12
1.798280
 22
1.944800
 13
1.792560
 23
2.673000
  0
POLYLINE
  8
0
  6
CONTINUOUS
 66
     1
 40
0.000000
 41
0.000000
  0
VERTEX
  8
0
  6
CONTINUOUS
 10
1.716440
 20
1.920160
  0
VERTEX
  8
0
  6
CONTINUOUS
 10
1.710280
 20
2.648360
  0
VERTEX
  8
0
  6
CONTINUOUS
 10
1.792560
 20
2.673000
  0
VERTEX
  8
0
  6
CONTINUOUS
 10
1.798280
 20
1.944800
  0
VERTEX
  8
0
  6
CONTINUOUS
 10
1.716440
 20
1.920160
  0
SEQEND
  8
0
  0
SOLID
  8
0
 62
    15
 10
1.798280
 20
1.944800
 11
1.792560
 21
2.673000
 12
1.866480
 22
1.980000
 13
1.860760
 23
2.708200
  0
POLYLINE
  8
0
  6
CONTINUOUS
 66
     1
 40
0.000000
 41
0.000000
  0
VERTEX
  8
0
  6
CONTINUOUS
 10
1.798280
 20
1.944800
  0
VERTEX
  8
0
  6
CONTINUOUS
 10
1.792560
 20
2.673000
  0
VERTEX
  8
0
  6
CONTINUOUS
 10
1.860760
 20
2.708200
  0
VERTEX
  8
0
  6
CONTINUOUS
 10
1.866480
 20
1.980000
  0
VERTEX
  8
0
  6
CONTINUOUS
 10
1.798280
 20
1.944800
  0
SEQEND
  8
0
  0
SOLID
  8
0
 62
    15
 10
1.866480
 20
1.980000
 11
1.860760
 21
2.708200
 12
1.923680
 22
2.024000
 13
1.917520
 23
2.752200
  0
POLYLINE
  8
0
  6
CONTINUOUS
 66
     1
 40
0.000000
 41
0.000000
  0
VERTEX
  8
0
  6
CONTINUOUS
 10
1.866480
 20
1.980000
  0
VERTEX
  8
0
  6
CONTINUOUS
 10
1.860760
 20
2.708200
  0
VERTEX
  8
0
  6
CONTINUOUS
 10
1.917520
 20
2.752200
  0
VERTEX
  8
0
  6
CONTINUOUS
 10
1.923680
 20
2.024000
  0
VERTEX
  8
0
  6
CONTINUOUS
 10
1.866480
 20
1.980000
  0
SEQEND
  8
0
  0
SOLID
  8
0
 62
    15
 10
1.923680
 20
2.024000
 11
1.917520
 21
2.752200
 12
1.972520
 22
2.074160
 13
1.966360
 23
2.802360
  0
POLYLINE
  8
0
  6
CONTINUOUS
 66
     1
 40
0.000000
 41
0.000000
  0
VERTEX
  8
0
  6
CONTINUOUS
 10
1.923680
 20
2.024000
  0
VERTEX
  8
0
  6
CONTINUOUS
 10
1.917520
 20
2.752200
  0
VERTEX
  8
0
  6
CONTINUOUS
 10
1.966360
 20
2.802360
  0
VERTEX
  8
0
  6
CONTINUOUS
 10
1.972520
 20
2.074160
  0
VERTEX
  8
0
  6
CONTINUOUS
 10
1.923680
 20
2.024000
  0
SEQEND
  8
0
  0
SOLID
  8
0
 62
    15
 10
1.972520
 20
2.074160
 11
1.966360
 21
2.802360
 12
2.015640
 22
2.128280
 13
2.009920
 23
2.856480
  0
POLYLINE
  8
0
  6
CONTINUOUS
 66
     1
 40
0.000000
 41
0.000000
  0
VERTEX
  8
0
  6
CONTINUOUS
 10
1.972520
 20
2.074160
  0
VERTEX
  8
0
  6
CONTINUOUS
 10
1.966360
 20
2.802360
  0
VERTEX
  8
0
  6
CONTINUOUS
 10
2.009920
 20
2.856480
  0
VERTEX
  8
0
  6
CONTINUOUS
 10
2.015640
 20
2.128280
  0
VERTEX
  8
0
  6
CONTINUOUS
 10
1.972520
 20
2.074160
  0
SEQEND
  8
0
  0
SOLID
  8
0
 62
    15
 10
2.015640
 20
2.128280
 11
2.009920
 21
2.856480
 12
2.096600
 22
2.240480
 13
2.090880
 23
2.968240
  0
POLYLINE
  8
0
  6
CONTINUOUS
 66
     1
 40
0.000000
 41
0.000000
  0
VERTEX
  8
0
  6
CONTINUOUS
 10
2.015640
 20
2.128280
  0
VERTEX
  8
0
  6
CONTINUOUS
 10
2.009920
 20
2.856480
  0
VERTEX
  8
0
  6
CONTINUOUS
 10
2.090880
 20
2.968240
  0
VERTEX
  8
0
  6
CONTINUOUS
 10
2.096600
 20
2.240480
  0
VERTEX
  8
0
  6
CONTINUOUS
 10
2.015640
 20
2.128280
  0
SEQEND
  8
0
  0
SOLID
  8
0
 62
    15
 10
2.096600
 20
2.240480
 11
2.090880
 21
2.968240
 12
2.159960
 22
2.306480
 13
2.153800
 23
3.034680
  0
POLYLINE
  8
0
  6
CONTINUOUS
 66
     1
 40
0.000000
 41
0.000000
  0
VERTEX
  8
0
  6
CONTINUOUS
 10
2.096600
 20
2.240480
  0
VERTEX
  8
0
  6
CONTINUOUS
 10
2.090880
 20
2.968240
  0
VERTEX
  8
0
  6
CONTINUOUS
 10
2.153800
 20
3.034680
  0
VERTEX
  8
0
  6
CONTINUOUS
 10
2.159960
 20
2.306480
  0
VERTEX
  8
0
  6
CONTINUOUS
 10
2.096600
 20
2.240480
  0
SEQEND
  8
0
  0
SOLID
  8
0
 62
    15
 10
2.159960
 20
2.306480
 11
2.153800
 21
3.034680
 12
2.242680
 22
2.362360
 13
2.236960
 23
3.090560
  0
POLYLINE
  8
0
  6
CONTINUOUS
 66
     1
 40
0.000000
 41
0.000000
  0
VERTEX
  8
0
  6
CONTINUOUS
 10
2.159960
 20
2.306480
  0
VERTEX
  8
0
  6
CONTINUOUS
 10
2.153800
 20
3.034680
  0
VERTEX
  8
0
  6
CONTINUOUS
 10
2.236960
 20
3.090560
  0
VERTEX
  8
0
  6
CONTINUOUS
 10
2.242680
 20
2.362360
  0
VERTEX
  8
0
  6
CONTINUOUS
 10
2.159960
 20
2.306480
  0
SEQEND
  8
0
  0
SOLID
  8
0
 62
    15
 10
2.242680
 20
2.362360
 11
2.236960
 21
3.090560
 12
2.340800
 22
2.401080
 13
2.334640
 23
3.128840
  0
POLYLINE
  8
0
  6
CONTINUOUS
 66
     1
 40
0.000000
 41
0.000000
  0
VERTEX
  8
0
  6
CONTINUOUS
 10
2.242680
 20
2.362360
  0
VERTEX
  8
0
  6
CONTINUOUS
 10
2.236960
 20
3.090560
  0
VERTEX
  8
0
  6
CONTINUOUS
 10
2.334640
 20
3.128840
  0
VERTEX
  8
0
  6
CONTINUOUS
 10
2.340800
 20
2.401080
  0
VERTEX
  8
0
  6
CONTINUOUS
 10
2.242680
 20
2.362360
  0
SEQEND
  8
0
  0
SOLID
  8
0
 62
    15
 10
2.340800
 20
2.401080
 11
2.334640
 21
3.128840
 12
2.393600
 22
2.411640
 13
2.387880
 23
3.139840
  0
POLYLINE
  8
0
  6
CONTINUOUS
 66
     1
 40
0.000000
 41
0.000000
  0
VERTEX
  8
0
  6
CONTINUOUS
 10
2.340800
 20
2.401080
  0
VERTEX
  8
0
  6
CONTINUOUS
 10
2.334640
 20
3.128840
  0
VERTEX
  8
0
  6
CONTINUOUS
 10
2.387880
 20
3.139840
  0
VERTEX
  8
0
  6
CONTINUOUS
 10
2.393600
 20
2.411640
  0
VERTEX
  8
0
  6
CONTINUOUS
 10
2.340800
 20
2.401080
  0
SEQEND
  8
0
  0
SOLID
  8
0
 62
    15
 10
2.393600
 20
2.411640
 11
2.387880
 21
3.139840
 12
2.449040
 22
2.415160
 13
2.442880
 23
3.143360
  0
POLYLINE
  8
0
  6
CONTINUOUS
 66
     1
 40
0.000000
 41
0.000000
  0
VERTEX
  8
0
  6
CONTINUOUS
 10
2.393600
 20
2.411640
  0
VERTEX
  8
0
  6
CONTINUOUS
 10
2.387880
 20
3.139840
  0
VERTEX
  8
0
  6
CONTINUOUS
 10
2.442880
 20
3.143360
  0
VERTEX
  8
0
  6
CONTINUOUS
 10
2.449040
 20
2.415160
  0
VERTEX
  8
0
  6
CONTINUOUS
 10
2.393600
 20
2.411640
  0
SEQEND
  8
0
  0
SOLID
  8
0
 62
    15
 10
2.449040
 20
2.415160
 11
2.442880
 21
3.143360
 12
2.505360
 22
2.410760
 13
2.499200
 23
3.138520
  0
POLYLINE
  8
0
  6
CONTINUOUS
 66
     1
 40
0.000000
 41
0.000000
  0
VERTEX
  8
0
  6
CONTINUOUS
 10
2.449040
 20
2.415160
  0
VERTEX
  8
0
  6
CONTINUOUS
 10
2.442880
 20
3.143360
  0
VERTEX
  8
0
  6
CONTINUOUS
 10
2.499200
 20
3.138520
  0
VERTEX
  8
0
  6
CONTINUOUS
 10
2.505360
 20
2.410760
  0
VERTEX
  8
0
  6
CONTINUOUS
 10
2.449040
 20
2.415160
  0
SEQEND
  8
0
  0
SOLID
  8
0
 62
    15
 10
2.505360
 20
2.410760
 11
2.499200
 21
3.138520
 12
2.562560
 22
2.397560
 13
2.556400
 23
3.125320
  0
POLYLINE
  8
0
  6
CONTINUOUS
 66
     1
 40
0.000000
 41
0.000000
  0
VERTEX
  8
0
  6
CONTINUOUS
 10
2.505360
 20
2.410760
  0
VERTEX
  8
0
  6
CONTINUOUS
 10
2.499200
 20
3.138520
  0
VERTEX
  8
0
  6
CONTINUOUS
 10
2.556400
 20
3.125320
  0
VERTEX
  8
0
  6
CONTINUOUS
 10
2.562560
 20
2.397560
  0
VERTEX
  8
0
  6
CONTINUOUS
 10
2.505360
 20
2.410760
  0
SEQEND
  8
0
  0
SOLID
  8
0
 62
    15
 10
2.562560
 20
2.397560
 11
2.556400
 21
3.125320
 12
2.619760
 22
2.374240
 13
2.614040
 23
3.102440
  0
POLYLINE
  8
0
  6
CONTINUOUS
 66
     1
 40
0.000000
 41
0.000000
  0
VERTEX
  8
0
  6
CONTINUOUS
 10
2.562560
 20
2.397560
  0
VERTEX
  8
0
  6
CONTINUOUS
 10
2.556400
 20
3.125320
  0
VERTEX
  8
0
  6
CONTINUOUS
 10
2.614040
 20
3.102440
  0
VERTEX
  8
0
  6
CONTINUOUS
 10
2.619760
 20
2.374240
  0
VERTEX
  8
0
  6
CONTINUOUS
 10
2.562560
 20
2.397560
  0
SEQEND
  8
0
  0
SOLID
  8
0
 62
    15
 10
2.619760
 20
2.374240
 11
2.614040
 21
3.102440
 12
2.676960
 22
2.340800
 13
2.670800
 23
3.069000
  0
POLYLINE
  8
0
  6
CONTINUOUS
 66
     1
 40
0.000000
 41
0.000000
  0
VERTEX
  8
0
  6
CONTINUOUS
 10
2.619760
 20
2.374240
  0
VERTEX
  8
0
  6
CONTINUOUS
 10
2.614040
 20
3.102440
  0
VERTEX
  8
0
  6
CONTINUOUS
 10
2.670800
 20
3.069000
  0
VERTEX
  8
0
  6
CONTINUOUS
 10
2.676960
 20
2.340800
  0
VERTEX
  8
0
  6
CONTINUOUS
 10
2.619760
 20
2.374240
  0
SEQEND
  8
0
  0
SOLID
  8
0
 62
    15
 10
2.676960
 20
2.340800
 11
2.670800
 21
3.069000
 12
2.732840
 22
2.295480
 13
2.726680
 23
3.023680
  0
POLYLINE
  8
0
  6
CONTINUOUS
 66
     1
 40
0.000000
 41
0.000000
  0
VERTEX
  8
0
  6
CONTINUOUS
 10
2.676960
 20
2.340800
  0
VERTEX
  8
0
  6
CONTINUOUS
 10
2.670800
 20
3.069000
  0
VERTEX
  8
0
  6
CONTINUOUS
 10
2.726680
 20
3.023680
  0
VERTEX
  8
0
  6
CONTINUOUS
 10
2.732840
 20
2.295480
  0
VERTEX
  8
0
  6
CONTINUOUS
 10
2.676960
 20
2.340800
  0
SEQEND
  8
0
  0
SOLID
  8
0
 62
    15
 10
2.732840
 20
2.295480
 11
2.726680
 21
3.023680
 12
2.786960
 22
2.238280
 13
2.781240
 23
2.966040
  0
POLYLINE
  8
0
  6
CONTINUOUS
 66
     1
 40
0.000000
 41
0.000000
  0
VERTEX
  8
0
  6
CONTINUOUS
 10
2.732840
 20
2.295480
  0
VERTEX
  8
0
  6
CONTINUOUS
 10
2.726680
 20
3.023680
  0
VERTEX
  8
0
  6
CONTINUOUS
 10
2.781240
 20
2.966040
  0
VERTEX
  8
0
  6
CONTINUOUS
 10
2.786960
 20
2.238280
  0
VERTEX
  8
0
  6
CONTINUOUS
 10
2.732840
 20
2.295480
  0
SEQEND
  8
0
  0
SOLID
  8
0
 62
    15
 10
2.786960
 20
2.238280
 11
2.781240
 21
2.966040
 12
2.839320
 22
2.167000
 13
2.833160
 23
2.895200
  0
POLYLINE
  8
0
  6
CONTINUOUS
 66
     1
 40
0.000000
 41
0.000000
  0
VERTEX
  8
0
  6
CONTINUOUS
 10
2.786960
 20
2.238280
  0
VERTEX
  8
0
  6
CONTINUOUS
 10
2.781240
 20
2.966040
  0
VERTEX
  8
0
  6
CONTINUOUS
 10
2.833160
 20
2.895200
  0
VERTEX
  8
0
  6
CONTINUOUS
 10
2.839320
 20
2.167000
  0
VERTEX
  8
0
  6
CONTINUOUS
 10
2.786960
 20
2.238280
  0
SEQEND
  8
0
  0
SOLID
  8
0
 62
    15
 10
2.839320
 20
2.167000
 11
2.833160
 21
2.895200
 12
2.888600
 22
2.082080
 13
2.882440
 23
2.810280
  0
POLYLINE
  8
0
  6
CONTINUOUS
 66
     1
 40
0.000000
 41
0.000000
  0
VERTEX
  8
0
  6
CONTINUOUS
 10
2.839320
 20
2.167000
  0
VERTEX
  8
0
  6
CONTINUOUS
 10
2.833160
 20
2.895200
  0
VERTEX
  8
0
  6
CONTINUOUS
 10
2.882440
 20
2.810280
  0
VERTEX
  8
0
  6
CONTINUOUS
 10
2.888600
 20
2.082080
  0
VERTEX
  8
0
  6
CONTINUOUS
 10
2.839320
 20
2.167000
  0
SEQEND
  8
0
  0
SOLID
  8
0
 62
    15
 10
2.888600
 20
2.082080
 11
2.882440
 21
2.810280
 12
2.894760
 22
2.063160
 13
2.889040
 23
2.791360
  0
POLYLINE
  8
0
  6
CONTINUOUS
 66
     1
 40
0.000000
 41
0.000000
  0
VERTEX
  8
0
  6
CONTINUOUS
 10
2.888600
 20
2.082080
  0
VERTEX
  8
0
  6
CONTINUOUS
 10
2.882440
 20
2.810280
  0
VERTEX
  8
0
  6
CONTINUOUS
 10
2.889040
 20
2.791360
  0
VERTEX
  8
0
  6
CONTINUOUS
 10
2.894760
 20
2.063160
  0
VERTEX
  8
0
  6
CONTINUOUS
 10
2.888600
 20
2.082080
  0
SEQEND
  8
0
  0
POLYLINE
  8
0
  6
CONTINUOUS
 66
     1
 40
0.000000
 41
0.000000
  0
VERTEX
  8
0
  6
CONTINUOUS
 10
2.894760
 20
2.063160
  0
VERTEX
  8
0
  6
CONTINUOUS
 10
3.076920
 20
2.068880
  0
VERTEX
  8
0
  6
CONTINUOUS
 10
3.254240
 20
2.089120
  0
VERTEX
  8
0
  6
CONTINUOUS
 10
3.426720
 20
2.121680
  0
VERTEX
  8
0
  6
CONTINUOUS
 10
3.594800
 20
2.165240
  0
VERTEX
  8
0
  6
CONTINUOUS
 10
3.758040
 20
2.217600
  0
VERTEX
  8
0
  6
CONTINUOUS
 10
3.916440
 20
2.277000
  0
VERTEX
  8
0
  6
CONTINUOUS
 10
4.218280
 20
2.408120
  0
VERTEX
  8
0
  6
CONTINUOUS
 10
4.634520
 20
2.607880
  0
VERTEX
  8
0
  6
CONTINUOUS
 10
4.763440
 20
2.668160
  0
VERTEX
  8
0
  6
CONTINUOUS
 10
4.887080
 20
2.720960
  0
VERTEX
  8
0
  6
CONTINUOUS
 10
5.005880
 20
2.765840
  0
VERTEX
  8
0
  6
CONTINUOUS
 10
5.119400
 20
2.799720
  0
VERTEX
  8
0
  6
CONTINUOUS
 10
5.228080
 20
2.821720
  0
VERTEX
  8
0
  6
CONTINUOUS
 10
5.345120
 20
2.831400
  0
VERTEX
  8
0
  6
CONTINUOUS
 10
5.464800
 20
2.827880
  0
VERTEX
  8
0
  6
CONTINUOUS
 10
5.587560
 20
2.810280
  0
VERTEX
  8
0
  6
CONTINUOUS
 10
5.713400
 20
2.775960
  0
VERTEX
  8
0
  6
CONTINUOUS
 10
5.841880
 20
2.724040
  0
VERTEX
  8
0
  6
CONTINUOUS
 10
5.973880
 20
2.652760
  0
VERTEX
  8
0
  6
CONTINUOUS
 10
6.108520
 20
2.559920
  0
VERTEX
  8
0
  6
CONTINUOUS
 10
6.246680
 20
2.444640
  0
VERTEX
  8
0
  6
CONTINUOUS
 10
6.332480
 20
2.359720
  0
VERTEX
  8
0
  6
CONTINUOUS
 10
6.421800
 20
2.266440
  0
VERTEX
  8
0
  6
CONTINUOUS
 10
6.604840
 20
2.079880
  0
VERTEX
  8
0
  6
CONTINUOUS
 10
6.695920
 20
2.000240
  0
VERTEX
  8
0
  6
CONTINUOUS
 10
6.784360
 20
1.938640
  0
VERTEX
  8
0
  6
CONTINUOUS
 10
6.827480
 20
1.917080
  0
VERTEX
  8
0
  6
CONTINUOUS
 10
6.869280
 20
1.902120
  0
VERTEX
  8
0
  6
CONTINUOUS
 10
6.909760
 20
1.895080
  0
VERTEX
  8
0
  6
CONTINUOUS
 10
6.948920
 20
1.896840
  0
VERTEX
  8
0
  6
CONTINUOUS
 10
6.951120
 20
1.898600
  0
VERTEX
  8
0
  6
CONTINUOUS
 10
6.957280
 20
1.958880
  0
VERTEX
  8
0
  6
CONTINUOUS
 10
6.974880
 20
2.014760
  0
VERTEX
  8
0
  6
CONTINUOUS
 10
7.002600
 20
2.065800
  0
VERTEX
  8
0
  6
CONTINUOUS
 10
7.039120
 20
2.110240
  0
VERTEX
  8
0
  6
CONTINUOUS
 10
7.083560
 20
2.147200
  0
VERTEX
  8
0
  6
CONTINUOUS
 10
7.134600
 20
2.174920
  0
VERTEX
  8
0
  6
CONTINUOUS
 10
7.190920
 20
2.192520
  0
VERTEX
  8
0
  6
CONTINUOUS
 10
7.251200
 20
2.198680
  0
VERTEX
  8
0
  6
CONTINUOUS
 10
7.311040
 20
2.192520
  0
VERTEX
  8
0
  6
CONTINUOUS
 10
7.367360
 20
2.174920
  0
VERTEX
  8
0
  6
CONTINUOUS
 10
7.418400
 20
2.147200
  0
VERTEX
  8
0
  6
CONTINUOUS
 10
7.462840
 20
2.110240
  0
VERTEX
  8
0
  6
CONTINUOUS
 10
7.499360
 20
2.065800
  0
VERTEX
  8
0
  6
CONTINUOUS
 10
7.527080
 20
2.014760
  0
VERTEX
  8
0
  6
CONTINUOUS
 10
7.544680
 20
1.958880
  0
VERTEX
  8
0
  6
CONTINUOUS
 10
7.550840
 20
1.898600
  0
VERTEX
  8
0
  6
CONTINUOUS
 10
7.544680
 20
1.838320
  0
VERTEX
  8
0
  6
CONTINUOUS
 10
7.527080
 20
1.782440
  0
VERTEX
  8
0
  6
CONTINUOUS
 10
7.499360
 20
1.731400
  0
VERTEX
  8
0
  6
CONTINUOUS
 10
7.462840
 20
1.686960
  0
VERTEX
  8
0
  6
CONTINUOUS
 10
7.418400
 20
1.650000
  0
VERTEX
  8
0
  6
CONTINUOUS
 10
7.367360
 20
1.622280
  0
VERTEX
  8
0
  6
CONTINUOUS
 10
7.311040
 20
1.604680
  0
VERTEX
  8
0
  6
CONTINUOUS
 10
7.246800
 20
1.598520
  0
VERTEX
  8
0
  6
CONTINUOUS
 10
7.246800
 20
1.496440
  0
VERTEX
  8
0
  6
CONTINUOUS
 10
7.251200
 20
1.488080
  0
VERTEX
  8
0
  6
CONTINUOUS
 10
1.315600
 20
1.488080
  0
VERTEX
  8
0
  6
CONTINUOUS
 10
1.315600
 20
1.606880
  0
VERTEX
  8
0
  6
CONTINUOUS
 10
1.313400
 20
1.609080
  0
VERTEX
  8
0
  6
CONTINUOUS
 10
1.254000
 20
1.615240
  0
VERTEX
  8
0
  6
CONTINUOUS
 10
1.198560
 20
1.632840
  0
VERTEX
  8
0
  6
CONTINUOUS
 10
1.147960
 20
1.660560
  0
VERTEX
  8
0
  6
CONTINUOUS
 10
1.103520
 20
1.697080
  0
VERTEX
  8
0
  6
CONTINUOUS
 10
1.067000
 20
1.741520
  0
VERTEX
  8
0
  6
CONTINUOUS
 10
1.039280
 20
1.792120
  0
VERTEX
  8
0
  6
CONTINUOUS
 10
1.021680
 20
1.847560
  0
VERTEX
  8
0
  6
CONTINUOUS
 10
1.015520
 20
1.906960
  0
VERTEX
  8
0
  6
CONTINUOUS
 10
1.021680
 20
1.966360
  0
VERTEX
  8
0
  6
CONTINUOUS
 10
1.039280
 20
2.022240
  0
VERTEX
  8
0
  6
CONTINUOUS
 10
1.067000
 20
2.072840
  0
VERTEX
  8
0
  6
CONTINUOUS
 10
1.103520
 20
2.116840
  0
VERTEX
  8
0
  6
CONTINUOUS
 10
1.147960
 20
2.153360
  0
VERTEX
  8
0
  6
CONTINUOUS
 10
1.198560
 20
2.181080
  0
VERTEX
  8
0
  6
CONTINUOUS
 10
1.254000
 20
2.198680
  0
VERTEX
  8
0
  6
CONTINUOUS
 10
1.313400
 20
2.204840
  0
VERTEX
  8
0
  6
CONTINUOUS
 10
1.373240
 20
2.199120
  0
VERTEX
  8
0
  6
CONTINUOUS
 10
1.429120
 20
2.181960
  0
VERTEX
  8
0
  6
CONTINUOUS
 10
1.480600
 20
2.154680
  0
VERTEX
  8
0
  6
CONTINUOUS
 10
1.525480
 20
2.119040
  0
VERTEX
  8
0
  6
CONTINUOUS
 10
1.562880
 20
2.075480
  0
VERTEX
  8
0
  6
CONTINUOUS
 10
1.591040
 20
2.025760
  0
VERTEX
  8
0
  6
CONTINUOUS
 10
1.609080
 20
1.970320
  0
VERTEX
  8
0
  6
CONTINUOUS
 10
1.615680
 20
1.911360
  0
VERTEX
  8
0
  6
CONTINUOUS
 10
1.617880
 20
1.909160
  0
VERTEX
  8
0
  6
CONTINUOUS
 10
1.716440
 20
1.920160
  0
VERTEX
  8
0
  6
CONTINUOUS
 10
1.798280
 20
1.944800
  0
VERTEX
  8
0
  6
CONTINUOUS
 10
1.866480
 20
1.980000
  0
VERTEX
  8
0
  6
CONTINUOUS
 10
1.923680
 20
2.024000
  0
VERTEX
  8
0
  6
CONTINUOUS
 10
1.972520
 20
2.074160
  0
VERTEX
  8
0
  6
CONTINUOUS
 10
2.015640
 20
2.128280
  0
VERTEX
  8
0
  6
CONTINUOUS
 10
2.096600
 20
2.240480
  0
VERTEX
  8
0
  6
CONTINUOUS
 10
2.159960
 20
2.306480
  0
VERTEX
  8
0
  6
CONTINUOUS
 10
2.242680
 20
2.362360
  0
VERTEX
  8
0
  6
CONTINUOUS
 10
2.340800
 20
2.401080
  0
VERTEX
  8
0
  6
CONTINUOUS
 10
2.393600
 20
2.411640
  0
VERTEX
  8
0
  6
CONTINUOUS
 10
2.449040
 20
2.415160
  0
VERTEX
  8
0
  6
CONTINUOUS
 10
2.505360
 20
2.410760
  0
VERTEX
  8
0
  6
CONTINUOUS
 10
2.562560
 20
2.397560
  0
VERTEX
  8
0
  6
CONTINUOUS
 10
2.619760
 20
2.374240
  0
VERTEX
  8
0
  6
CONTINUOUS
 10
2.676960
 20
2.340800
  0
VERTEX
  8
0
  6
CONTINUOUS
 10
2.732840
 20
2.295480
  0
VERTEX
  8
0
  6
CONTINUOUS
 10
2.786960
 20
2.238280
  0
VERTEX
  8
0
  6
CONTINUOUS
 10
2.839320
 20
2.167000
  0
VERTEX
  8
0
  6
CONTINUOUS
 10
2.888600
 20
2.082080
  0
VERTEX
  8
0
  6
CONTINUOUS
 10
2.894760
 20
2.063160
  0
SEQEND
  8
0
  0
TEXT
  8
0
 10
3.985080
 20
1.180520
 40
0.138055
  1
BA  655
 41
1.000000
  7
SN0
 71
     0
 72
     5
 11
4.575405
 21
1.180520
  0
TEXT
  8
0
 10
3.709640
 20
0.989120
 40
0.138055
  1
1-5/16" x 6-1/2"
 41
1.000000
  7
SN0
 71
     0
 72
     5
 11
4.849705
 21
0.989120
  0
ENDSEC
  0
EOF
