  0
SECTION
  2
HEADER
  9
$ACADVER
  1
AC1006
  9
$EXTMIN
 10
2.155560
 20
3.711840
  9
$EXTMAX
 10
6.344360
 20
7.287720
  9
$LTSCALE
 40
0.044000
  9
$PDMODE
 70
    35
  9
$PDSIZE
 40
0.035200
  0
ENDSEC
  0
SECTION
  2
TABLES
  0
TABLE
  2
LTYPE
 70
     9
  0
LTYPE
  2
CONTINUOUS
 70
    64
  3
Solid line
 72
    65
 73
     0
 40
0.000000
  0
LTYPE
  2
DASHED
 70
    64
  3
__ __ __ __ __ __ __ __ __ __ __ __ __ __ __
 72
    65
 73
     2
 40
0.000330
 49
0.000220
 49
-0.000110
  0
LTYPE
  2
HIDDEN
 70
    64
  3
 _ _ _ _ _ _ _ _ _ _ _ _ _ _ _ _ _ _ _ _ _ _
 72
    65
 73
     2
 40
0.000165
 49
0.000110
 49
-0.000055
  0
LTYPE
  2
CENTER
 70
    64
  3
____ _ ____ _ ____ _ ____ _ ____ _ ____ _ ____
 72
    65
 73
     4
 40
0.000880
 49
0.000550
 49
-0.000110
 49
0.000110
 49
-0.000110
  0
LTYPE
  2
PHANTOM
 70
    64
  3
_____ _ _ _____ _ _ _____ _ _ _____ _ _ ____
 72
    65
 73
     6
 40
0.001100
 49
0.000550
 49
-0.000110
 49
0.000110
 49
-0.000110
 49
0.000110
 49
-0.000110
  0
LTYPE
  2
DOT
 70
    64
  3
...............................................
 72
    65
 73
     2
 40
0.000110
 49
0.000000
 49
-0.000110
  0
LTYPE
  2
DASHDOT
 70
    64
  3
__ . __ . __ . __ . __ . __ . __ . __ . __ . __
 72
    65
 73
     4
 40
0.000440
 49
0.000220
 49
-0.000110
 49
0.000000
 49
-0.000110
  0
LTYPE
  2
BORDER
 70
    64
  3
__ __ . __ __ . __ __ . __ __ . __ __ . __ __
 72
    65
 73
     6
 40
0.000770
 49
0.000220
 49
-0.000110
 49
0.000220
 49
-0.000110
 49
0.000000
 49
-0.000110
  0
LTYPE
  2
DIVIDE
 70
    64
  3
__ . . __ . . __ . . __ . . __ . . __ . . __
 72
    65
 73
     6
 40
0.000550
 49
0.000220
 49
-0.000110
 49
0.000000
 49
-0.000110
 49
0.000000
 49
-0.000110
  0
LTYPE
  2
DOTDOT
 70
    64
  3
 . .  . .  . .  . .  . .  . . 
 72
    65
 73
     5
 40
0.000242
 49
-0.000110
 49
0.000000
 49
-0.000110
 49
0.000000
 49
-0.000110
  0
ENDTAB
  0
TABLE
  2
STYLE
 70
     2
  0
STYLE
 70
     0
  2
SN0
 40
0.000000
 41
0.000440
 50
0.000000
 71
     0
 42
0.000000
  3
ROMAND
  0
STYLE
 70
    68
  2
SV0
 40
0.000000
 41
0.000440
 50
0.000000
 71
     0
 42
0.000000
  3
ROMAND
  0
ENDTAB
  0
TABLE
  2
LAYER
 70
     3
  0
LAYER
  2
FOREGROUND
 70
    64
 62
     7
  6
CONTINUOUS
  0
LAYER
  2
BACKGROUND
 70
    65
 62
    -7
  6
CONTINUOUS
  0
LAYER
  2
0
 70
    64
 62
     7
  6
CONTINUOUS
  0
ENDTAB
  0
ENDSEC
  0
SECTION
  2
ENTITIES
  0
POLYLINE
  8
FOREGROUND
  6
CONTINUOUS
 66
     1
 40
0.000000
 41
0.000000
  0
VERTEX
  8
FOREGROUND
  6
CONTINUOUS
 10
0.000000
 20
10.999560
  0
VERTEX
  8
FOREGROUND
  6
CONTINUOUS
 10
8.499920
 20
10.999560
  0
VERTEX
  8
FOREGROUND
  6
CONTINUOUS
 10
8.499920
 20
-0.000440
  0
VERTEX
  8
FOREGROUND
  6
CONTINUOUS
 10
0.000000
 20
-0.000440
  0
VERTEX
  8
FOREGROUND
  6
CONTINUOUS
 10
0.000000
 20
10.999560
  0
SEQEND
  8
0
  0
POLYLINE
  8
FOREGROUND
  6
CONTINUOUS
 66
     1
 40
0.000000
 41
0.000000
  0
VERTEX
  8
FOREGROUND
  6
CONTINUOUS
 10
0.000000
 20
10.999560
  0
VERTEX
  8
FOREGROUND
  6
CONTINUOUS
 10
8.499920
 20
10.999560
  0
VERTEX
  8
FOREGROUND
  6
CONTINUOUS
 10
8.499920
 20
-0.000440
  0
VERTEX
  8
FOREGROUND
  6
CONTINUOUS
 10
0.000000
 20
-0.000440
  0
VERTEX
  8
FOREGROUND
  6
CONTINUOUS
 10
0.000000
 20
10.999560
  0
SEQEND
  8
0
  0
POLYLINE
  8
0
  6
CONTINUOUS
 66
     1
 40
0.014080
 41
0.014080
  0
VERTEX
  8
0
  6
CONTINUOUS
 10
5.159880
 20
4.426840
  0
VERTEX
  8
0
  6
CONTINUOUS
 10
5.162080
 20
4.429040
  0
VERTEX
  8
0
  6
CONTINUOUS
 10
5.818120
 20
4.429040
  0
VERTEX
  8
0
  6
CONTINUOUS
 10
5.822520
 20
4.433000
  0
VERTEX
  8
0
  6
CONTINUOUS
 10
5.822520
 20
6.050880
  0
VERTEX
  8
0
  6
CONTINUOUS
 10
5.826480
 20
6.051760
  0
VERTEX
  8
0
  6
CONTINUOUS
 10
6.336880
 20
6.051760
  0
VERTEX
  8
0
  6
CONTINUOUS
 10
6.336880
 20
6.402000
  0
VERTEX
  8
0
  6
CONTINUOUS
 10
6.270000
 20
6.409040
  0
VERTEX
  8
0
  6
CONTINUOUS
 10
6.238760
 20
6.414760
  0
VERTEX
  8
0
  6
CONTINUOUS
 10
6.208840
 20
6.422240
  0
VERTEX
  8
0
  6
CONTINUOUS
 10
6.167480
 20
6.436320
  0
VERTEX
  8
0
  6
CONTINUOUS
 10
6.130520
 20
6.454800
  0
VERTEX
  8
0
  6
CONTINUOUS
 10
6.097960
 20
6.478560
  0
VERTEX
  8
0
  6
CONTINUOUS
 10
6.079040
 20
6.497040
  0
VERTEX
  8
0
  6
CONTINUOUS
 10
6.062320
 20
6.518160
  0
VERTEX
  8
0
  6
CONTINUOUS
 10
6.048240
 20
6.541920
  0
VERTEX
  8
0
  6
CONTINUOUS
 10
6.036800
 20
6.568320
  0
VERTEX
  8
0
  6
CONTINUOUS
 10
6.027560
 20
6.597800
  0
VERTEX
  8
0
  6
CONTINUOUS
 10
6.021840
 20
6.630360
  0
VERTEX
  8
0
  6
CONTINUOUS
 10
6.018760
 20
6.666000
  0
VERTEX
  8
0
  6
CONTINUOUS
 10
6.018320
 20
6.684920
  0
VERTEX
  8
0
  6
CONTINUOUS
 10
6.013920
 20
6.689320
  0
VERTEX
  8
0
  6
CONTINUOUS
 10
5.878840
 20
6.689320
  0
VERTEX
  8
0
  6
CONTINUOUS
 10
5.859920
 20
6.791840
  0
VERTEX
  8
0
  6
CONTINUOUS
 10
5.844080
 20
6.856960
  0
VERTEX
  8
0
  6
CONTINUOUS
 10
5.827360
 20
6.902720
  0
VERTEX
  8
0
  6
CONTINUOUS
 10
5.804480
 20
6.944520
  0
VERTEX
  8
0
  6
CONTINUOUS
 10
5.784680
 20
6.969600
  0
VERTEX
  8
0
  6
CONTINUOUS
 10
5.760920
 20
6.992480
  0
VERTEX
  8
0
  6
CONTINUOUS
 10
5.732760
 20
7.012720
  0
VERTEX
  8
0
  6
CONTINUOUS
 10
5.698880
 20
7.029440
  0
VERTEX
  8
0
  6
CONTINUOUS
 10
5.659720
 20
7.043520
  0
VERTEX
  8
0
  6
CONTINUOUS
 10
5.613960
 20
7.053640
  0
VERTEX
  8
0
  6
CONTINUOUS
 10
5.561600
 20
7.059800
  0
VERTEX
  8
0
  6
CONTINUOUS
 10
5.532560
 20
7.061560
  0
VERTEX
  8
0
  6
CONTINUOUS
 10
5.466560
 20
7.061560
  0
VERTEX
  8
0
  6
CONTINUOUS
 10
5.410240
 20
7.057160
  0
VERTEX
  8
0
  6
CONTINUOUS
 10
5.361400
 20
7.048800
  0
VERTEX
  8
0
  6
CONTINUOUS
 10
5.339400
 20
7.043520
  0
VERTEX
  8
0
  6
CONTINUOUS
 10
5.300240
 20
7.029440
  0
VERTEX
  8
0
  6
CONTINUOUS
 10
5.266360
 20
7.012720
  0
VERTEX
  8
0
  6
CONTINUOUS
 10
5.238200
 20
6.992480
  0
VERTEX
  8
0
  6
CONTINUOUS
 10
5.214440
 20
6.969600
  0
VERTEX
  8
0
  6
CONTINUOUS
 10
5.194640
 20
6.944520
  0
VERTEX
  8
0
  6
CONTINUOUS
 10
5.171760
 20
6.902720
  0
VERTEX
  8
0
  6
CONTINUOUS
 10
5.155040
 20
6.856960
  0
VERTEX
  8
0
  6
CONTINUOUS
 10
5.139200
 20
6.791840
  0
VERTEX
  8
0
  6
CONTINUOUS
 10
5.120280
 20
6.689320
  0
VERTEX
  8
0
  6
CONTINUOUS
 10
4.984760
 20
6.689320
  0
VERTEX
  8
0
  6
CONTINUOUS
 10
4.980800
 20
6.684920
  0
VERTEX
  8
0
  6
CONTINUOUS
 10
4.979040
 20
6.647520
  0
VERTEX
  8
0
  6
CONTINUOUS
 10
4.974640
 20
6.613640
  0
VERTEX
  8
0
  6
CONTINUOUS
 10
4.967160
 20
6.582400
  0
VERTEX
  8
0
  6
CONTINUOUS
 10
4.957040
 20
6.554680
  0
VERTEX
  8
0
  6
CONTINUOUS
 10
4.944280
 20
6.529600
  0
VERTEX
  8
0
  6
CONTINUOUS
 10
4.928880
 20
6.507160
  0
VERTEX
  8
0
  6
CONTINUOUS
 10
4.911280
 20
6.487360
  0
VERTEX
  8
0
  6
CONTINUOUS
 10
4.880040
 20
6.462280
  0
VERTEX
  8
0
  6
CONTINUOUS
 10
4.844400
 20
6.442040
  0
VERTEX
  8
0
  6
CONTINUOUS
 10
4.818000
 20
6.431040
  0
VERTEX
  8
0
  6
CONTINUOUS
 10
4.790280
 20
6.422240
  0
VERTEX
  8
0
  6
CONTINUOUS
 10
4.760360
 20
6.414760
  0
VERTEX
  8
0
  6
CONTINUOUS
 10
4.729120
 20
6.409040
  0
VERTEX
  8
0
  6
CONTINUOUS
 10
4.662240
 20
6.402000
  0
VERTEX
  8
0
  6
CONTINUOUS
 10
4.662240
 20
6.051760
  0
VERTEX
  8
0
  6
CONTINUOUS
 10
5.151520
 20
6.051760
  0
VERTEX
  8
0
  6
CONTINUOUS
 10
5.149320
 20
6.053080
  0
VERTEX
  8
0
  6
CONTINUOUS
 10
5.149320
 20
4.429040
  0
VERTEX
  8
0
  6
CONTINUOUS
 10
5.206520
 20
4.429040
  0
VERTEX
  8
0
  6
CONTINUOUS
 10
5.159880
 20
4.426840
  0
SEQEND
  8
0
  0
SOLID
  8
0
 62
    15
 10
3.327280
 20
6.726720
 11
3.975400
 21
7.112600
 12
3.346640
 22
6.663800
 13
3.994320
 23
7.049680
  0
POLYLINE
  8
0
  6
CONTINUOUS
 66
     1
 40
0.000000
 41
0.000000
  0
VERTEX
  8
0
  6
CONTINUOUS
 10
3.327280
 20
6.726720
  0
VERTEX
  8
0
  6
CONTINUOUS
 10
3.975400
 20
7.112600
  0
VERTEX
  8
0
  6
CONTINUOUS
 10
3.994320
 20
7.049680
  0
VERTEX
  8
0
  6
CONTINUOUS
 10
3.346640
 20
6.663800
  0
VERTEX
  8
0
  6
CONTINUOUS
 10
3.327280
 20
6.726720
  0
SEQEND
  8
0
  0
SOLID
  8
0
 62
    15
 10
2.156000
 20
6.240960
 11
2.804120
 21
6.626400
 12
2.222880
 22
6.248000
 13
2.871000
 23
6.633880
  0
POLYLINE
  8
0
  6
CONTINUOUS
 66
     1
 40
0.000000
 41
0.000000
  0
VERTEX
  8
0
  6
CONTINUOUS
 10
2.156000
 20
6.240960
  0
VERTEX
  8
0
  6
CONTINUOUS
 10
2.804120
 20
6.626400
  0
VERTEX
  8
0
  6
CONTINUOUS
 10
2.871000
 20
6.633880
  0
VERTEX
  8
0
  6
CONTINUOUS
 10
2.222880
 20
6.248000
  0
VERTEX
  8
0
  6
CONTINUOUS
 10
2.156000
 20
6.240960
  0
SEQEND
  8
0
  0
SOLID
  8
0
 62
    15
 10
2.222880
 20
6.248000
 11
2.871000
 21
6.633880
 12
2.284040
 22
6.261200
 13
2.932160
 23
6.646640
  0
POLYLINE
  8
0
  6
CONTINUOUS
 66
     1
 40
0.000000
 41
0.000000
  0
VERTEX
  8
0
  6
CONTINUOUS
 10
2.222880
 20
6.248000
  0
VERTEX
  8
0
  6
CONTINUOUS
 10
2.871000
 20
6.633880
  0
VERTEX
  8
0
  6
CONTINUOUS
 10
2.932160
 20
6.646640
  0
VERTEX
  8
0
  6
CONTINUOUS
 10
2.284040
 20
6.261200
  0
VERTEX
  8
0
  6
CONTINUOUS
 10
2.222880
 20
6.248000
  0
SEQEND
  8
0
  0
SOLID
  8
0
 62
    15
 10
2.284040
 20
6.261200
 11
2.932160
 21
6.646640
 12
2.338600
 22
6.281000
 13
2.986280
 23
6.666880
  0
POLYLINE
  8
0
  6
CONTINUOUS
 66
     1
 40
0.000000
 41
0.000000
  0
VERTEX
  8
0
  6
CONTINUOUS
 10
2.284040
 20
6.261200
  0
VERTEX
  8
0
  6
CONTINUOUS
 10
2.932160
 20
6.646640
  0
VERTEX
  8
0
  6
CONTINUOUS
 10
2.986280
 20
6.666880
  0
VERTEX
  8
0
  6
CONTINUOUS
 10
2.338600
 20
6.281000
  0
VERTEX
  8
0
  6
CONTINUOUS
 10
2.284040
 20
6.261200
  0
SEQEND
  8
0
  0
SOLID
  8
0
 62
    15
 10
2.478960
 20
6.528280
 11
3.127080
 21
6.914160
 12
2.614480
 22
6.528280
 13
3.262160
 23
6.914160
  0
POLYLINE
  8
0
  6
CONTINUOUS
 66
     1
 40
0.000000
 41
0.000000
  0
VERTEX
  8
0
  6
CONTINUOUS
 10
2.478960
 20
6.528280
  0
VERTEX
  8
0
  6
CONTINUOUS
 10
3.127080
 20
6.914160
  0
VERTEX
  8
0
  6
CONTINUOUS
 10
3.262160
 20
6.914160
  0
VERTEX
  8
0
  6
CONTINUOUS
 10
2.614480
 20
6.528280
  0
VERTEX
  8
0
  6
CONTINUOUS
 10
2.478960
 20
6.528280
  0
SEQEND
  8
0
  0
SOLID
  8
0
 62
    15
 10
2.794000
 20
6.868840
 11
3.442120
 21
7.254280
 12
2.878920
 22
6.892600
 13
3.527040
 23
7.278480
  0
POLYLINE
  8
0
  6
CONTINUOUS
 66
     1
 40
0.000000
 41
0.000000
  0
VERTEX
  8
0
  6
CONTINUOUS
 10
2.794000
 20
6.868840
  0
VERTEX
  8
0
  6
CONTINUOUS
 10
3.442120
 20
7.254280
  0
VERTEX
  8
0
  6
CONTINUOUS
 10
3.527040
 20
7.278480
  0
VERTEX
  8
0
  6
CONTINUOUS
 10
2.878920
 20
6.892600
  0
VERTEX
  8
0
  6
CONTINUOUS
 10
2.794000
 20
6.868840
  0
SEQEND
  8
0
  0
SOLID
  8
0
 62
    15
 10
2.878920
 20
6.892600
 11
3.527040
 21
7.278480
 12
2.931720
 22
6.899200
 13
3.579400
 23
7.284640
  0
POLYLINE
  8
0
  6
CONTINUOUS
 66
     1
 40
0.000000
 41
0.000000
  0
VERTEX
  8
0
  6
CONTINUOUS
 10
2.878920
 20
6.892600
  0
VERTEX
  8
0
  6
CONTINUOUS
 10
3.527040
 20
7.278480
  0
VERTEX
  8
0
  6
CONTINUOUS
 10
3.579400
 20
7.284640
  0
VERTEX
  8
0
  6
CONTINUOUS
 10
2.931720
 20
6.899200
  0
VERTEX
  8
0
  6
CONTINUOUS
 10
2.878920
 20
6.892600
  0
SEQEND
  8
0
  0
SOLID
  8
0
 62
    15
 10
2.931720
 20
6.899200
 11
3.579400
 21
7.284640
 12
2.991560
 22
6.901400
 13
3.639240
 23
7.286840
  0
POLYLINE
  8
0
  6
CONTINUOUS
 66
     1
 40
0.000000
 41
0.000000
  0
VERTEX
  8
0
  6
CONTINUOUS
 10
2.931720
 20
6.899200
  0
VERTEX
  8
0
  6
CONTINUOUS
 10
3.579400
 20
7.284640
  0
VERTEX
  8
0
  6
CONTINUOUS
 10
3.639240
 20
7.286840
  0
VERTEX
  8
0
  6
CONTINUOUS
 10
2.991560
 20
6.901400
  0
VERTEX
  8
0
  6
CONTINUOUS
 10
2.931720
 20
6.899200
  0
SEQEND
  8
0
  0
SOLID
  8
0
 62
    15
 10
2.991560
 20
6.901400
 11
3.639240
 21
7.286840
 12
2.995520
 22
6.901400
 13
3.643640
 23
7.286840
  0
POLYLINE
  8
0
  6
CONTINUOUS
 66
     1
 40
0.000000
 41
0.000000
  0
VERTEX
  8
0
  6
CONTINUOUS
 10
2.991560
 20
6.901400
  0
VERTEX
  8
0
  6
CONTINUOUS
 10
3.639240
 20
7.286840
  0
VERTEX
  8
0
  6
CONTINUOUS
 10
3.643640
 20
7.286840
  0
VERTEX
  8
0
  6
CONTINUOUS
 10
2.995520
 20
6.901400
  0
VERTEX
  8
0
  6
CONTINUOUS
 10
2.991560
 20
6.901400
  0
SEQEND
  8
0
  0
SOLID
  8
0
 62
    15
 10
2.995520
 20
6.901400
 11
3.643640
 21
7.286840
 12
3.055360
 22
6.899200
 13
3.703480
 23
7.284640
  0
POLYLINE
  8
0
  6
CONTINUOUS
 66
     1
 40
0.000000
 41
0.000000
  0
VERTEX
  8
0
  6
CONTINUOUS
 10
2.995520
 20
6.901400
  0
VERTEX
  8
0
  6
CONTINUOUS
 10
3.643640
 20
7.286840
  0
VERTEX
  8
0
  6
CONTINUOUS
 10
3.703480
 20
7.284640
  0
VERTEX
  8
0
  6
CONTINUOUS
 10
3.055360
 20
6.899200
  0
VERTEX
  8
0
  6
CONTINUOUS
 10
2.995520
 20
6.901400
  0
SEQEND
  8
0
  0
SOLID
  8
0
 62
    15
 10
3.055360
 20
6.899200
 11
3.703480
 21
7.284640
 12
3.107720
 22
6.892600
 13
3.755840
 23
7.278480
  0
POLYLINE
  8
0
  6
CONTINUOUS
 66
     1
 40
0.000000
 41
0.000000
  0
VERTEX
  8
0
  6
CONTINUOUS
 10
3.055360
 20
6.899200
  0
VERTEX
  8
0
  6
CONTINUOUS
 10
3.703480
 20
7.284640
  0
VERTEX
  8
0
  6
CONTINUOUS
 10
3.755840
 20
7.278480
  0
VERTEX
  8
0
  6
CONTINUOUS
 10
3.107720
 20
6.892600
  0
VERTEX
  8
0
  6
CONTINUOUS
 10
3.055360
 20
6.899200
  0
SEQEND
  8
0
  0
SOLID
  8
0
 62
    15
 10
3.107720
 20
6.892600
 11
3.755840
 21
7.278480
 12
3.192640
 22
6.868840
 13
3.840760
 23
7.254280
  0
POLYLINE
  8
0
  6
CONTINUOUS
 66
     1
 40
0.000000
 41
0.000000
  0
VERTEX
  8
0
  6
CONTINUOUS
 10
3.107720
 20
6.892600
  0
VERTEX
  8
0
  6
CONTINUOUS
 10
3.755840
 20
7.278480
  0
VERTEX
  8
0
  6
CONTINUOUS
 10
3.840760
 20
7.254280
  0
VERTEX
  8
0
  6
CONTINUOUS
 10
3.192640
 20
6.868840
  0
VERTEX
  8
0
  6
CONTINUOUS
 10
3.107720
 20
6.892600
  0
SEQEND
  8
0
  0
SOLID
  8
0
 62
    15
 10
3.192640
 20
6.868840
 11
3.840760
 21
7.254280
 12
3.254680
 22
6.831440
 13
3.902800
 23
7.217320
  0
POLYLINE
  8
0
  6
CONTINUOUS
 66
     1
 40
0.000000
 41
0.000000
  0
VERTEX
  8
0
  6
CONTINUOUS
 10
3.192640
 20
6.868840
  0
VERTEX
  8
0
  6
CONTINUOUS
 10
3.840760
 20
7.254280
  0
VERTEX
  8
0
  6
CONTINUOUS
 10
3.902800
 20
7.217320
  0
VERTEX
  8
0
  6
CONTINUOUS
 10
3.254680
 20
6.831440
  0
VERTEX
  8
0
  6
CONTINUOUS
 10
3.192640
 20
6.868840
  0
SEQEND
  8
0
  0
SOLID
  8
0
 62
    15
 10
3.254680
 20
6.831440
 11
3.902800
 21
7.217320
 12
3.298240
 22
6.783480
 13
3.946360
 23
7.169360
  0
POLYLINE
  8
0
  6
CONTINUOUS
 66
     1
 40
0.000000
 41
0.000000
  0
VERTEX
  8
0
  6
CONTINUOUS
 10
3.254680
 20
6.831440
  0
VERTEX
  8
0
  6
CONTINUOUS
 10
3.902800
 20
7.217320
  0
VERTEX
  8
0
  6
CONTINUOUS
 10
3.946360
 20
7.169360
  0
VERTEX
  8
0
  6
CONTINUOUS
 10
3.298240
 20
6.783480
  0
VERTEX
  8
0
  6
CONTINUOUS
 10
3.254680
 20
6.831440
  0
SEQEND
  8
0
  0
SOLID
  8
0
 62
    15
 10
3.298240
 20
6.783480
 11
3.946360
 21
7.169360
 12
3.327280
 22
6.726720
 13
3.975400
 23
7.112600
  0
POLYLINE
  8
0
  6
CONTINUOUS
 66
     1
 40
0.000000
 41
0.000000
  0
VERTEX
  8
0
  6
CONTINUOUS
 10
3.298240
 20
6.783480
  0
VERTEX
  8
0
  6
CONTINUOUS
 10
3.946360
 20
7.169360
  0
VERTEX
  8
0
  6
CONTINUOUS
 10
3.975400
 20
7.112600
  0
VERTEX
  8
0
  6
CONTINUOUS
 10
3.327280
 20
6.726720
  0
VERTEX
  8
0
  6
CONTINUOUS
 10
3.298240
 20
6.783480
  0
SEQEND
  8
0
  0
SOLID
  8
0
 62
    15
 10
2.643520
 20
5.892040
 11
3.291640
 21
6.277920
 12
2.645720
 22
5.890720
 13
3.293400
 23
6.276600
  0
POLYLINE
  8
0
  6
CONTINUOUS
 66
     1
 40
0.000000
 41
0.000000
  0
VERTEX
  8
0
  6
CONTINUOUS
 10
2.643520
 20
5.892040
  0
VERTEX
  8
0
  6
CONTINUOUS
 10
3.291640
 20
6.277920
  0
VERTEX
  8
0
  6
CONTINUOUS
 10
3.293400
 20
6.276600
  0
VERTEX
  8
0
  6
CONTINUOUS
 10
2.645720
 20
5.890720
  0
VERTEX
  8
0
  6
CONTINUOUS
 10
2.643520
 20
5.892040
  0
SEQEND
  8
0
  0
SOLID
  8
0
 62
    15
 10
3.346640
 20
6.663800
 11
3.994320
 21
7.049680
 12
3.372600
 22
6.528280
 13
4.020720
 23
6.914160
  0
POLYLINE
  8
0
  6
CONTINUOUS
 66
     1
 40
0.000000
 41
0.000000
  0
VERTEX
  8
0
  6
CONTINUOUS
 10
3.346640
 20
6.663800
  0
VERTEX
  8
0
  6
CONTINUOUS
 10
3.994320
 20
7.049680
  0
VERTEX
  8
0
  6
CONTINUOUS
 10
4.020720
 20
6.914160
  0
VERTEX
  8
0
  6
CONTINUOUS
 10
3.372600
 20
6.528280
  0
VERTEX
  8
0
  6
CONTINUOUS
 10
3.346640
 20
6.663800
  0
SEQEND
  8
0
  0
SOLID
  8
0
 62
    15
 10
3.372600
 20
6.528280
 11
4.020720
 21
6.914160
 12
3.508120
 22
6.528280
 13
4.156240
 23
6.914160
  0
POLYLINE
  8
0
  6
CONTINUOUS
 66
     1
 40
0.000000
 41
0.000000
  0
VERTEX
  8
0
  6
CONTINUOUS
 10
3.372600
 20
6.528280
  0
VERTEX
  8
0
  6
CONTINUOUS
 10
4.020720
 20
6.914160
  0
VERTEX
  8
0
  6
CONTINUOUS
 10
4.156240
 20
6.914160
  0
VERTEX
  8
0
  6
CONTINUOUS
 10
3.508120
 20
6.528280
  0
VERTEX
  8
0
  6
CONTINUOUS
 10
3.372600
 20
6.528280
  0
SEQEND
  8
0
  0
SOLID
  8
0
 62
    15
 10
3.508120
 20
6.528280
 11
4.156240
 21
6.914160
 12
3.512520
 22
6.524320
 13
4.160200
 23
6.909760
  0
POLYLINE
  8
0
  6
CONTINUOUS
 66
     1
 40
0.000000
 41
0.000000
  0
VERTEX
  8
0
  6
CONTINUOUS
 10
3.508120
 20
6.528280
  0
VERTEX
  8
0
  6
CONTINUOUS
 10
4.156240
 20
6.914160
  0
VERTEX
  8
0
  6
CONTINUOUS
 10
4.160200
 20
6.909760
  0
VERTEX
  8
0
  6
CONTINUOUS
 10
3.512520
 20
6.524320
  0
VERTEX
  8
0
  6
CONTINUOUS
 10
3.508120
 20
6.528280
  0
SEQEND
  8
0
  0
SOLID
  8
0
 62
    15
 10
3.512520
 20
6.524320
 11
4.160200
 21
6.909760
 12
3.518240
 22
6.452600
 13
4.166360
 23
6.838480
  0
POLYLINE
  8
0
  6
CONTINUOUS
 66
     1
 40
0.000000
 41
0.000000
  0
VERTEX
  8
0
  6
CONTINUOUS
 10
3.512520
 20
6.524320
  0
VERTEX
  8
0
  6
CONTINUOUS
 10
4.160200
 20
6.909760
  0
VERTEX
  8
0
  6
CONTINUOUS
 10
4.166360
 20
6.838480
  0
VERTEX
  8
0
  6
CONTINUOUS
 10
3.518240
 20
6.452600
  0
VERTEX
  8
0
  6
CONTINUOUS
 10
3.512520
 20
6.524320
  0
SEQEND
  8
0
  0
SOLID
  8
0
 62
    15
 10
3.518240
 20
6.452600
 11
4.166360
 21
6.838480
 12
3.536280
 22
6.393640
 13
4.183960
 23
6.779520
  0
POLYLINE
  8
0
  6
CONTINUOUS
 66
     1
 40
0.000000
 41
0.000000
  0
VERTEX
  8
0
  6
CONTINUOUS
 10
3.518240
 20
6.452600
  0
VERTEX
  8
0
  6
CONTINUOUS
 10
4.166360
 20
6.838480
  0
VERTEX
  8
0
  6
CONTINUOUS
 10
4.183960
 20
6.779520
  0
VERTEX
  8
0
  6
CONTINUOUS
 10
3.536280
 20
6.393640
  0
VERTEX
  8
0
  6
CONTINUOUS
 10
3.518240
 20
6.452600
  0
SEQEND
  8
0
  0
SOLID
  8
0
 62
    15
 10
3.536280
 20
6.393640
 11
4.183960
 21
6.779520
 12
3.564440
 22
6.346120
 13
4.212120
 23
6.732000
  0
POLYLINE
  8
0
  6
CONTINUOUS
 66
     1
 40
0.000000
 41
0.000000
  0
VERTEX
  8
0
  6
CONTINUOUS
 10
3.536280
 20
6.393640
  0
VERTEX
  8
0
  6
CONTINUOUS
 10
4.183960
 20
6.779520
  0
VERTEX
  8
0
  6
CONTINUOUS
 10
4.212120
 20
6.732000
  0
VERTEX
  8
0
  6
CONTINUOUS
 10
3.564440
 20
6.346120
  0
VERTEX
  8
0
  6
CONTINUOUS
 10
3.536280
 20
6.393640
  0
SEQEND
  8
0
  0
SOLID
  8
0
 62
    15
 10
3.564440
 20
6.346120
 11
4.212120
 21
6.732000
 12
3.602280
 22
6.309160
 13
4.249960
 23
6.694600
  0
POLYLINE
  8
0
  6
CONTINUOUS
 66
     1
 40
0.000000
 41
0.000000
  0
VERTEX
  8
0
  6
CONTINUOUS
 10
3.564440
 20
6.346120
  0
VERTEX
  8
0
  6
CONTINUOUS
 10
4.212120
 20
6.732000
  0
VERTEX
  8
0
  6
CONTINUOUS
 10
4.249960
 20
6.694600
  0
VERTEX
  8
0
  6
CONTINUOUS
 10
3.602280
 20
6.309160
  0
VERTEX
  8
0
  6
CONTINUOUS
 10
3.564440
 20
6.346120
  0
SEQEND
  8
0
  0
SOLID
  8
0
 62
    15
 10
3.602280
 20
6.309160
 11
4.249960
 21
6.694600
 12
3.648920
 22
6.281000
 13
4.296600
 23
6.666880
  0
POLYLINE
  8
0
  6
CONTINUOUS
 66
     1
 40
0.000000
 41
0.000000
  0
VERTEX
  8
0
  6
CONTINUOUS
 10
3.602280
 20
6.309160
  0
VERTEX
  8
0
  6
CONTINUOUS
 10
4.249960
 20
6.694600
  0
VERTEX
  8
0
  6
CONTINUOUS
 10
4.296600
 20
6.666880
  0
VERTEX
  8
0
  6
CONTINUOUS
 10
3.648920
 20
6.281000
  0
VERTEX
  8
0
  6
CONTINUOUS
 10
3.602280
 20
6.309160
  0
SEQEND
  8
0
  0
SOLID
  8
0
 62
    15
 10
3.648920
 20
6.281000
 11
4.296600
 21
6.666880
 12
3.703040
 22
6.261200
 13
4.351160
 23
6.646640
  0
POLYLINE
  8
0
  6
CONTINUOUS
 66
     1
 40
0.000000
 41
0.000000
  0
VERTEX
  8
0
  6
CONTINUOUS
 10
3.648920
 20
6.281000
  0
VERTEX
  8
0
  6
CONTINUOUS
 10
4.296600
 20
6.666880
  0
VERTEX
  8
0
  6
CONTINUOUS
 10
4.351160
 20
6.646640
  0
VERTEX
  8
0
  6
CONTINUOUS
 10
3.703040
 20
6.261200
  0
VERTEX
  8
0
  6
CONTINUOUS
 10
3.648920
 20
6.281000
  0
SEQEND
  8
0
  0
SOLID
  8
0
 62
    15
 10
3.703040
 20
6.261200
 11
4.351160
 21
6.646640
 12
3.764200
 22
6.248000
 13
4.411880
 23
6.633880
  0
POLYLINE
  8
0
  6
CONTINUOUS
 66
     1
 40
0.000000
 41
0.000000
  0
VERTEX
  8
0
  6
CONTINUOUS
 10
3.703040
 20
6.261200
  0
VERTEX
  8
0
  6
CONTINUOUS
 10
4.351160
 20
6.646640
  0
VERTEX
  8
0
  6
CONTINUOUS
 10
4.411880
 20
6.633880
  0
VERTEX
  8
0
  6
CONTINUOUS
 10
3.764200
 20
6.248000
  0
VERTEX
  8
0
  6
CONTINUOUS
 10
3.703040
 20
6.261200
  0
SEQEND
  8
0
  0
SOLID
  8
0
 62
    15
 10
3.764200
 20
6.248000
 11
4.411880
 21
6.633880
 12
3.831080
 22
6.240960
 13
4.479200
 23
6.626400
  0
POLYLINE
  8
0
  6
CONTINUOUS
 66
     1
 40
0.000000
 41
0.000000
  0
VERTEX
  8
0
  6
CONTINUOUS
 10
3.764200
 20
6.248000
  0
VERTEX
  8
0
  6
CONTINUOUS
 10
4.411880
 20
6.633880
  0
VERTEX
  8
0
  6
CONTINUOUS
 10
4.479200
 20
6.626400
  0
VERTEX
  8
0
  6
CONTINUOUS
 10
3.831080
 20
6.240960
  0
VERTEX
  8
0
  6
CONTINUOUS
 10
3.764200
 20
6.248000
  0
SEQEND
  8
0
  0
SOLID
  8
0
 62
    15
 10
3.316280
 20
5.889840
 11
3.964400
 21
6.275720
 12
3.316280
 22
4.271960
 13
3.964400
 23
4.657840
  0
POLYLINE
  8
0
  6
CONTINUOUS
 66
     1
 40
0.000000
 41
0.000000
  0
VERTEX
  8
0
  6
CONTINUOUS
 10
3.316280
 20
5.889840
  0
VERTEX
  8
0
  6
CONTINUOUS
 10
3.964400
 20
6.275720
  0
VERTEX
  8
0
  6
CONTINUOUS
 10
3.964400
 20
4.657840
  0
VERTEX
  8
0
  6
CONTINUOUS
 10
3.316280
 20
4.271960
  0
VERTEX
  8
0
  6
CONTINUOUS
 10
3.316280
 20
5.889840
  0
SEQEND
  8
0
  0
SOLID
  8
0
 62
    15
 10
3.831080
 20
6.240960
 11
4.479200
 21
6.626400
 12
3.831080
 22
5.890720
 13
4.479200
 23
6.276160
  0
POLYLINE
  8
0
  6
CONTINUOUS
 66
     1
 40
0.000000
 41
0.000000
  0
VERTEX
  8
0
  6
CONTINUOUS
 10
3.831080
 20
6.240960
  0
VERTEX
  8
0
  6
CONTINUOUS
 10
4.479200
 20
6.626400
  0
VERTEX
  8
0
  6
CONTINUOUS
 10
4.479200
 20
6.276160
  0
VERTEX
  8
0
  6
CONTINUOUS
 10
3.831080
 20
5.890720
  0
VERTEX
  8
0
  6
CONTINUOUS
 10
3.831080
 20
6.240960
  0
SEQEND
  8
0
  0
SOLID
  8
0
 62
    15
 10
3.316280
 20
4.271960
 11
3.964400
 21
4.657840
 12
3.316280
 22
4.268000
 13
3.964400
 23
4.653440
  0
POLYLINE
  8
0
  6
CONTINUOUS
 66
     1
 40
0.000000
 41
0.000000
  0
VERTEX
  8
0
  6
CONTINUOUS
 10
3.316280
 20
4.271960
  0
VERTEX
  8
0
  6
CONTINUOUS
 10
3.964400
 20
4.657840
  0
VERTEX
  8
0
  6
CONTINUOUS
 10
3.964400
 20
4.653440
  0
VERTEX
  8
0
  6
CONTINUOUS
 10
3.316280
 20
4.268000
  0
VERTEX
  8
0
  6
CONTINUOUS
 10
3.316280
 20
4.271960
  0
SEQEND
  8
0
  0
POLYLINE
  8
0
  6
CONTINUOUS
 66
     1
 40
0.000000
 41
0.000000
  0
VERTEX
  8
0
  6
CONTINUOUS
 10
3.316280
 20
4.268000
  0
VERTEX
  8
0
  6
CONTINUOUS
 10
2.643520
 20
4.268000
  0
VERTEX
  8
0
  6
CONTINUOUS
 10
2.643520
 20
5.892040
  0
VERTEX
  8
0
  6
CONTINUOUS
 10
2.645720
 20
5.890720
  0
VERTEX
  8
0
  6
CONTINUOUS
 10
2.156000
 20
5.890720
  0
VERTEX
  8
0
  6
CONTINUOUS
 10
2.156000
 20
6.240960
  0
VERTEX
  8
0
  6
CONTINUOUS
 10
2.222880
 20
6.248000
  0
VERTEX
  8
0
  6
CONTINUOUS
 10
2.284040
 20
6.261200
  0
VERTEX
  8
0
  6
CONTINUOUS
 10
2.338600
 20
6.281000
  0
VERTEX
  8
0
  6
CONTINUOUS
 10
2.384800
 20
6.309160
  0
VERTEX
  8
0
  6
CONTINUOUS
 10
2.422640
 20
6.346120
  0
VERTEX
  8
0
  6
CONTINUOUS
 10
2.451240
 20
6.393640
  0
VERTEX
  8
0
  6
CONTINUOUS
 10
2.468840
 20
6.452600
  0
VERTEX
  8
0
  6
CONTINUOUS
 10
2.475000
 20
6.524320
  0
VERTEX
  8
0
  6
CONTINUOUS
 10
2.478960
 20
6.528280
  0
VERTEX
  8
0
  6
CONTINUOUS
 10
2.614480
 20
6.528280
  0
VERTEX
  8
0
  6
CONTINUOUS
 10
2.640440
 20
6.663800
  0
VERTEX
  8
0
  6
CONTINUOUS
 10
2.659800
 20
6.726720
  0
VERTEX
  8
0
  6
CONTINUOUS
 10
2.688840
 20
6.783480
  0
VERTEX
  8
0
  6
CONTINUOUS
 10
2.732400
 20
6.831440
  0
VERTEX
  8
0
  6
CONTINUOUS
 10
2.794000
 20
6.868840
  0
VERTEX
  8
0
  6
CONTINUOUS
 10
2.878920
 20
6.892600
  0
VERTEX
  8
0
  6
CONTINUOUS
 10
2.931720
 20
6.899200
  0
VERTEX
  8
0
  6
CONTINUOUS
 10
2.991560
 20
6.901400
  0
VERTEX
  8
0
  6
CONTINUOUS
 10
2.995520
 20
6.901400
  0
VERTEX
  8
0
  6
CONTINUOUS
 10
3.055360
 20
6.899200
  0
VERTEX
  8
0
  6
CONTINUOUS
 10
3.107720
 20
6.892600
  0
VERTEX
  8
0
  6
CONTINUOUS
 10
3.192640
 20
6.868840
  0
VERTEX
  8
0
  6
CONTINUOUS
 10
3.254680
 20
6.831440
  0
VERTEX
  8
0
  6
CONTINUOUS
 10
3.298240
 20
6.783480
  0
VERTEX
  8
0
  6
CONTINUOUS
 10
3.327280
 20
6.726720
  0
VERTEX
  8
0
  6
CONTINUOUS
 10
3.346640
 20
6.663800
  0
VERTEX
  8
0
  6
CONTINUOUS
 10
3.372600
 20
6.528280
  0
VERTEX
  8
0
  6
CONTINUOUS
 10
3.508120
 20
6.528280
  0
VERTEX
  8
0
  6
CONTINUOUS
 10
3.512520
 20
6.524320
  0
VERTEX
  8
0
  6
CONTINUOUS
 10
3.518240
 20
6.452600
  0
VERTEX
  8
0
  6
CONTINUOUS
 10
3.536280
 20
6.393640
  0
VERTEX
  8
0
  6
CONTINUOUS
 10
3.564440
 20
6.346120
  0
VERTEX
  8
0
  6
CONTINUOUS
 10
3.602280
 20
6.309160
  0
VERTEX
  8
0
  6
CONTINUOUS
 10
3.648920
 20
6.281000
  0
VERTEX
  8
0
  6
CONTINUOUS
 10
3.703040
 20
6.261200
  0
VERTEX
  8
0
  6
CONTINUOUS
 10
3.764200
 20
6.248000
  0
VERTEX
  8
0
  6
CONTINUOUS
 10
3.831080
 20
6.240960
  0
VERTEX
  8
0
  6
CONTINUOUS
 10
3.831080
 20
5.890720
  0
VERTEX
  8
0
  6
CONTINUOUS
 10
3.320680
 20
5.890720
  0
VERTEX
  8
0
  6
CONTINUOUS
 10
3.316280
 20
5.889840
  0
VERTEX
  8
0
  6
CONTINUOUS
 10
3.316280
 20
4.271960
  0
VERTEX
  8
0
  6
CONTINUOUS
 10
3.316280
 20
4.268000
  0
SEQEND
  8
0
  0
TEXT
  8
0
 10
3.022800
 20
3.947240
 40
0.138235
  1
BA  654
 41
1.000000
  7
SN0
 71
     0
 72
     5
 11
3.612583
 21
3.947240
  0
TEXT
  8
0
 10
2.700720
 20
3.755400
 40
0.138235
  1
1-11/16" x 2-5/8"
 41
1.000000
  7
SN0
 71
     0
 72
     5
 11
3.932227
 21
3.755400
  0
ENDSEC
  0
EOF
