  0
SECTION
  2
HEADER
  9
$ACADVER
  1
AC1006
  9
$EXTMIN
 10
3.306160
 20
0.888800
  9
$EXTMAX
 10
7.627400
 20
4.900720
  9
$LTSCALE
 40
0.044000
  9
$PDMODE
 70
    35
  9
$PDSIZE
 40
0.035200
  0
ENDSEC
  0
SECTION
  2
TABLES
  0
TABLE
  2
LTYPE
 70
     9
  0
LTYPE
  2
CONTINUOUS
 70
    64
  3
Solid line
 72
    65
 73
     0
 40
0.000000
  0
LTYPE
  2
DASHED
 70
    64
  3
__ __ __ __ __ __ __ __ __ __ __ __ __ __ __
 72
    65
 73
     2
 40
0.000330
 49
0.000220
 49
-0.000110
  0
LTYPE
  2
HIDDEN
 70
    64
  3
 _ _ _ _ _ _ _ _ _ _ _ _ _ _ _ _ _ _ _ _ _ _
 72
    65
 73
     2
 40
0.000165
 49
0.000110
 49
-0.000055
  0
LTYPE
  2
CENTER
 70
    64
  3
____ _ ____ _ ____ _ ____ _ ____ _ ____ _ ____
 72
    65
 73
     4
 40
0.000880
 49
0.000550
 49
-0.000110
 49
0.000110
 49
-0.000110
  0
LTYPE
  2
PHANTOM
 70
    64
  3
_____ _ _ _____ _ _ _____ _ _ _____ _ _ ____
 72
    65
 73
     6
 40
0.001100
 49
0.000550
 49
-0.000110
 49
0.000110
 49
-0.000110
 49
0.000110
 49
-0.000110
  0
LTYPE
  2
DOT
 70
    64
  3
...............................................
 72
    65
 73
     2
 40
0.000110
 49
0.000000
 49
-0.000110
  0
LTYPE
  2
DASHDOT
 70
    64
  3
__ . __ . __ . __ . __ . __ . __ . __ . __ . __
 72
    65
 73
     4
 40
0.000440
 49
0.000220
 49
-0.000110
 49
0.000000
 49
-0.000110
  0
LTYPE
  2
BORDER
 70
    64
  3
__ __ . __ __ . __ __ . __ __ . __ __ . __ __
 72
    65
 73
     6
 40
0.000770
 49
0.000220
 49
-0.000110
 49
0.000220
 49
-0.000110
 49
0.000000
 49
-0.000110
  0
LTYPE
  2
DIVIDE
 70
    64
  3
__ . . __ . . __ . . __ . . __ . . __ . . __
 72
    65
 73
     6
 40
0.000550
 49
0.000220
 49
-0.000110
 49
0.000000
 49
-0.000110
 49
0.000000
 49
-0.000110
  0
LTYPE
  2
DOTDOT
 70
    64
  3
 . .  . .  . .  . .  . .  . . 
 72
    65
 73
     5
 40
0.000242
 49
-0.000110
 49
0.000000
 49
-0.000110
 49
0.000000
 49
-0.000110
  0
ENDTAB
  0
TABLE
  2
STYLE
 70
     2
  0
STYLE
 70
     0
  2
SN0
 40
0.000000
 41
0.000440
 50
0.000000
 71
     0
 42
0.000000
  3
ROMAND
  0
STYLE
 70
    68
  2
SV0
 40
0.000000
 41
0.000440
 50
0.000000
 71
     0
 42
0.000000
  3
ROMAND
  0
ENDTAB
  0
TABLE
  2
LAYER
 70
     3
  0
LAYER
  2
FOREGROUND
 70
    64
 62
     7
  6
CONTINUOUS
  0
LAYER
  2
BACKGROUND
 70
    65
 62
    -7
  6
CONTINUOUS
  0
LAYER
  2
0
 70
    64
 62
     7
  6
CONTINUOUS
  0
ENDTAB
  0
ENDSEC
  0
SECTION
  2
ENTITIES
  0
POLYLINE
  8
FOREGROUND
  6
CONTINUOUS
 66
     1
 40
0.000000
 41
0.000000
  0
VERTEX
  8
FOREGROUND
  6
CONTINUOUS
 10
0.000000
 20
5.789520
  0
VERTEX
  8
FOREGROUND
  6
CONTINUOUS
 10
8.499920
 20
5.789520
  0
VERTEX
  8
FOREGROUND
  6
CONTINUOUS
 10
8.499920
 20
-5.210480
  0
VERTEX
  8
FOREGROUND
  6
CONTINUOUS
 10
0.000000
 20
-5.210480
  0
VERTEX
  8
FOREGROUND
  6
CONTINUOUS
 10
0.000000
 20
5.789520
  0
SEQEND
  8
0
  0
POLYLINE
  8
FOREGROUND
  6
CONTINUOUS
 66
     1
 40
0.000000
 41
0.000000
  0
VERTEX
  8
FOREGROUND
  6
CONTINUOUS
 10
0.000000
 20
5.789520
  0
VERTEX
  8
FOREGROUND
  6
CONTINUOUS
 10
8.499920
 20
5.789520
  0
VERTEX
  8
FOREGROUND
  6
CONTINUOUS
 10
8.499920
 20
-5.210480
  0
VERTEX
  8
FOREGROUND
  6
CONTINUOUS
 10
0.000000
 20
-5.210480
  0
VERTEX
  8
FOREGROUND
  6
CONTINUOUS
 10
0.000000
 20
5.789520
  0
SEQEND
  8
0
  0
POLYLINE
  8
0
  6
CONTINUOUS
 66
     1
 40
0.014080
 41
0.014080
  0
VERTEX
  8
0
  6
CONTINUOUS
 10
7.619920
 20
4.122360
  0
VERTEX
  8
0
  6
CONTINUOUS
 10
7.619920
 20
3.889160
  0
VERTEX
  8
0
  6
CONTINUOUS
 10
7.619920
 20
3.886960
  0
VERTEX
  8
0
  6
CONTINUOUS
 10
3.338720
 20
3.884760
  0
VERTEX
  8
0
  6
CONTINUOUS
 10
3.336960
 20
4.893240
  0
VERTEX
  8
0
  6
CONTINUOUS
 10
3.336520
 20
4.893240
  0
VERTEX
  8
0
  6
CONTINUOUS
 10
4.217840
 20
4.893240
  0
VERTEX
  8
0
  6
CONTINUOUS
 10
4.226200
 20
4.893240
  0
VERTEX
  8
0
  6
CONTINUOUS
 10
4.876080
 20
4.545200
  0
VERTEX
  8
0
  6
CONTINUOUS
 10
4.878280
 20
4.545200
  0
VERTEX
  8
0
  6
CONTINUOUS
 10
6.299040
 20
4.545200
  0
VERTEX
  8
0
  6
CONTINUOUS
 10
6.299040
 20
4.395160
  0
VERTEX
  8
0
  6
CONTINUOUS
 10
7.190920
 20
4.395160
  0
VERTEX
  8
0
  6
CONTINUOUS
 10
7.197080
 20
4.391200
  0
VERTEX
  8
0
  6
CONTINUOUS
 10
7.617720
 20
4.130720
  0
VERTEX
  8
0
  6
CONTINUOUS
 10
7.619920
 20
4.122360
  0
SEQEND
  8
0
  0
SOLID
  8
0
 62
    15
 10
6.269120
 20
1.863400
 11
6.276600
 21
2.600400
 12
7.161000
 22
1.863400
 13
7.168040
 23
2.600400
  0
POLYLINE
  8
0
  6
CONTINUOUS
 66
     1
 40
0.000000
 41
0.000000
  0
VERTEX
  8
0
  6
CONTINUOUS
 10
6.269120
 20
1.863400
  0
VERTEX
  8
0
  6
CONTINUOUS
 10
6.276600
 20
2.600400
  0
VERTEX
  8
0
  6
CONTINUOUS
 10
7.168040
 20
2.600400
  0
VERTEX
  8
0
  6
CONTINUOUS
 10
7.161000
 20
1.863400
  0
VERTEX
  8
0
  6
CONTINUOUS
 10
6.269120
 20
1.863400
  0
SEQEND
  8
0
  0
SOLID
  8
0
 62
    15
 10
3.306600
 20
2.361040
 11
3.314080
 21
3.098040
 12
4.196280
 22
2.361040
 13
4.203760
 23
3.098040
  0
POLYLINE
  8
0
  6
CONTINUOUS
 66
     1
 40
0.000000
 41
0.000000
  0
VERTEX
  8
0
  6
CONTINUOUS
 10
3.306600
 20
2.361040
  0
VERTEX
  8
0
  6
CONTINUOUS
 10
3.314080
 20
3.098040
  0
VERTEX
  8
0
  6
CONTINUOUS
 10
4.203760
 20
3.098040
  0
VERTEX
  8
0
  6
CONTINUOUS
 10
4.196280
 20
2.361040
  0
VERTEX
  8
0
  6
CONTINUOUS
 10
3.306600
 20
2.361040
  0
SEQEND
  8
0
  0
SOLID
  8
0
 62
    15
 10
4.196280
 20
2.361040
 11
4.203760
 21
3.098040
 12
4.846160
 22
2.013440
 13
4.853640
 23
2.750000
  0
POLYLINE
  8
0
  6
CONTINUOUS
 66
     1
 40
0.000000
 41
0.000000
  0
VERTEX
  8
0
  6
CONTINUOUS
 10
4.196280
 20
2.361040
  0
VERTEX
  8
0
  6
CONTINUOUS
 10
4.203760
 20
3.098040
  0
VERTEX
  8
0
  6
CONTINUOUS
 10
4.853640
 20
2.750000
  0
VERTEX
  8
0
  6
CONTINUOUS
 10
4.846160
 20
2.013440
  0
VERTEX
  8
0
  6
CONTINUOUS
 10
4.196280
 20
2.361040
  0
SEQEND
  8
0
  0
SOLID
  8
0
 62
    15
 10
6.269120
 20
2.013440
 11
6.276600
 21
2.750000
 12
6.269120
 22
1.863400
 13
6.276600
 23
2.600400
  0
POLYLINE
  8
0
  6
CONTINUOUS
 66
     1
 40
0.000000
 41
0.000000
  0
VERTEX
  8
0
  6
CONTINUOUS
 10
6.269120
 20
2.013440
  0
VERTEX
  8
0
  6
CONTINUOUS
 10
6.276600
 20
2.750000
  0
VERTEX
  8
0
  6
CONTINUOUS
 10
6.276600
 20
2.600400
  0
VERTEX
  8
0
  6
CONTINUOUS
 10
6.269120
 20
1.863400
  0
VERTEX
  8
0
  6
CONTINUOUS
 10
6.269120
 20
2.013440
  0
SEQEND
  8
0
  0
SOLID
  8
0
 62
    15
 10
7.590000
 20
1.590160
 11
7.597480
 21
2.327160
 12
7.590000
 22
1.354760
 13
7.597480
 23
2.091760
  0
POLYLINE
  8
0
  6
CONTINUOUS
 66
     1
 40
0.000000
 41
0.000000
  0
VERTEX
  8
0
  6
CONTINUOUS
 10
7.590000
 20
1.590160
  0
VERTEX
  8
0
  6
CONTINUOUS
 10
7.597480
 20
2.327160
  0
VERTEX
  8
0
  6
CONTINUOUS
 10
7.597480
 20
2.091760
  0
VERTEX
  8
0
  6
CONTINUOUS
 10
7.590000
 20
1.354760
  0
VERTEX
  8
0
  6
CONTINUOUS
 10
7.590000
 20
1.590160
  0
SEQEND
  8
0
  0
SOLID
  8
0
 62
    15
 10
4.846160
 20
2.013440
 11
4.853640
 21
2.750000
 12
6.269120
 22
2.013440
 13
6.276600
 23
2.750000
  0
POLYLINE
  8
0
  6
CONTINUOUS
 66
     1
 40
0.000000
 41
0.000000
  0
VERTEX
  8
0
  6
CONTINUOUS
 10
4.846160
 20
2.013440
  0
VERTEX
  8
0
  6
CONTINUOUS
 10
4.853640
 20
2.750000
  0
VERTEX
  8
0
  6
CONTINUOUS
 10
6.276600
 20
2.750000
  0
VERTEX
  8
0
  6
CONTINUOUS
 10
6.269120
 20
2.013440
  0
VERTEX
  8
0
  6
CONTINUOUS
 10
4.846160
 20
2.013440
  0
SEQEND
  8
0
  0
SOLID
  8
0
 62
    15
 10
7.161000
 20
1.863400
 11
7.168040
 21
2.600400
 12
7.167160
 22
1.859000
 13
7.174200
 23
2.596000
  0
POLYLINE
  8
0
  6
CONTINUOUS
 66
     1
 40
0.000000
 41
0.000000
  0
VERTEX
  8
0
  6
CONTINUOUS
 10
7.161000
 20
1.863400
  0
VERTEX
  8
0
  6
CONTINUOUS
 10
7.168040
 20
2.600400
  0
VERTEX
  8
0
  6
CONTINUOUS
 10
7.174200
 20
2.596000
  0
VERTEX
  8
0
  6
CONTINUOUS
 10
7.167160
 20
1.859000
  0
VERTEX
  8
0
  6
CONTINUOUS
 10
7.161000
 20
1.863400
  0
SEQEND
  8
0
  0
SOLID
  8
0
 62
    15
 10
7.587800
 20
1.598520
 11
7.595280
 21
2.335520
 12
7.590000
 22
1.590160
 13
7.597480
 23
2.327160
  0
POLYLINE
  8
0
  6
CONTINUOUS
 66
     1
 40
0.000000
 41
0.000000
  0
VERTEX
  8
0
  6
CONTINUOUS
 10
7.587800
 20
1.598520
  0
VERTEX
  8
0
  6
CONTINUOUS
 10
7.595280
 20
2.335520
  0
VERTEX
  8
0
  6
CONTINUOUS
 10
7.597480
 20
2.327160
  0
VERTEX
  8
0
  6
CONTINUOUS
 10
7.590000
 20
1.590160
  0
VERTEX
  8
0
  6
CONTINUOUS
 10
7.587800
 20
1.598520
  0
SEQEND
  8
0
  0
SOLID
  8
0
 62
    15
 10
7.167160
 20
1.859000
 11
7.174200
 21
2.596000
 12
7.587800
 22
1.598520
 13
7.595280
 23
2.335520
  0
POLYLINE
  8
0
  6
CONTINUOUS
 66
     1
 40
0.000000
 41
0.000000
  0
VERTEX
  8
0
  6
CONTINUOUS
 10
7.167160
 20
1.859000
  0
VERTEX
  8
0
  6
CONTINUOUS
 10
7.174200
 20
2.596000
  0
VERTEX
  8
0
  6
CONTINUOUS
 10
7.595280
 20
2.335520
  0
VERTEX
  8
0
  6
CONTINUOUS
 10
7.587800
 20
1.598520
  0
VERTEX
  8
0
  6
CONTINUOUS
 10
7.167160
 20
1.859000
  0
SEQEND
  8
0
  0
POLYLINE
  8
0
  6
CONTINUOUS
 66
     1
 40
0.000000
 41
0.000000
  0
VERTEX
  8
0
  6
CONTINUOUS
 10
7.590000
 20
1.590160
  0
VERTEX
  8
0
  6
CONTINUOUS
 10
7.590000
 20
1.354760
  0
VERTEX
  8
0
  6
CONTINUOUS
 10
3.308800
 20
1.353000
  0
VERTEX
  8
0
  6
CONTINUOUS
 10
3.306600
 20
2.361040
  0
VERTEX
  8
0
  6
CONTINUOUS
 10
4.196280
 20
2.361040
  0
VERTEX
  8
0
  6
CONTINUOUS
 10
4.846160
 20
2.013440
  0
VERTEX
  8
0
  6
CONTINUOUS
 10
6.269120
 20
2.013440
  0
VERTEX
  8
0
  6
CONTINUOUS
 10
6.269120
 20
1.863400
  0
VERTEX
  8
0
  6
CONTINUOUS
 10
7.161000
 20
1.863400
  0
VERTEX
  8
0
  6
CONTINUOUS
 10
7.167160
 20
1.859000
  0
VERTEX
  8
0
  6
CONTINUOUS
 10
7.587800
 20
1.598520
  0
VERTEX
  8
0
  6
CONTINUOUS
 10
7.590000
 20
1.590160
  0
SEQEND
  8
0
  0
TEXT
  8
0
 10
5.104440
 20
1.125080
 40
0.138051
  1
BA  653
 41
1.000000
  7
SN0
 71
     0
 72
     5
 11
5.693857
 21
1.125080
  0
TEXT
  8
0
 10
4.971560
 20
0.933240
 40
0.138051
  1
1" x 4-5/16"
 41
1.000000
  7
SN0
 71
     0
 72
     5
 11
5.824357
 21
0.933240
  0
ENDSEC
  0
EOF
