  0
SECTION
  2
HEADER
  9
$ACADVER
  1
AC1006
  9
$EXTMIN
 10
0.805640
 20
1.598960
  9
$EXTMAX
 10
7.734320
 20
7.604520
  9
$LTSCALE
 40
0.044000
  9
$PDMODE
 70
    35
  9
$PDSIZE
 40
0.035200
  0
ENDSEC
  0
SECTION
  2
TABLES
  0
TABLE
  2
LTYPE
 70
     9
  0
LTYPE
  2
CONTINUOUS
 70
    64
  3
Solid line
 72
    65
 73
     0
 40
0.000000
  0
LTYPE
  2
DASHED
 70
    64
  3
__ __ __ __ __ __ __ __ __ __ __ __ __ __ __
 72
    65
 73
     2
 40
0.000330
 49
0.000220
 49
-0.000110
  0
LTYPE
  2
HIDDEN
 70
    64
  3
 _ _ _ _ _ _ _ _ _ _ _ _ _ _ _ _ _ _ _ _ _ _
 72
    65
 73
     2
 40
0.000165
 49
0.000110
 49
-0.000055
  0
LTYPE
  2
CENTER
 70
    64
  3
____ _ ____ _ ____ _ ____ _ ____ _ ____ _ ____
 72
    65
 73
     4
 40
0.000880
 49
0.000550
 49
-0.000110
 49
0.000110
 49
-0.000110
  0
LTYPE
  2
PHANTOM
 70
    64
  3
_____ _ _ _____ _ _ _____ _ _ _____ _ _ ____
 72
    65
 73
     6
 40
0.001100
 49
0.000550
 49
-0.000110
 49
0.000110
 49
-0.000110
 49
0.000110
 49
-0.000110
  0
LTYPE
  2
DOT
 70
    64
  3
...............................................
 72
    65
 73
     2
 40
0.000110
 49
0.000000
 49
-0.000110
  0
LTYPE
  2
DASHDOT
 70
    64
  3
__ . __ . __ . __ . __ . __ . __ . __ . __ . __
 72
    65
 73
     4
 40
0.000440
 49
0.000220
 49
-0.000110
 49
0.000000
 49
-0.000110
  0
LTYPE
  2
BORDER
 70
    64
  3
__ __ . __ __ . __ __ . __ __ . __ __ . __ __
 72
    65
 73
     6
 40
0.000770
 49
0.000220
 49
-0.000110
 49
0.000220
 49
-0.000110
 49
0.000000
 49
-0.000110
  0
LTYPE
  2
DIVIDE
 70
    64
  3
__ . . __ . . __ . . __ . . __ . . __ . . __
 72
    65
 73
     6
 40
0.000550
 49
0.000220
 49
-0.000110
 49
0.000000
 49
-0.000110
 49
0.000000
 49
-0.000110
  0
LTYPE
  2
DOTDOT
 70
    64
  3
 . .  . .  . .  . .  . .  . . 
 72
    65
 73
     5
 40
0.000242
 49
-0.000110
 49
0.000000
 49
-0.000110
 49
0.000000
 49
-0.000110
  0
ENDTAB
  0
TABLE
  2
STYLE
 70
     2
  0
STYLE
 70
     0
  2
SN0
 40
0.000000
 41
0.000440
 50
0.000000
 71
     0
 42
0.000000
  3
ROMAND
  0
STYLE
 70
    68
  2
SV0
 40
0.000000
 41
0.000440
 50
0.000000
 71
     0
 42
0.000000
  3
ROMAND
  0
ENDTAB
  0
TABLE
  2
LAYER
 70
     3
  0
LAYER
  2
FOREGROUND
 70
    64
 62
     7
  6
CONTINUOUS
  0
LAYER
  2
BACKGROUND
 70
    65
 62
    -7
  6
CONTINUOUS
  0
LAYER
  2
0
 70
    64
 62
     7
  6
CONTINUOUS
  0
ENDTAB
  0
ENDSEC
  0
SECTION
  2
ENTITIES
  0
POLYLINE
  8
FOREGROUND
  6
CONTINUOUS
 66
     1
 40
0.000000
 41
0.000000
  0
VERTEX
  8
FOREGROUND
  6
CONTINUOUS
 10
0.000000
 20
9.203480
  0
VERTEX
  8
FOREGROUND
  6
CONTINUOUS
 10
8.499920
 20
9.203480
  0
VERTEX
  8
FOREGROUND
  6
CONTINUOUS
 10
8.499920
 20
-1.796520
  0
VERTEX
  8
FOREGROUND
  6
CONTINUOUS
 10
0.000000
 20
-1.796520
  0
VERTEX
  8
FOREGROUND
  6
CONTINUOUS
 10
0.000000
 20
9.203480
  0
SEQEND
  8
0
  0
POLYLINE
  8
FOREGROUND
  6
CONTINUOUS
 66
     1
 40
0.000000
 41
0.000000
  0
VERTEX
  8
FOREGROUND
  6
CONTINUOUS
 10
0.000000
 20
9.203480
  0
VERTEX
  8
FOREGROUND
  6
CONTINUOUS
 10
8.499920
 20
9.203480
  0
VERTEX
  8
FOREGROUND
  6
CONTINUOUS
 10
8.499920
 20
-1.796520
  0
VERTEX
  8
FOREGROUND
  6
CONTINUOUS
 10
0.000000
 20
-1.796520
  0
VERTEX
  8
FOREGROUND
  6
CONTINUOUS
 10
0.000000
 20
9.203480
  0
SEQEND
  8
0
  0
SOLID
  8
0
 62
    15
 10
7.092800
 20
6.548960
 11
7.723320
 21
6.907120
 12
7.070800
 22
6.478560
 13
7.701320
 23
6.836720
  0
POLYLINE
  8
0
  6
CONTINUOUS
 66
     1
 40
0.000000
 41
0.000000
  0
VERTEX
  8
0
  6
CONTINUOUS
 10
7.092800
 20
6.548960
  0
VERTEX
  8
0
  6
CONTINUOUS
 10
7.723320
 20
6.907120
  0
VERTEX
  8
0
  6
CONTINUOUS
 10
7.701320
 20
6.836720
  0
VERTEX
  8
0
  6
CONTINUOUS
 10
7.070800
 20
6.478560
  0
VERTEX
  8
0
  6
CONTINUOUS
 10
7.092800
 20
6.548960
  0
SEQEND
  8
0
  0
SOLID
  8
0
 62
    15
 10
1.004080
 20
6.938800
 11
1.634600
 21
7.297400
 12
1.068320
 22
6.973560
 13
1.698840
 23
7.332160
  0
POLYLINE
  8
0
  6
CONTINUOUS
 66
     1
 40
0.000000
 41
0.000000
  0
VERTEX
  8
0
  6
CONTINUOUS
 10
1.004080
 20
6.938800
  0
VERTEX
  8
0
  6
CONTINUOUS
 10
1.634600
 20
7.297400
  0
VERTEX
  8
0
  6
CONTINUOUS
 10
1.698840
 20
7.332160
  0
VERTEX
  8
0
  6
CONTINUOUS
 10
1.068320
 20
6.973560
  0
VERTEX
  8
0
  6
CONTINUOUS
 10
1.004080
 20
6.938800
  0
SEQEND
  8
0
  0
SOLID
  8
0
 62
    15
 10
6.094880
 20
7.245480
 11
6.725400
 21
7.603640
 12
6.098840
 22
7.242840
 13
6.729360
 23
7.601440
  0
POLYLINE
  8
0
  6
CONTINUOUS
 66
     1
 40
0.000000
 41
0.000000
  0
VERTEX
  8
0
  6
CONTINUOUS
 10
6.094880
 20
7.245480
  0
VERTEX
  8
0
  6
CONTINUOUS
 10
6.725400
 20
7.603640
  0
VERTEX
  8
0
  6
CONTINUOUS
 10
6.729360
 20
7.601440
  0
VERTEX
  8
0
  6
CONTINUOUS
 10
6.098840
 20
7.242840
  0
VERTEX
  8
0
  6
CONTINUOUS
 10
6.094880
 20
7.245480
  0
SEQEND
  8
0
  0
SOLID
  8
0
 62
    15
 10
6.098840
 20
7.242840
 11
6.729360
 21
7.601440
 12
6.098840
 22
7.101160
 13
6.729360
 23
7.459760
  0
POLYLINE
  8
0
  6
CONTINUOUS
 66
     1
 40
0.000000
 41
0.000000
  0
VERTEX
  8
0
  6
CONTINUOUS
 10
6.098840
 20
7.242840
  0
VERTEX
  8
0
  6
CONTINUOUS
 10
6.729360
 20
7.601440
  0
VERTEX
  8
0
  6
CONTINUOUS
 10
6.729360
 20
7.459760
  0
VERTEX
  8
0
  6
CONTINUOUS
 10
6.098840
 20
7.101160
  0
VERTEX
  8
0
  6
CONTINUOUS
 10
6.098840
 20
7.242840
  0
SEQEND
  8
0
  0
SOLID
  8
0
 62
    15
 10
6.098840
 20
7.101160
 11
6.729360
 21
7.459760
 12
6.721440
 22
7.101160
 13
7.351960
 23
7.459760
  0
POLYLINE
  8
0
  6
CONTINUOUS
 66
     1
 40
0.000000
 41
0.000000
  0
VERTEX
  8
0
  6
CONTINUOUS
 10
6.098840
 20
7.101160
  0
VERTEX
  8
0
  6
CONTINUOUS
 10
6.729360
 20
7.459760
  0
VERTEX
  8
0
  6
CONTINUOUS
 10
7.351960
 20
7.459760
  0
VERTEX
  8
0
  6
CONTINUOUS
 10
6.721440
 20
7.101160
  0
VERTEX
  8
0
  6
CONTINUOUS
 10
6.098840
 20
7.101160
  0
SEQEND
  8
0
  0
SOLID
  8
0
 62
    15
 10
6.721440
 20
7.101160
 11
7.351960
 21
7.459760
 12
6.721440
 22
7.001280
 13
7.351960
 23
7.359880
  0
POLYLINE
  8
0
  6
CONTINUOUS
 66
     1
 40
0.000000
 41
0.000000
  0
VERTEX
  8
0
  6
CONTINUOUS
 10
6.721440
 20
7.101160
  0
VERTEX
  8
0
  6
CONTINUOUS
 10
7.351960
 20
7.459760
  0
VERTEX
  8
0
  6
CONTINUOUS
 10
7.351960
 20
7.359880
  0
VERTEX
  8
0
  6
CONTINUOUS
 10
6.721440
 20
7.001280
  0
VERTEX
  8
0
  6
CONTINUOUS
 10
6.721440
 20
7.101160
  0
SEQEND
  8
0
  0
SOLID
  8
0
 62
    15
 10
6.721440
 20
7.001280
 11
7.351960
 21
7.359880
 12
6.723640
 22
7.001280
 13
7.354160
 23
7.359880
  0
POLYLINE
  8
0
  6
CONTINUOUS
 66
     1
 40
0.000000
 41
0.000000
  0
VERTEX
  8
0
  6
CONTINUOUS
 10
6.721440
 20
7.001280
  0
VERTEX
  8
0
  6
CONTINUOUS
 10
7.351960
 20
7.359880
  0
VERTEX
  8
0
  6
CONTINUOUS
 10
7.354160
 20
7.359880
  0
VERTEX
  8
0
  6
CONTINUOUS
 10
6.723640
 20
7.001280
  0
VERTEX
  8
0
  6
CONTINUOUS
 10
6.721440
 20
7.001280
  0
SEQEND
  8
0
  0
SOLID
  8
0
 62
    15
 10
6.723640
 20
7.001280
 11
7.354160
 21
7.359880
 12
6.798880
 22
6.993800
 13
7.429400
 23
7.351960
  0
POLYLINE
  8
0
  6
CONTINUOUS
 66
     1
 40
0.000000
 41
0.000000
  0
VERTEX
  8
0
  6
CONTINUOUS
 10
6.723640
 20
7.001280
  0
VERTEX
  8
0
  6
CONTINUOUS
 10
7.354160
 20
7.359880
  0
VERTEX
  8
0
  6
CONTINUOUS
 10
7.429400
 20
7.351960
  0
VERTEX
  8
0
  6
CONTINUOUS
 10
6.798880
 20
6.993800
  0
VERTEX
  8
0
  6
CONTINUOUS
 10
6.723640
 20
7.001280
  0
SEQEND
  8
0
  0
SOLID
  8
0
 62
    15
 10
6.251080
 20
6.622000
 11
6.882040
 21
6.980600
 12
6.228200
 22
6.249320
 13
6.858720
 23
6.607480
  0
POLYLINE
  8
0
  6
CONTINUOUS
 66
     1
 40
0.000000
 41
0.000000
  0
VERTEX
  8
0
  6
CONTINUOUS
 10
6.251080
 20
6.622000
  0
VERTEX
  8
0
  6
CONTINUOUS
 10
6.882040
 20
6.980600
  0
VERTEX
  8
0
  6
CONTINUOUS
 10
6.858720
 20
6.607480
  0
VERTEX
  8
0
  6
CONTINUOUS
 10
6.228200
 20
6.249320
  0
VERTEX
  8
0
  6
CONTINUOUS
 10
6.251080
 20
6.622000
  0
SEQEND
  8
0
  0
SOLID
  8
0
 62
    15
 10
6.869280
 20
6.971360
 11
7.500240
 21
7.329960
 12
6.933520
 22
6.936600
 13
7.564040
 23
7.294760
  0
POLYLINE
  8
0
  6
CONTINUOUS
 66
     1
 40
0.000000
 41
0.000000
  0
VERTEX
  8
0
  6
CONTINUOUS
 10
6.869280
 20
6.971360
  0
VERTEX
  8
0
  6
CONTINUOUS
 10
7.500240
 20
7.329960
  0
VERTEX
  8
0
  6
CONTINUOUS
 10
7.564040
 20
7.294760
  0
VERTEX
  8
0
  6
CONTINUOUS
 10
6.933520
 20
6.936600
  0
VERTEX
  8
0
  6
CONTINUOUS
 10
6.869280
 20
6.971360
  0
SEQEND
  8
0
  0
SOLID
  8
0
 62
    15
 10
6.933520
 20
6.936600
 11
7.564040
 21
7.294760
 12
6.989400
 22
6.889960
 13
7.619920
 23
7.248560
  0
POLYLINE
  8
0
  6
CONTINUOUS
 66
     1
 40
0.000000
 41
0.000000
  0
VERTEX
  8
0
  6
CONTINUOUS
 10
6.933520
 20
6.936600
  0
VERTEX
  8
0
  6
CONTINUOUS
 10
7.564040
 20
7.294760
  0
VERTEX
  8
0
  6
CONTINUOUS
 10
7.619920
 20
7.248560
  0
VERTEX
  8
0
  6
CONTINUOUS
 10
6.989400
 20
6.889960
  0
VERTEX
  8
0
  6
CONTINUOUS
 10
6.933520
 20
6.936600
  0
SEQEND
  8
0
  0
SOLID
  8
0
 62
    15
 10
6.989400
 20
6.889960
 11
7.619920
 21
7.248560
 12
7.035600
 22
6.834080
 13
7.666120
 23
7.192680
  0
POLYLINE
  8
0
  6
CONTINUOUS
 66
     1
 40
0.000000
 41
0.000000
  0
VERTEX
  8
0
  6
CONTINUOUS
 10
6.989400
 20
6.889960
  0
VERTEX
  8
0
  6
CONTINUOUS
 10
7.619920
 20
7.248560
  0
VERTEX
  8
0
  6
CONTINUOUS
 10
7.666120
 20
7.192680
  0
VERTEX
  8
0
  6
CONTINUOUS
 10
7.035600
 20
6.834080
  0
VERTEX
  8
0
  6
CONTINUOUS
 10
6.989400
 20
6.889960
  0
SEQEND
  8
0
  0
SOLID
  8
0
 62
    15
 10
7.035600
 20
6.834080
 11
7.666120
 21
7.192680
 12
7.070800
 22
6.770280
 13
7.701320
 23
7.128440
  0
POLYLINE
  8
0
  6
CONTINUOUS
 66
     1
 40
0.000000
 41
0.000000
  0
VERTEX
  8
0
  6
CONTINUOUS
 10
7.035600
 20
6.834080
  0
VERTEX
  8
0
  6
CONTINUOUS
 10
7.666120
 20
7.192680
  0
VERTEX
  8
0
  6
CONTINUOUS
 10
7.701320
 20
7.128440
  0
VERTEX
  8
0
  6
CONTINUOUS
 10
7.070800
 20
6.770280
  0
VERTEX
  8
0
  6
CONTINUOUS
 10
7.035600
 20
6.834080
  0
SEQEND
  8
0
  0
SOLID
  8
0
 62
    15
 10
7.070800
 20
6.770280
 11
7.701320
 21
7.128440
 12
7.092800
 22
6.699880
 13
7.723320
 23
7.058040
  0
POLYLINE
  8
0
  6
CONTINUOUS
 66
     1
 40
0.000000
 41
0.000000
  0
VERTEX
  8
0
  6
CONTINUOUS
 10
7.070800
 20
6.770280
  0
VERTEX
  8
0
  6
CONTINUOUS
 10
7.701320
 20
7.128440
  0
VERTEX
  8
0
  6
CONTINUOUS
 10
7.723320
 20
7.058040
  0
VERTEX
  8
0
  6
CONTINUOUS
 10
7.092800
 20
6.699880
  0
VERTEX
  8
0
  6
CONTINUOUS
 10
7.070800
 20
6.770280
  0
SEQEND
  8
0
  0
SOLID
  8
0
 62
    15
 10
7.100720
 20
6.624200
 11
7.731240
 21
6.982800
 12
7.092800
 22
6.548960
 13
7.723320
 23
6.907120
  0
POLYLINE
  8
0
  6
CONTINUOUS
 66
     1
 40
0.000000
 41
0.000000
  0
VERTEX
  8
0
  6
CONTINUOUS
 10
7.100720
 20
6.624200
  0
VERTEX
  8
0
  6
CONTINUOUS
 10
7.731240
 20
6.982800
  0
VERTEX
  8
0
  6
CONTINUOUS
 10
7.723320
 20
6.907120
  0
VERTEX
  8
0
  6
CONTINUOUS
 10
7.092800
 20
6.548960
  0
VERTEX
  8
0
  6
CONTINUOUS
 10
7.100720
 20
6.624200
  0
SEQEND
  8
0
  0
SOLID
  8
0
 62
    15
 10
7.092800
 20
6.699880
 11
7.723320
 21
7.058040
 12
7.100720
 22
6.624200
 13
7.731240
 23
6.982800
  0
POLYLINE
  8
0
  6
CONTINUOUS
 66
     1
 40
0.000000
 41
0.000000
  0
VERTEX
  8
0
  6
CONTINUOUS
 10
7.092800
 20
6.699880
  0
VERTEX
  8
0
  6
CONTINUOUS
 10
7.723320
 20
7.058040
  0
VERTEX
  8
0
  6
CONTINUOUS
 10
7.731240
 20
6.982800
  0
VERTEX
  8
0
  6
CONTINUOUS
 10
7.100720
 20
6.624200
  0
VERTEX
  8
0
  6
CONTINUOUS
 10
7.092800
 20
6.699880
  0
SEQEND
  8
0
  0
SOLID
  8
0
 62
    15
 10
1.068320
 20
6.973560
 11
1.698840
 21
7.332160
 12
1.138720
 22
6.996000
 13
1.769240
 23
7.354160
  0
POLYLINE
  8
0
  6
CONTINUOUS
 66
     1
 40
0.000000
 41
0.000000
  0
VERTEX
  8
0
  6
CONTINUOUS
 10
1.068320
 20
6.973560
  0
VERTEX
  8
0
  6
CONTINUOUS
 10
1.698840
 20
7.332160
  0
VERTEX
  8
0
  6
CONTINUOUS
 10
1.769240
 20
7.354160
  0
VERTEX
  8
0
  6
CONTINUOUS
 10
1.138720
 20
6.996000
  0
VERTEX
  8
0
  6
CONTINUOUS
 10
1.068320
 20
6.973560
  0
SEQEND
  8
0
  0
SOLID
  8
0
 62
    15
 10
7.070800
 20
6.478560
 11
7.701320
 21
6.836720
 12
7.035600
 22
6.414320
 13
7.666120
 23
6.772920
  0
POLYLINE
  8
0
  6
CONTINUOUS
 66
     1
 40
0.000000
 41
0.000000
  0
VERTEX
  8
0
  6
CONTINUOUS
 10
7.070800
 20
6.478560
  0
VERTEX
  8
0
  6
CONTINUOUS
 10
7.701320
 20
6.836720
  0
VERTEX
  8
0
  6
CONTINUOUS
 10
7.666120
 20
6.772920
  0
VERTEX
  8
0
  6
CONTINUOUS
 10
7.035600
 20
6.414320
  0
VERTEX
  8
0
  6
CONTINUOUS
 10
7.070800
 20
6.478560
  0
SEQEND
  8
0
  0
SOLID
  8
0
 62
    15
 10
7.035600
 20
6.414320
 11
7.666120
 21
6.772920
 12
6.989400
 22
6.358440
 13
7.619920
 23
6.717040
  0
POLYLINE
  8
0
  6
CONTINUOUS
 66
     1
 40
0.000000
 41
0.000000
  0
VERTEX
  8
0
  6
CONTINUOUS
 10
7.035600
 20
6.414320
  0
VERTEX
  8
0
  6
CONTINUOUS
 10
7.666120
 20
6.772920
  0
VERTEX
  8
0
  6
CONTINUOUS
 10
7.619920
 20
6.717040
  0
VERTEX
  8
0
  6
CONTINUOUS
 10
6.989400
 20
6.358440
  0
VERTEX
  8
0
  6
CONTINUOUS
 10
7.035600
 20
6.414320
  0
SEQEND
  8
0
  0
SOLID
  8
0
 62
    15
 10
6.989400
 20
6.358440
 11
7.619920
 21
6.717040
 12
6.933520
 22
6.312240
 13
7.564040
 23
6.670400
  0
POLYLINE
  8
0
  6
CONTINUOUS
 66
     1
 40
0.000000
 41
0.000000
  0
VERTEX
  8
0
  6
CONTINUOUS
 10
6.989400
 20
6.358440
  0
VERTEX
  8
0
  6
CONTINUOUS
 10
7.619920
 20
6.717040
  0
VERTEX
  8
0
  6
CONTINUOUS
 10
7.564040
 20
6.670400
  0
VERTEX
  8
0
  6
CONTINUOUS
 10
6.933520
 20
6.312240
  0
VERTEX
  8
0
  6
CONTINUOUS
 10
6.989400
 20
6.358440
  0
SEQEND
  8
0
  0
SOLID
  8
0
 62
    15
 10
6.346560
 20
6.624200
 11
6.977080
 21
6.982800
 12
6.344360
 22
6.622000
 13
6.974880
 23
6.980600
  0
POLYLINE
  8
0
  6
CONTINUOUS
 66
     1
 40
0.000000
 41
0.000000
  0
VERTEX
  8
0
  6
CONTINUOUS
 10
6.346560
 20
6.624200
  0
VERTEX
  8
0
  6
CONTINUOUS
 10
6.977080
 20
6.982800
  0
VERTEX
  8
0
  6
CONTINUOUS
 10
6.974880
 20
6.980600
  0
VERTEX
  8
0
  6
CONTINUOUS
 10
6.344360
 20
6.622000
  0
VERTEX
  8
0
  6
CONTINUOUS
 10
6.346560
 20
6.624200
  0
SEQEND
  8
0
  0
SOLID
  8
0
 62
    15
 10
6.798880
 20
6.993800
 11
7.429400
 21
7.351960
 12
6.869280
 22
6.971360
 13
7.500240
 23
7.329960
  0
POLYLINE
  8
0
  6
CONTINUOUS
 66
     1
 40
0.000000
 41
0.000000
  0
VERTEX
  8
0
  6
CONTINUOUS
 10
6.798880
 20
6.993800
  0
VERTEX
  8
0
  6
CONTINUOUS
 10
7.429400
 20
7.351960
  0
VERTEX
  8
0
  6
CONTINUOUS
 10
7.500240
 20
7.329960
  0
VERTEX
  8
0
  6
CONTINUOUS
 10
6.869280
 20
6.971360
  0
VERTEX
  8
0
  6
CONTINUOUS
 10
6.798880
 20
6.993800
  0
SEQEND
  8
0
  0
SOLID
  8
0
 62
     7
 10
6.228200
 20
6.249320
 11
6.858720
 21
6.607480
 12
6.229960
 22
6.249320
 13
6.860480
 23
6.607920
  0
POLYLINE
  8
0
  6
CONTINUOUS
 66
     1
 40
0.000000
 41
0.000000
  0
VERTEX
  8
0
  6
CONTINUOUS
 10
6.228200
 20
6.249320
  0
VERTEX
  8
0
  6
CONTINUOUS
 10
6.858720
 20
6.607480
  0
VERTEX
  8
0
  6
CONTINUOUS
 10
6.860480
 20
6.607920
  0
VERTEX
  8
0
  6
CONTINUOUS
 10
6.229960
 20
6.249320
  0
VERTEX
  8
0
  6
CONTINUOUS
 10
6.228200
 20
6.249320
  0
SEQEND
  8
0
  0
SOLID
  8
0
 62
    15
 10
1.591040
 20
6.626400
 11
2.221560
 21
6.985000
 12
1.583560
 22
6.551160
 13
2.214080
 23
6.909760
  0
POLYLINE
  8
0
  6
CONTINUOUS
 66
     1
 40
0.000000
 41
0.000000
  0
VERTEX
  8
0
  6
CONTINUOUS
 10
1.591040
 20
6.626400
  0
VERTEX
  8
0
  6
CONTINUOUS
 10
2.221560
 20
6.985000
  0
VERTEX
  8
0
  6
CONTINUOUS
 10
2.214080
 20
6.909760
  0
VERTEX
  8
0
  6
CONTINUOUS
 10
1.583560
 20
6.551160
  0
VERTEX
  8
0
  6
CONTINUOUS
 10
1.591040
 20
6.626400
  0
SEQEND
  8
0
  0
SOLID
  8
0
 62
    15
 10
1.583560
 20
6.551160
 11
2.214080
 21
6.909760
 12
1.561120
 22
6.480760
 13
2.191640
 23
6.838920
  0
POLYLINE
  8
0
  6
CONTINUOUS
 66
     1
 40
0.000000
 41
0.000000
  0
VERTEX
  8
0
  6
CONTINUOUS
 10
1.583560
 20
6.551160
  0
VERTEX
  8
0
  6
CONTINUOUS
 10
2.214080
 20
6.909760
  0
VERTEX
  8
0
  6
CONTINUOUS
 10
2.191640
 20
6.838920
  0
VERTEX
  8
0
  6
CONTINUOUS
 10
1.561120
 20
6.480760
  0
VERTEX
  8
0
  6
CONTINUOUS
 10
1.583560
 20
6.551160
  0
SEQEND
  8
0
  0
SOLID
  8
0
 62
    15
 10
1.561120
 20
6.480760
 11
2.191640
 21
6.838920
 12
1.526360
 22
6.416520
 13
2.156880
 23
6.775120
  0
POLYLINE
  8
0
  6
CONTINUOUS
 66
     1
 40
0.000000
 41
0.000000
  0
VERTEX
  8
0
  6
CONTINUOUS
 10
1.561120
 20
6.480760
  0
VERTEX
  8
0
  6
CONTINUOUS
 10
2.191640
 20
6.838920
  0
VERTEX
  8
0
  6
CONTINUOUS
 10
2.156880
 20
6.775120
  0
VERTEX
  8
0
  6
CONTINUOUS
 10
1.526360
 20
6.416520
  0
VERTEX
  8
0
  6
CONTINUOUS
 10
1.561120
 20
6.480760
  0
SEQEND
  8
0
  0
SOLID
  8
0
 62
    15
 10
1.526360
 20
6.416520
 11
2.156880
 21
6.775120
 12
1.479720
 22
6.360640
 13
2.110680
 23
6.719240
  0
POLYLINE
  8
0
  6
CONTINUOUS
 66
     1
 40
0.000000
 41
0.000000
  0
VERTEX
  8
0
  6
CONTINUOUS
 10
1.526360
 20
6.416520
  0
VERTEX
  8
0
  6
CONTINUOUS
 10
2.156880
 20
6.775120
  0
VERTEX
  8
0
  6
CONTINUOUS
 10
2.110680
 20
6.719240
  0
VERTEX
  8
0
  6
CONTINUOUS
 10
1.479720
 20
6.360640
  0
VERTEX
  8
0
  6
CONTINUOUS
 10
1.526360
 20
6.416520
  0
SEQEND
  8
0
  0
SOLID
  8
0
 62
    15
 10
1.479720
 20
6.360640
 11
2.110680
 21
6.719240
 12
1.423840
 22
6.314440
 13
2.054360
 23
6.673040
  0
POLYLINE
  8
0
  6
CONTINUOUS
 66
     1
 40
0.000000
 41
0.000000
  0
VERTEX
  8
0
  6
CONTINUOUS
 10
1.479720
 20
6.360640
  0
VERTEX
  8
0
  6
CONTINUOUS
 10
2.110680
 20
6.719240
  0
VERTEX
  8
0
  6
CONTINUOUS
 10
2.054360
 20
6.673040
  0
VERTEX
  8
0
  6
CONTINUOUS
 10
1.423840
 20
6.314440
  0
VERTEX
  8
0
  6
CONTINUOUS
 10
1.479720
 20
6.360640
  0
SEQEND
  8
0
  0
SOLID
  8
0
 62
    15
 10
1.138720
 20
6.996000
 11
1.769240
 21
7.354160
 12
1.213960
 22
7.003480
 13
1.844480
 23
7.362080
  0
POLYLINE
  8
0
  6
CONTINUOUS
 66
     1
 40
0.000000
 41
0.000000
  0
VERTEX
  8
0
  6
CONTINUOUS
 10
1.138720
 20
6.996000
  0
VERTEX
  8
0
  6
CONTINUOUS
 10
1.769240
 20
7.354160
  0
VERTEX
  8
0
  6
CONTINUOUS
 10
1.844480
 20
7.362080
  0
VERTEX
  8
0
  6
CONTINUOUS
 10
1.213960
 20
7.003480
  0
VERTEX
  8
0
  6
CONTINUOUS
 10
1.138720
 20
6.996000
  0
SEQEND
  8
0
  0
SOLID
  8
0
 62
    15
 10
1.213960
 20
7.003480
 11
1.844480
 21
7.362080
 12
1.216160
 22
7.003480
 13
1.846680
 23
7.362080
  0
POLYLINE
  8
0
  6
CONTINUOUS
 66
     1
 40
0.000000
 41
0.000000
  0
VERTEX
  8
0
  6
CONTINUOUS
 10
1.213960
 20
7.003480
  0
VERTEX
  8
0
  6
CONTINUOUS
 10
1.844480
 20
7.362080
  0
VERTEX
  8
0
  6
CONTINUOUS
 10
1.846680
 20
7.362080
  0
VERTEX
  8
0
  6
CONTINUOUS
 10
1.216160
 20
7.003480
  0
VERTEX
  8
0
  6
CONTINUOUS
 10
1.213960
 20
7.003480
  0
SEQEND
  8
0
  0
SOLID
  8
0
 62
    15
 10
1.216160
 20
7.103800
 11
1.846680
 21
7.461960
 12
1.839200
 22
7.103800
 13
2.469720
 23
7.461960
  0
POLYLINE
  8
0
  6
CONTINUOUS
 66
     1
 40
0.000000
 41
0.000000
  0
VERTEX
  8
0
  6
CONTINUOUS
 10
1.216160
 20
7.103800
  0
VERTEX
  8
0
  6
CONTINUOUS
 10
1.846680
 20
7.461960
  0
VERTEX
  8
0
  6
CONTINUOUS
 10
2.469720
 20
7.461960
  0
VERTEX
  8
0
  6
CONTINUOUS
 10
1.839200
 20
7.103800
  0
VERTEX
  8
0
  6
CONTINUOUS
 10
1.216160
 20
7.103800
  0
SEQEND
  8
0
  0
SOLID
  8
0
 62
    15
 10
1.839200
 20
7.245480
 11
2.469720
 21
7.603640
 12
6.094880
 22
7.245480
 13
6.725400
 23
7.603640
  0
POLYLINE
  8
0
  6
CONTINUOUS
 66
     1
 40
0.000000
 41
0.000000
  0
VERTEX
  8
0
  6
CONTINUOUS
 10
1.839200
 20
7.245480
  0
VERTEX
  8
0
  6
CONTINUOUS
 10
2.469720
 20
7.603640
  0
VERTEX
  8
0
  6
CONTINUOUS
 10
6.725400
 20
7.603640
  0
VERTEX
  8
0
  6
CONTINUOUS
 10
6.094880
 20
7.245480
  0
VERTEX
  8
0
  6
CONTINUOUS
 10
1.839200
 20
7.245480
  0
SEQEND
  8
0
  0
POLYLINE
  8
0
  6
CONTINUOUS
 66
     1
 40
0.000000
 41
0.000000
  0
VERTEX
  8
0
  6
CONTINUOUS
 10
1.216160
 20
7.103800
  0
VERTEX
  8
0
  6
CONTINUOUS
 10
1.839200
 20
7.103800
  0
VERTEX
  8
0
  6
CONTINUOUS
 10
1.839200
 20
7.245480
  0
VERTEX
  8
0
  6
CONTINUOUS
 10
6.094880
 20
7.245480
  0
VERTEX
  8
0
  6
CONTINUOUS
 10
6.098840
 20
7.242840
  0
VERTEX
  8
0
  6
CONTINUOUS
 10
6.098840
 20
7.101160
  0
VERTEX
  8
0
  6
CONTINUOUS
 10
6.721440
 20
7.101160
  0
VERTEX
  8
0
  6
CONTINUOUS
 10
6.721440
 20
7.001280
  0
VERTEX
  8
0
  6
CONTINUOUS
 10
6.798880
 20
6.993800
  0
VERTEX
  8
0
  6
CONTINUOUS
 10
6.869280
 20
6.971360
  0
VERTEX
  8
0
  6
CONTINUOUS
 10
6.933520
 20
6.936600
  0
VERTEX
  8
0
  6
CONTINUOUS
 10
6.989400
 20
6.889960
  0
VERTEX
  8
0
  6
CONTINUOUS
 10
7.035600
 20
6.834080
  0
VERTEX
  8
0
  6
CONTINUOUS
 10
7.070800
 20
6.770280
  0
VERTEX
  8
0
  6
CONTINUOUS
 10
7.092800
 20
6.699880
  0
VERTEX
  8
0
  6
CONTINUOUS
 10
7.100720
 20
6.624200
  0
VERTEX
  8
0
  6
CONTINUOUS
 10
7.092800
 20
6.548960
  0
VERTEX
  8
0
  6
CONTINUOUS
 10
7.070800
 20
6.478560
  0
VERTEX
  8
0
  6
CONTINUOUS
 10
7.035600
 20
6.414320
  0
VERTEX
  8
0
  6
CONTINUOUS
 10
6.989400
 20
6.358440
  0
VERTEX
  8
0
  6
CONTINUOUS
 10
6.933520
 20
6.312240
  0
VERTEX
  8
0
  6
CONTINUOUS
 10
6.869280
 20
6.277040
  0
VERTEX
  8
0
  6
CONTINUOUS
 10
6.798880
 20
6.255040
  0
VERTEX
  8
0
  6
CONTINUOUS
 10
6.723640
 20
6.247120
  0
VERTEX
  8
0
  6
CONTINUOUS
 10
6.647960
 20
6.255040
  0
VERTEX
  8
0
  6
CONTINUOUS
 10
6.577560
 20
6.277040
  0
VERTEX
  8
0
  6
CONTINUOUS
 10
6.513760
 20
6.312240
  0
VERTEX
  8
0
  6
CONTINUOUS
 10
6.457880
 20
6.358440
  0
VERTEX
  8
0
  6
CONTINUOUS
 10
6.411240
 20
6.414320
  0
VERTEX
  8
0
  6
CONTINUOUS
 10
6.376480
 20
6.478560
  0
VERTEX
  8
0
  6
CONTINUOUS
 10
6.354040
 20
6.548960
  0
VERTEX
  8
0
  6
CONTINUOUS
 10
6.346560
 20
6.624200
  0
VERTEX
  8
0
  6
CONTINUOUS
 10
6.344360
 20
6.622000
  0
VERTEX
  8
0
  6
CONTINUOUS
 10
6.251080
 20
6.622000
  0
VERTEX
  8
0
  6
CONTINUOUS
 10
6.228200
 20
6.249320
  0
VERTEX
  8
0
  6
CONTINUOUS
 10
6.229960
 20
6.249320
  0
VERTEX
  8
0
  6
CONTINUOUS
 10
1.705880
 20
6.249320
  0
VERTEX
  8
0
  6
CONTINUOUS
 10
1.684760
 20
6.624640
  0
VERTEX
  8
0
  6
CONTINUOUS
 10
1.593240
 20
6.624640
  0
VERTEX
  8
0
  6
CONTINUOUS
 10
1.591040
 20
6.626400
  0
VERTEX
  8
0
  6
CONTINUOUS
 10
1.583560
 20
6.551160
  0
VERTEX
  8
0
  6
CONTINUOUS
 10
1.561120
 20
6.480760
  0
VERTEX
  8
0
  6
CONTINUOUS
 10
1.526360
 20
6.416520
  0
VERTEX
  8
0
  6
CONTINUOUS
 10
1.479720
 20
6.360640
  0
VERTEX
  8
0
  6
CONTINUOUS
 10
1.423840
 20
6.314440
  0
VERTEX
  8
0
  6
CONTINUOUS
 10
1.360040
 20
6.279240
  0
VERTEX
  8
0
  6
CONTINUOUS
 10
1.289640
 20
6.257240
  0
VERTEX
  8
0
  6
CONTINUOUS
 10
1.213960
 20
6.249320
  0
VERTEX
  8
0
  6
CONTINUOUS
 10
1.138720
 20
6.257240
  0
VERTEX
  8
0
  6
CONTINUOUS
 10
1.068320
 20
6.279240
  0
VERTEX
  8
0
  6
CONTINUOUS
 10
1.004080
 20
6.314440
  0
VERTEX
  8
0
  6
CONTINUOUS
 10
0.948200
 20
6.360640
  0
VERTEX
  8
0
  6
CONTINUOUS
 10
0.902000
 20
6.416520
  0
VERTEX
  8
0
  6
CONTINUOUS
 10
0.866800
 20
6.480760
  0
VERTEX
  8
0
  6
CONTINUOUS
 10
0.844800
 20
6.551160
  0
VERTEX
  8
0
  6
CONTINUOUS
 10
0.836880
 20
6.626400
  0
VERTEX
  8
0
  6
CONTINUOUS
 10
0.844800
 20
6.702080
  0
VERTEX
  8
0
  6
CONTINUOUS
 10
0.866800
 20
6.772480
  0
VERTEX
  8
0
  6
CONTINUOUS
 10
0.902000
 20
6.836720
  0
VERTEX
  8
0
  6
CONTINUOUS
 10
0.948200
 20
6.892600
  0
VERTEX
  8
0
  6
CONTINUOUS
 10
1.004080
 20
6.938800
  0
VERTEX
  8
0
  6
CONTINUOUS
 10
1.068320
 20
6.973560
  0
VERTEX
  8
0
  6
CONTINUOUS
 10
1.138720
 20
6.996000
  0
VERTEX
  8
0
  6
CONTINUOUS
 10
1.216160
 20
7.003480
  0
VERTEX
  8
0
  6
CONTINUOUS
 10
1.216160
 20
7.103800
  0
SEQEND
  8
0
  0
SOLID
  8
0
 62
    15
 10
6.965640
 20
3.338720
 11
7.734320
 21
2.969120
 12
6.064960
 22
3.338720
 13
6.833200
 23
2.969120
  0
POLYLINE
  8
0
  6
CONTINUOUS
 66
     1
 40
0.000000
 41
0.000000
  0
VERTEX
  8
0
  6
CONTINUOUS
 10
6.965640
 20
3.338720
  0
VERTEX
  8
0
  6
CONTINUOUS
 10
7.734320
 20
2.969120
  0
VERTEX
  8
0
  6
CONTINUOUS
 10
6.833200
 20
2.969120
  0
VERTEX
  8
0
  6
CONTINUOUS
 10
6.064960
 20
3.338720
  0
VERTEX
  8
0
  6
CONTINUOUS
 10
6.965640
 20
3.338720
  0
SEQEND
  8
0
  0
SOLID
  8
0
 62
    15
 10
6.965640
 20
5.347320
 11
7.734320
 21
4.978160
 12
6.965640
 22
3.338720
 13
7.734320
 23
2.969120
  0
POLYLINE
  8
0
  6
CONTINUOUS
 66
     1
 40
0.000000
 41
0.000000
  0
VERTEX
  8
0
  6
CONTINUOUS
 10
6.965640
 20
5.347320
  0
VERTEX
  8
0
  6
CONTINUOUS
 10
7.734320
 20
4.978160
  0
VERTEX
  8
0
  6
CONTINUOUS
 10
7.734320
 20
2.969120
  0
VERTEX
  8
0
  6
CONTINUOUS
 10
6.965640
 20
3.338720
  0
VERTEX
  8
0
  6
CONTINUOUS
 10
6.965640
 20
5.347320
  0
SEQEND
  8
0
  0
SOLID
  8
0
 62
     7
 10
6.965640
 20
5.347320
 11
6.965640
 21
3.338720
 12
6.064960
 22
5.347320
 13
6.064960
 23
3.338720
  0
POLYLINE
  8
0
  6
CONTINUOUS
 66
     1
 40
0.000000
 41
0.000000
  0
VERTEX
  8
0
  6
CONTINUOUS
 10
6.965640
 20
5.347320
  0
VERTEX
  8
0
  6
CONTINUOUS
 10
6.965640
 20
3.338720
  0
VERTEX
  8
0
  6
CONTINUOUS
 10
6.064960
 20
3.338720
  0
VERTEX
  8
0
  6
CONTINUOUS
 10
6.064960
 20
5.347320
  0
VERTEX
  8
0
  6
CONTINUOUS
 10
6.965640
 20
5.347320
  0
SEQEND
  8
0
  0
SOLID
  8
0
 62
    15
 10
6.220280
 20
2.860000
 11
6.877640
 21
2.490840
 12
6.197400
 22
2.487320
 13
6.854760
 23
2.118160
  0
POLYLINE
  8
0
  6
CONTINUOUS
 66
     1
 40
0.000000
 41
0.000000
  0
VERTEX
  8
0
  6
CONTINUOUS
 10
6.220280
 20
2.860000
  0
VERTEX
  8
0
  6
CONTINUOUS
 10
6.877640
 20
2.490840
  0
VERTEX
  8
0
  6
CONTINUOUS
 10
6.854760
 20
2.118160
  0
VERTEX
  8
0
  6
CONTINUOUS
 10
6.197400
 20
2.487320
  0
VERTEX
  8
0
  6
CONTINUOUS
 10
6.220280
 20
2.860000
  0
SEQEND
  8
0
  0
SOLID
  8
0
 62
    15
 10
1.560240
 20
2.864400
 11
2.217600
 21
2.495240
 12
1.552320
 22
2.789160
 13
2.209680
 23
2.419560
  0
POLYLINE
  8
0
  6
CONTINUOUS
 66
     1
 40
0.000000
 41
0.000000
  0
VERTEX
  8
0
  6
CONTINUOUS
 10
1.560240
 20
2.864400
  0
VERTEX
  8
0
  6
CONTINUOUS
 10
2.217600
 20
2.495240
  0
VERTEX
  8
0
  6
CONTINUOUS
 10
2.209680
 20
2.419560
  0
VERTEX
  8
0
  6
CONTINUOUS
 10
1.552320
 20
2.789160
  0
VERTEX
  8
0
  6
CONTINUOUS
 10
1.560240
 20
2.864400
  0
SEQEND
  8
0
  0
SOLID
  8
0
 62
    15
 10
6.064080
 20
3.483040
 11
6.721440
 21
3.113880
 12
6.067600
 22
3.480840
 13
6.724960
 23
3.111680
  0
POLYLINE
  8
0
  6
CONTINUOUS
 66
     1
 40
0.000000
 41
0.000000
  0
VERTEX
  8
0
  6
CONTINUOUS
 10
6.064080
 20
3.483040
  0
VERTEX
  8
0
  6
CONTINUOUS
 10
6.721440
 20
3.113880
  0
VERTEX
  8
0
  6
CONTINUOUS
 10
6.724960
 20
3.111680
  0
VERTEX
  8
0
  6
CONTINUOUS
 10
6.067600
 20
3.480840
  0
VERTEX
  8
0
  6
CONTINUOUS
 10
6.064080
 20
3.483040
  0
SEQEND
  8
0
  0
SOLID
  8
0
 62
    15
 10
6.690640
 20
3.339160
 11
7.348000
 21
2.970000
 12
6.690640
 22
3.239280
 13
7.348000
 23
2.870120
  0
POLYLINE
  8
0
  6
CONTINUOUS
 66
     1
 40
0.000000
 41
0.000000
  0
VERTEX
  8
0
  6
CONTINUOUS
 10
6.690640
 20
3.339160
  0
VERTEX
  8
0
  6
CONTINUOUS
 10
7.348000
 20
2.970000
  0
VERTEX
  8
0
  6
CONTINUOUS
 10
7.348000
 20
2.870120
  0
VERTEX
  8
0
  6
CONTINUOUS
 10
6.690640
 20
3.239280
  0
VERTEX
  8
0
  6
CONTINUOUS
 10
6.690640
 20
3.339160
  0
SEQEND
  8
0
  0
SOLID
  8
0
 62
    15
 10
6.902720
 20
3.174600
 11
7.560080
 21
2.805000
 12
6.958600
 22
3.127960
 13
7.615960
 23
2.758800
  0
POLYLINE
  8
0
  6
CONTINUOUS
 66
     1
 40
0.000000
 41
0.000000
  0
VERTEX
  8
0
  6
CONTINUOUS
 10
6.902720
 20
3.174600
  0
VERTEX
  8
0
  6
CONTINUOUS
 10
7.560080
 20
2.805000
  0
VERTEX
  8
0
  6
CONTINUOUS
 10
7.615960
 20
2.758800
  0
VERTEX
  8
0
  6
CONTINUOUS
 10
6.958600
 20
3.127960
  0
VERTEX
  8
0
  6
CONTINUOUS
 10
6.902720
 20
3.174600
  0
SEQEND
  8
0
  0
SOLID
  8
0
 62
    15
 10
6.958600
 20
3.127960
 11
7.615960
 21
2.758800
 12
7.004800
 22
3.072080
 13
7.662160
 23
2.702920
  0
POLYLINE
  8
0
  6
CONTINUOUS
 66
     1
 40
0.000000
 41
0.000000
  0
VERTEX
  8
0
  6
CONTINUOUS
 10
6.958600
 20
3.127960
  0
VERTEX
  8
0
  6
CONTINUOUS
 10
7.615960
 20
2.758800
  0
VERTEX
  8
0
  6
CONTINUOUS
 10
7.662160
 20
2.702920
  0
VERTEX
  8
0
  6
CONTINUOUS
 10
7.004800
 20
3.072080
  0
VERTEX
  8
0
  6
CONTINUOUS
 10
6.958600
 20
3.127960
  0
SEQEND
  8
0
  0
SOLID
  8
0
 62
    15
 10
7.004800
 20
3.072080
 11
7.662160
 21
2.702920
 12
7.040000
 22
3.008280
 13
7.697360
 23
2.638680
  0
POLYLINE
  8
0
  6
CONTINUOUS
 66
     1
 40
0.000000
 41
0.000000
  0
VERTEX
  8
0
  6
CONTINUOUS
 10
7.004800
 20
3.072080
  0
VERTEX
  8
0
  6
CONTINUOUS
 10
7.662160
 20
2.702920
  0
VERTEX
  8
0
  6
CONTINUOUS
 10
7.697360
 20
2.638680
  0
VERTEX
  8
0
  6
CONTINUOUS
 10
7.040000
 20
3.008280
  0
VERTEX
  8
0
  6
CONTINUOUS
 10
7.004800
 20
3.072080
  0
SEQEND
  8
0
  0
SOLID
  8
0
 62
    15
 10
7.040000
 20
3.008280
 11
7.697360
 21
2.638680
 12
7.062000
 22
2.937440
 13
7.719360
 23
2.568280
  0
POLYLINE
  8
0
  6
CONTINUOUS
 66
     1
 40
0.000000
 41
0.000000
  0
VERTEX
  8
0
  6
CONTINUOUS
 10
7.040000
 20
3.008280
  0
VERTEX
  8
0
  6
CONTINUOUS
 10
7.697360
 20
2.638680
  0
VERTEX
  8
0
  6
CONTINUOUS
 10
7.719360
 20
2.568280
  0
VERTEX
  8
0
  6
CONTINUOUS
 10
7.062000
 20
2.937440
  0
VERTEX
  8
0
  6
CONTINUOUS
 10
7.040000
 20
3.008280
  0
SEQEND
  8
0
  0
SOLID
  8
0
 62
    15
 10
7.062000
 20
2.937440
 11
7.719360
 21
2.568280
 12
7.069920
 22
2.862200
 13
7.727280
 23
2.493040
  0
POLYLINE
  8
0
  6
CONTINUOUS
 66
     1
 40
0.000000
 41
0.000000
  0
VERTEX
  8
0
  6
CONTINUOUS
 10
7.062000
 20
2.937440
  0
VERTEX
  8
0
  6
CONTINUOUS
 10
7.719360
 20
2.568280
  0
VERTEX
  8
0
  6
CONTINUOUS
 10
7.727280
 20
2.493040
  0
VERTEX
  8
0
  6
CONTINUOUS
 10
7.069920
 20
2.862200
  0
VERTEX
  8
0
  6
CONTINUOUS
 10
7.062000
 20
2.937440
  0
SEQEND
  8
0
  0
SOLID
  8
0
 62
    15
 10
7.069920
 20
2.862200
 11
7.727280
 21
2.493040
 12
7.062000
 22
2.786960
 13
7.719360
 23
2.417360
  0
POLYLINE
  8
0
  6
CONTINUOUS
 66
     1
 40
0.000000
 41
0.000000
  0
VERTEX
  8
0
  6
CONTINUOUS
 10
7.069920
 20
2.862200
  0
VERTEX
  8
0
  6
CONTINUOUS
 10
7.727280
 20
2.493040
  0
VERTEX
  8
0
  6
CONTINUOUS
 10
7.719360
 20
2.417360
  0
VERTEX
  8
0
  6
CONTINUOUS
 10
7.062000
 20
2.786960
  0
VERTEX
  8
0
  6
CONTINUOUS
 10
7.069920
 20
2.862200
  0
SEQEND
  8
0
  0
SOLID
  8
0
 62
    15
 10
7.062000
 20
2.786960
 11
7.719360
 21
2.417360
 12
7.040000
 22
2.716120
 13
7.697360
 23
2.346960
  0
POLYLINE
  8
0
  6
CONTINUOUS
 66
     1
 40
0.000000
 41
0.000000
  0
VERTEX
  8
0
  6
CONTINUOUS
 10
7.062000
 20
2.786960
  0
VERTEX
  8
0
  6
CONTINUOUS
 10
7.719360
 20
2.417360
  0
VERTEX
  8
0
  6
CONTINUOUS
 10
7.697360
 20
2.346960
  0
VERTEX
  8
0
  6
CONTINUOUS
 10
7.040000
 20
2.716120
  0
VERTEX
  8
0
  6
CONTINUOUS
 10
7.062000
 20
2.786960
  0
SEQEND
  8
0
  0
SOLID
  8
0
 62
    15
 10
7.040000
 20
2.716120
 11
7.697360
 21
2.346960
 12
7.004800
 22
2.652320
 13
7.662160
 23
2.283160
  0
POLYLINE
  8
0
  6
CONTINUOUS
 66
     1
 40
0.000000
 41
0.000000
  0
VERTEX
  8
0
  6
CONTINUOUS
 10
7.040000
 20
2.716120
  0
VERTEX
  8
0
  6
CONTINUOUS
 10
7.697360
 20
2.346960
  0
VERTEX
  8
0
  6
CONTINUOUS
 10
7.662160
 20
2.283160
  0
VERTEX
  8
0
  6
CONTINUOUS
 10
7.004800
 20
2.652320
  0
VERTEX
  8
0
  6
CONTINUOUS
 10
7.040000
 20
2.716120
  0
SEQEND
  8
0
  0
SOLID
  8
0
 62
    15
 10
7.004800
 20
2.652320
 11
7.662160
 21
2.283160
 12
6.958600
 22
2.596440
 13
7.615960
 23
2.226840
  0
POLYLINE
  8
0
  6
CONTINUOUS
 66
     1
 40
0.000000
 41
0.000000
  0
VERTEX
  8
0
  6
CONTINUOUS
 10
7.004800
 20
2.652320
  0
VERTEX
  8
0
  6
CONTINUOUS
 10
7.662160
 20
2.283160
  0
VERTEX
  8
0
  6
CONTINUOUS
 10
7.615960
 20
2.226840
  0
VERTEX
  8
0
  6
CONTINUOUS
 10
6.958600
 20
2.596440
  0
VERTEX
  8
0
  6
CONTINUOUS
 10
7.004800
 20
2.652320
  0
SEQEND
  8
0
  0
SOLID
  8
0
 62
    15
 10
6.958600
 20
2.596440
 11
7.615960
 21
2.226840
 12
6.902720
 22
2.550240
 13
7.560080
 23
2.180640
  0
POLYLINE
  8
0
  6
CONTINUOUS
 66
     1
 40
0.000000
 41
0.000000
  0
VERTEX
  8
0
  6
CONTINUOUS
 10
6.958600
 20
2.596440
  0
VERTEX
  8
0
  6
CONTINUOUS
 10
7.615960
 20
2.226840
  0
VERTEX
  8
0
  6
CONTINUOUS
 10
7.560080
 20
2.180640
  0
VERTEX
  8
0
  6
CONTINUOUS
 10
6.902720
 20
2.550240
  0
VERTEX
  8
0
  6
CONTINUOUS
 10
6.958600
 20
2.596440
  0
SEQEND
  8
0
  0
SOLID
  8
0
 62
    15
 10
6.315760
 20
2.862200
 11
6.973120
 21
2.493040
 12
6.313560
 22
2.860000
 13
6.970920
 23
2.490840
  0
POLYLINE
  8
0
  6
CONTINUOUS
 66
     1
 40
0.000000
 41
0.000000
  0
VERTEX
  8
0
  6
CONTINUOUS
 10
6.315760
 20
2.862200
  0
VERTEX
  8
0
  6
CONTINUOUS
 10
6.973120
 20
2.493040
  0
VERTEX
  8
0
  6
CONTINUOUS
 10
6.970920
 20
2.490840
  0
VERTEX
  8
0
  6
CONTINUOUS
 10
6.313560
 20
2.860000
  0
VERTEX
  8
0
  6
CONTINUOUS
 10
6.315760
 20
2.862200
  0
SEQEND
  8
0
  0
SOLID
  8
0
 62
    15
 10
6.313560
 20
2.860000
 11
6.970920
 21
2.490840
 12
6.222040
 22
2.860000
 13
6.879400
 23
2.490840
  0
POLYLINE
  8
0
  6
CONTINUOUS
 66
     1
 40
0.000000
 41
0.000000
  0
VERTEX
  8
0
  6
CONTINUOUS
 10
6.313560
 20
2.860000
  0
VERTEX
  8
0
  6
CONTINUOUS
 10
6.970920
 20
2.490840
  0
VERTEX
  8
0
  6
CONTINUOUS
 10
6.879400
 20
2.490840
  0
VERTEX
  8
0
  6
CONTINUOUS
 10
6.222040
 20
2.860000
  0
VERTEX
  8
0
  6
CONTINUOUS
 10
6.313560
 20
2.860000
  0
SEQEND
  8
0
  0
SOLID
  8
0
 62
    15
 10
6.768080
 20
2.493040
 11
7.425440
 21
2.123440
 12
6.692840
 22
2.485120
 13
7.350200
 23
2.115960
  0
POLYLINE
  8
0
  6
CONTINUOUS
 66
     1
 40
0.000000
 41
0.000000
  0
VERTEX
  8
0
  6
CONTINUOUS
 10
6.768080
 20
2.493040
  0
VERTEX
  8
0
  6
CONTINUOUS
 10
7.425440
 20
2.123440
  0
VERTEX
  8
0
  6
CONTINUOUS
 10
7.350200
 20
2.115960
  0
VERTEX
  8
0
  6
CONTINUOUS
 10
6.692840
 20
2.485120
  0
VERTEX
  8
0
  6
CONTINUOUS
 10
6.768080
 20
2.493040
  0
SEQEND
  8
0
  0
SOLID
  8
0
 62
    15
 10
6.692840
 20
2.485120
 11
7.350200
 21
2.115960
 12
6.617160
 22
2.493040
 13
7.274520
 23
2.123440
  0
POLYLINE
  8
0
  6
CONTINUOUS
 66
     1
 40
0.000000
 41
0.000000
  0
VERTEX
  8
0
  6
CONTINUOUS
 10
6.692840
 20
2.485120
  0
VERTEX
  8
0
  6
CONTINUOUS
 10
7.350200
 20
2.115960
  0
VERTEX
  8
0
  6
CONTINUOUS
 10
7.274520
 20
2.123440
  0
VERTEX
  8
0
  6
CONTINUOUS
 10
6.617160
 20
2.493040
  0
VERTEX
  8
0
  6
CONTINUOUS
 10
6.692840
 20
2.485120
  0
SEQEND
  8
0
  0
SOLID
  8
0
 62
    15
 10
6.617160
 20
2.493040
 11
7.274520
 21
2.123440
 12
6.546760
 22
2.515040
 13
7.204120
 23
2.145880
  0
POLYLINE
  8
0
  6
CONTINUOUS
 66
     1
 40
0.000000
 41
0.000000
  0
VERTEX
  8
0
  6
CONTINUOUS
 10
6.617160
 20
2.493040
  0
VERTEX
  8
0
  6
CONTINUOUS
 10
7.274520
 20
2.123440
  0
VERTEX
  8
0
  6
CONTINUOUS
 10
7.204120
 20
2.145880
  0
VERTEX
  8
0
  6
CONTINUOUS
 10
6.546760
 20
2.515040
  0
VERTEX
  8
0
  6
CONTINUOUS
 10
6.617160
 20
2.493040
  0
SEQEND
  8
0
  0
SOLID
  8
0
 62
    15
 10
6.067600
 20
3.480840
 11
6.724960
 21
3.111680
 12
6.067600
 22
3.339160
 13
6.724960
 23
2.970000
  0
POLYLINE
  8
0
  6
CONTINUOUS
 66
     1
 40
0.000000
 41
0.000000
  0
VERTEX
  8
0
  6
CONTINUOUS
 10
6.067600
 20
3.480840
  0
VERTEX
  8
0
  6
CONTINUOUS
 10
6.724960
 20
3.111680
  0
VERTEX
  8
0
  6
CONTINUOUS
 10
6.724960
 20
2.970000
  0
VERTEX
  8
0
  6
CONTINUOUS
 10
6.067600
 20
3.339160
  0
VERTEX
  8
0
  6
CONTINUOUS
 10
6.067600
 20
3.480840
  0
SEQEND
  8
0
  0
SOLID
  8
0
 62
    15
 10
6.902720
 20
2.550240
 11
7.560080
 21
2.180640
 12
6.838480
 22
2.515040
 13
7.495840
 23
2.145880
  0
POLYLINE
  8
0
  6
CONTINUOUS
 66
     1
 40
0.000000
 41
0.000000
  0
VERTEX
  8
0
  6
CONTINUOUS
 10
6.902720
 20
2.550240
  0
VERTEX
  8
0
  6
CONTINUOUS
 10
7.560080
 20
2.180640
  0
VERTEX
  8
0
  6
CONTINUOUS
 10
7.495840
 20
2.145880
  0
VERTEX
  8
0
  6
CONTINUOUS
 10
6.838480
 20
2.515040
  0
VERTEX
  8
0
  6
CONTINUOUS
 10
6.902720
 20
2.550240
  0
SEQEND
  8
0
  0
SOLID
  8
0
 62
    15
 10
6.222040
 20
2.860000
 11
6.879400
 21
2.490840
 12
6.220280
 22
2.860000
 13
6.877640
 23
2.490840
  0
POLYLINE
  8
0
  6
CONTINUOUS
 66
     1
 40
0.000000
 41
0.000000
  0
VERTEX
  8
0
  6
CONTINUOUS
 10
6.222040
 20
2.860000
  0
VERTEX
  8
0
  6
CONTINUOUS
 10
6.879400
 20
2.490840
  0
VERTEX
  8
0
  6
CONTINUOUS
 10
6.877640
 20
2.490840
  0
VERTEX
  8
0
  6
CONTINUOUS
 10
6.220280
 20
2.860000
  0
VERTEX
  8
0
  6
CONTINUOUS
 10
6.222040
 20
2.860000
  0
SEQEND
  8
0
  0
SOLID
  8
0
 62
    15
 10
6.838480
 20
2.515040
 11
7.495840
 21
2.145880
 12
6.768080
 22
2.493040
 13
7.425440
 23
2.123440
  0
POLYLINE
  8
0
  6
CONTINUOUS
 66
     1
 40
0.000000
 41
0.000000
  0
VERTEX
  8
0
  6
CONTINUOUS
 10
6.838480
 20
2.515040
  0
VERTEX
  8
0
  6
CONTINUOUS
 10
7.495840
 20
2.145880
  0
VERTEX
  8
0
  6
CONTINUOUS
 10
7.425440
 20
2.123440
  0
VERTEX
  8
0
  6
CONTINUOUS
 10
6.768080
 20
2.493040
  0
VERTEX
  8
0
  6
CONTINUOUS
 10
6.838480
 20
2.515040
  0
SEQEND
  8
0
  0
SOLID
  8
0
 62
    15
 10
6.546760
 20
2.515040
 11
7.204120
 21
2.145880
 12
6.482960
 22
2.550240
 13
7.139880
 23
2.180640
  0
POLYLINE
  8
0
  6
CONTINUOUS
 66
     1
 40
0.000000
 41
0.000000
  0
VERTEX
  8
0
  6
CONTINUOUS
 10
6.546760
 20
2.515040
  0
VERTEX
  8
0
  6
CONTINUOUS
 10
7.204120
 20
2.145880
  0
VERTEX
  8
0
  6
CONTINUOUS
 10
7.139880
 20
2.180640
  0
VERTEX
  8
0
  6
CONTINUOUS
 10
6.482960
 20
2.550240
  0
VERTEX
  8
0
  6
CONTINUOUS
 10
6.546760
 20
2.515040
  0
SEQEND
  8
0
  0
SOLID
  8
0
 62
    15
 10
1.552320
 20
2.789160
 11
2.209680
 21
2.419560
 12
1.530320
 22
2.718760
 13
2.187680
 23
2.349160
  0
POLYLINE
  8
0
  6
CONTINUOUS
 66
     1
 40
0.000000
 41
0.000000
  0
VERTEX
  8
0
  6
CONTINUOUS
 10
1.552320
 20
2.789160
  0
VERTEX
  8
0
  6
CONTINUOUS
 10
2.209680
 20
2.419560
  0
VERTEX
  8
0
  6
CONTINUOUS
 10
2.187680
 20
2.349160
  0
VERTEX
  8
0
  6
CONTINUOUS
 10
1.530320
 20
2.718760
  0
VERTEX
  8
0
  6
CONTINUOUS
 10
1.552320
 20
2.789160
  0
SEQEND
  8
0
  0
SOLID
  8
0
 62
    15
 10
1.653960
 20
2.862200
 11
2.311320
 21
2.493040
 12
1.562440
 22
2.862200
 13
2.219800
 23
2.493040
  0
POLYLINE
  8
0
  6
CONTINUOUS
 66
     1
 40
0.000000
 41
0.000000
  0
VERTEX
  8
0
  6
CONTINUOUS
 10
1.653960
 20
2.862200
  0
VERTEX
  8
0
  6
CONTINUOUS
 10
2.311320
 20
2.493040
  0
VERTEX
  8
0
  6
CONTINUOUS
 10
2.219800
 20
2.493040
  0
VERTEX
  8
0
  6
CONTINUOUS
 10
1.562440
 20
2.862200
  0
VERTEX
  8
0
  6
CONTINUOUS
 10
1.653960
 20
2.862200
  0
SEQEND
  8
0
  0
SOLID
  8
0
 62
    15
 10
1.530320
 20
2.718760
 11
2.187680
 21
2.349160
 12
1.495560
 22
2.654520
 13
2.152480
 23
2.285360
  0
POLYLINE
  8
0
  6
CONTINUOUS
 66
     1
 40
0.000000
 41
0.000000
  0
VERTEX
  8
0
  6
CONTINUOUS
 10
1.530320
 20
2.718760
  0
VERTEX
  8
0
  6
CONTINUOUS
 10
2.187680
 20
2.349160
  0
VERTEX
  8
0
  6
CONTINUOUS
 10
2.152480
 20
2.285360
  0
VERTEX
  8
0
  6
CONTINUOUS
 10
1.495560
 20
2.654520
  0
VERTEX
  8
0
  6
CONTINUOUS
 10
1.530320
 20
2.718760
  0
SEQEND
  8
0
  0
SOLID
  8
0
 62
    15
 10
1.495560
 20
2.654520
 11
2.152480
 21
2.285360
 12
1.448920
 22
2.598640
 13
2.106280
 23
2.229480
  0
POLYLINE
  8
0
  6
CONTINUOUS
 66
     1
 40
0.000000
 41
0.000000
  0
VERTEX
  8
0
  6
CONTINUOUS
 10
1.495560
 20
2.654520
  0
VERTEX
  8
0
  6
CONTINUOUS
 10
2.152480
 20
2.285360
  0
VERTEX
  8
0
  6
CONTINUOUS
 10
2.106280
 20
2.229480
  0
VERTEX
  8
0
  6
CONTINUOUS
 10
1.448920
 20
2.598640
  0
VERTEX
  8
0
  6
CONTINUOUS
 10
1.495560
 20
2.654520
  0
SEQEND
  8
0
  0
SOLID
  8
0
 62
    15
 10
6.199160
 20
2.487320
 11
6.856520
 21
2.118160
 12
1.675080
 22
2.487320
 13
2.332000
 23
2.118160
  0
POLYLINE
  8
0
  6
CONTINUOUS
 66
     1
 40
0.000000
 41
0.000000
  0
VERTEX
  8
0
  6
CONTINUOUS
 10
6.199160
 20
2.487320
  0
VERTEX
  8
0
  6
CONTINUOUS
 10
6.856520
 20
2.118160
  0
VERTEX
  8
0
  6
CONTINUOUS
 10
2.332000
 20
2.118160
  0
VERTEX
  8
0
  6
CONTINUOUS
 10
1.675080
 20
2.487320
  0
VERTEX
  8
0
  6
CONTINUOUS
 10
6.199160
 20
2.487320
  0
SEQEND
  8
0
  0
SOLID
  8
0
 62
    15
 10
6.854760
 20
2.118160
 11
6.854760
 21
2.117720
 12
6.197400
 22
2.487320
 13
6.197400
 23
2.486880
  0
POLYLINE
  8
0
  6
CONTINUOUS
 66
     1
 40
0.000000
 41
0.000000
  0
VERTEX
  8
0
  6
CONTINUOUS
 10
6.854760
 20
2.118160
  0
VERTEX
  8
0
  6
CONTINUOUS
 10
6.854760
 20
2.117720
  0
VERTEX
  8
0
  6
CONTINUOUS
 10
6.197400
 20
2.486880
  0
VERTEX
  8
0
  6
CONTINUOUS
 10
6.197400
 20
2.487320
  0
VERTEX
  8
0
  6
CONTINUOUS
 10
6.854760
 20
2.118160
  0
SEQEND
  8
0
  0
SOLID
  8
0
 62
    15
 10
1.448920
 20
2.598640
 11
2.106280
 21
2.229480
 12
1.393040
 22
2.552440
 13
2.050400
 23
2.182840
  0
POLYLINE
  8
0
  6
CONTINUOUS
 66
     1
 40
0.000000
 41
0.000000
  0
VERTEX
  8
0
  6
CONTINUOUS
 10
1.448920
 20
2.598640
  0
VERTEX
  8
0
  6
CONTINUOUS
 10
2.106280
 20
2.229480
  0
VERTEX
  8
0
  6
CONTINUOUS
 10
2.050400
 20
2.182840
  0
VERTEX
  8
0
  6
CONTINUOUS
 10
1.393040
 20
2.552440
  0
VERTEX
  8
0
  6
CONTINUOUS
 10
1.448920
 20
2.598640
  0
SEQEND
  8
0
  0
SOLID
  8
0
 62
    15
 10
1.393040
 20
2.552440
 11
2.050400
 21
2.182840
 12
1.329240
 22
2.517240
 13
1.986600
 23
2.148080
  0
POLYLINE
  8
0
  6
CONTINUOUS
 66
     1
 40
0.000000
 41
0.000000
  0
VERTEX
  8
0
  6
CONTINUOUS
 10
1.393040
 20
2.552440
  0
VERTEX
  8
0
  6
CONTINUOUS
 10
2.050400
 20
2.182840
  0
VERTEX
  8
0
  6
CONTINUOUS
 10
1.986600
 20
2.148080
  0
VERTEX
  8
0
  6
CONTINUOUS
 10
1.329240
 20
2.517240
  0
VERTEX
  8
0
  6
CONTINUOUS
 10
1.393040
 20
2.552440
  0
SEQEND
  8
0
  0
SOLID
  8
0
 62
    15
 10
1.329240
 20
2.517240
 11
1.986600
 21
2.148080
 12
1.258840
 22
2.495240
 13
1.915760
 23
2.126080
  0
POLYLINE
  8
0
  6
CONTINUOUS
 66
     1
 40
0.000000
 41
0.000000
  0
VERTEX
  8
0
  6
CONTINUOUS
 10
1.329240
 20
2.517240
  0
VERTEX
  8
0
  6
CONTINUOUS
 10
1.986600
 20
2.148080
  0
VERTEX
  8
0
  6
CONTINUOUS
 10
1.915760
 20
2.126080
  0
VERTEX
  8
0
  6
CONTINUOUS
 10
1.258840
 20
2.495240
  0
VERTEX
  8
0
  6
CONTINUOUS
 10
1.329240
 20
2.517240
  0
SEQEND
  8
0
  0
SOLID
  8
0
 62
    15
 10
1.258840
 20
2.495240
 11
1.915760
 21
2.126080
 12
1.183160
 22
2.487320
 13
1.840520
 23
2.118160
  0
POLYLINE
  8
0
  6
CONTINUOUS
 66
     1
 40
0.000000
 41
0.000000
  0
VERTEX
  8
0
  6
CONTINUOUS
 10
1.258840
 20
2.495240
  0
VERTEX
  8
0
  6
CONTINUOUS
 10
1.915760
 20
2.126080
  0
VERTEX
  8
0
  6
CONTINUOUS
 10
1.840520
 20
2.118160
  0
VERTEX
  8
0
  6
CONTINUOUS
 10
1.183160
 20
2.487320
  0
VERTEX
  8
0
  6
CONTINUOUS
 10
1.258840
 20
2.495240
  0
SEQEND
  8
0
  0
SOLID
  8
0
 62
    15
 10
1.107920
 20
2.495240
 11
1.765280
 21
2.126080
 12
1.037080
 22
2.517240
 13
1.694440
 23
2.148080
  0
POLYLINE
  8
0
  6
CONTINUOUS
 66
     1
 40
0.000000
 41
0.000000
  0
VERTEX
  8
0
  6
CONTINUOUS
 10
1.107920
 20
2.495240
  0
VERTEX
  8
0
  6
CONTINUOUS
 10
1.765280
 20
2.126080
  0
VERTEX
  8
0
  6
CONTINUOUS
 10
1.694440
 20
2.148080
  0
VERTEX
  8
0
  6
CONTINUOUS
 10
1.037080
 20
2.517240
  0
VERTEX
  8
0
  6
CONTINUOUS
 10
1.107920
 20
2.495240
  0
SEQEND
  8
0
  0
SOLID
  8
0
 62
    15
 10
1.183160
 20
2.487320
 11
1.840520
 21
2.118160
 12
1.107920
 22
2.495240
 13
1.765280
 23
2.126080
  0
POLYLINE
  8
0
  6
CONTINUOUS
 66
     1
 40
0.000000
 41
0.000000
  0
VERTEX
  8
0
  6
CONTINUOUS
 10
1.183160
 20
2.487320
  0
VERTEX
  8
0
  6
CONTINUOUS
 10
1.840520
 20
2.118160
  0
VERTEX
  8
0
  6
CONTINUOUS
 10
1.765280
 20
2.126080
  0
VERTEX
  8
0
  6
CONTINUOUS
 10
1.107920
 20
2.495240
  0
VERTEX
  8
0
  6
CONTINUOUS
 10
1.183160
 20
2.487320
  0
SEQEND
  8
0
  0
SOLID
  8
0
 62
    15
 10
1.037080
 20
2.517240
 11
1.694440
 21
2.148080
 12
0.973280
 22
2.552440
 13
1.630640
 23
2.182840
  0
POLYLINE
  8
0
  6
CONTINUOUS
 66
     1
 40
0.000000
 41
0.000000
  0
VERTEX
  8
0
  6
CONTINUOUS
 10
1.037080
 20
2.517240
  0
VERTEX
  8
0
  6
CONTINUOUS
 10
1.694440
 20
2.148080
  0
VERTEX
  8
0
  6
CONTINUOUS
 10
1.630640
 20
2.182840
  0
VERTEX
  8
0
  6
CONTINUOUS
 10
0.973280
 20
2.552440
  0
VERTEX
  8
0
  6
CONTINUOUS
 10
1.037080
 20
2.517240
  0
SEQEND
  8
0
  0
POLYLINE
  8
0
  6
CONTINUOUS
 66
     1
 40
0.000000
 41
0.000000
  0
VERTEX
  8
0
  6
CONTINUOUS
 10
1.185360
 20
3.341360
  0
VERTEX
  8
0
  6
CONTINUOUS
 10
1.808400
 20
3.341360
  0
VERTEX
  8
0
  6
CONTINUOUS
 10
1.808400
 20
3.483040
  0
VERTEX
  8
0
  6
CONTINUOUS
 10
6.064080
 20
3.483040
  0
VERTEX
  8
0
  6
CONTINUOUS
 10
6.067600
 20
3.480840
  0
VERTEX
  8
0
  6
CONTINUOUS
 10
6.067600
 20
3.339160
  0
VERTEX
  8
0
  6
CONTINUOUS
 10
6.690640
 20
3.339160
  0
VERTEX
  8
0
  6
CONTINUOUS
 10
6.690640
 20
3.239280
  0
VERTEX
  8
0
  6
CONTINUOUS
 10
6.768080
 20
3.231360
  0
VERTEX
  8
0
  6
CONTINUOUS
 10
6.838480
 20
3.209360
  0
VERTEX
  8
0
  6
CONTINUOUS
 10
6.902720
 20
3.174600
  0
VERTEX
  8
0
  6
CONTINUOUS
 10
6.958600
 20
3.127960
  0
VERTEX
  8
0
  6
CONTINUOUS
 10
7.004800
 20
3.072080
  0
VERTEX
  8
0
  6
CONTINUOUS
 10
7.040000
 20
3.008280
  0
VERTEX
  8
0
  6
CONTINUOUS
 10
7.062000
 20
2.937440
  0
VERTEX
  8
0
  6
CONTINUOUS
 10
7.069920
 20
2.862200
  0
VERTEX
  8
0
  6
CONTINUOUS
 10
7.062000
 20
2.786960
  0
VERTEX
  8
0
  6
CONTINUOUS
 10
7.040000
 20
2.716120
  0
VERTEX
  8
0
  6
CONTINUOUS
 10
7.004800
 20
2.652320
  0
VERTEX
  8
0
  6
CONTINUOUS
 10
6.958600
 20
2.596440
  0
VERTEX
  8
0
  6
CONTINUOUS
 10
6.902720
 20
2.550240
  0
VERTEX
  8
0
  6
CONTINUOUS
 10
6.838480
 20
2.515040
  0
VERTEX
  8
0
  6
CONTINUOUS
 10
6.768080
 20
2.493040
  0
VERTEX
  8
0
  6
CONTINUOUS
 10
6.692840
 20
2.485120
  0
VERTEX
  8
0
  6
CONTINUOUS
 10
6.617160
 20
2.493040
  0
VERTEX
  8
0
  6
CONTINUOUS
 10
6.546760
 20
2.515040
  0
VERTEX
  8
0
  6
CONTINUOUS
 10
6.482960
 20
2.550240
  0
VERTEX
  8
0
  6
CONTINUOUS
 10
6.426640
 20
2.596440
  0
VERTEX
  8
0
  6
CONTINUOUS
 10
6.380440
 20
2.652320
  0
VERTEX
  8
0
  6
CONTINUOUS
 10
6.345680
 20
2.716120
  0
VERTEX
  8
0
  6
CONTINUOUS
 10
6.323240
 20
2.786960
  0
VERTEX
  8
0
  6
CONTINUOUS
 10
6.315760
 20
2.862200
  0
VERTEX
  8
0
  6
CONTINUOUS
 10
6.313560
 20
2.860000
  0
VERTEX
  8
0
  6
CONTINUOUS
 10
6.220280
 20
2.860000
  0
VERTEX
  8
0
  6
CONTINUOUS
 10
6.197400
 20
2.486880
  0
VERTEX
  8
0
  6
CONTINUOUS
 10
6.199160
 20
2.487320
  0
VERTEX
  8
0
  6
CONTINUOUS
 10
1.675080
 20
2.487320
  0
VERTEX
  8
0
  6
CONTINUOUS
 10
1.653960
 20
2.862200
  0
VERTEX
  8
0
  6
CONTINUOUS
 10
1.562440
 20
2.862200
  0
VERTEX
  8
0
  6
CONTINUOUS
 10
1.560240
 20
2.864400
  0
VERTEX
  8
0
  6
CONTINUOUS
 10
1.552320
 20
2.789160
  0
VERTEX
  8
0
  6
CONTINUOUS
 10
1.530320
 20
2.718760
  0
VERTEX
  8
0
  6
CONTINUOUS
 10
1.495560
 20
2.654520
  0
VERTEX
  8
0
  6
CONTINUOUS
 10
1.448920
 20
2.598640
  0
VERTEX
  8
0
  6
CONTINUOUS
 10
1.393040
 20
2.552440
  0
VERTEX
  8
0
  6
CONTINUOUS
 10
1.329240
 20
2.517240
  0
VERTEX
  8
0
  6
CONTINUOUS
 10
1.258840
 20
2.495240
  0
VERTEX
  8
0
  6
CONTINUOUS
 10
1.183160
 20
2.487320
  0
VERTEX
  8
0
  6
CONTINUOUS
 10
1.107920
 20
2.495240
  0
VERTEX
  8
0
  6
CONTINUOUS
 10
1.037080
 20
2.517240
  0
VERTEX
  8
0
  6
CONTINUOUS
 10
0.973280
 20
2.552440
  0
VERTEX
  8
0
  6
CONTINUOUS
 10
0.917400
 20
2.598640
  0
VERTEX
  8
0
  6
CONTINUOUS
 10
0.871200
 20
2.654520
  0
VERTEX
  8
0
  6
CONTINUOUS
 10
0.836000
 20
2.718760
  0
VERTEX
  8
0
  6
CONTINUOUS
 10
0.814000
 20
2.789160
  0
VERTEX
  8
0
  6
CONTINUOUS
 10
0.806080
 20
2.864400
  0
VERTEX
  8
0
  6
CONTINUOUS
 10
0.814000
 20
2.940080
  0
VERTEX
  8
0
  6
CONTINUOUS
 10
0.836000
 20
3.010480
  0
VERTEX
  8
0
  6
CONTINUOUS
 10
0.871200
 20
3.074280
  0
VERTEX
  8
0
  6
CONTINUOUS
 10
0.917400
 20
3.130160
  0
VERTEX
  8
0
  6
CONTINUOUS
 10
0.973280
 20
3.176800
  0
VERTEX
  8
0
  6
CONTINUOUS
 10
1.037080
 20
3.211560
  0
VERTEX
  8
0
  6
CONTINUOUS
 10
1.107920
 20
3.234000
  0
VERTEX
  8
0
  6
CONTINUOUS
 10
1.185360
 20
3.241480
  0
VERTEX
  8
0
  6
CONTINUOUS
 10
1.185360
 20
3.341360
  0
SEQEND
  8
0
  0
SOLID
  8
0
 62
    15
 10
1.810600
 20
3.338720
 11
2.579280
 21
2.969560
 12
0.909920
 22
3.338720
 13
1.678160
 23
2.969560
  0
POLYLINE
  8
0
  6
CONTINUOUS
 66
     1
 40
0.000000
 41
0.000000
  0
VERTEX
  8
0
  6
CONTINUOUS
 10
1.810600
 20
3.338720
  0
VERTEX
  8
0
  6
CONTINUOUS
 10
2.579280
 20
2.969560
  0
VERTEX
  8
0
  6
CONTINUOUS
 10
1.678160
 20
2.969560
  0
VERTEX
  8
0
  6
CONTINUOUS
 10
0.909920
 20
3.338720
  0
VERTEX
  8
0
  6
CONTINUOUS
 10
1.810600
 20
3.338720
  0
SEQEND
  8
0
  0
SOLID
  8
0
 62
    15
 10
1.810600
 20
5.347320
 11
2.579280
 21
4.978160
 12
1.810600
 22
3.338720
 13
2.579280
 23
2.969560
  0
POLYLINE
  8
0
  6
CONTINUOUS
 66
     1
 40
0.000000
 41
0.000000
  0
VERTEX
  8
0
  6
CONTINUOUS
 10
1.810600
 20
5.347320
  0
VERTEX
  8
0
  6
CONTINUOUS
 10
2.579280
 20
4.978160
  0
VERTEX
  8
0
  6
CONTINUOUS
 10
2.579280
 20
2.969560
  0
VERTEX
  8
0
  6
CONTINUOUS
 10
1.810600
 20
3.338720
  0
VERTEX
  8
0
  6
CONTINUOUS
 10
1.810600
 20
5.347320
  0
SEQEND
  8
0
  0
SOLID
  8
0
 62
     7
 10
1.810600
 20
5.347320
 11
1.810600
 21
3.338720
 12
0.909920
 22
5.347320
 13
0.909920
 23
3.338720
  0
POLYLINE
  8
0
  6
CONTINUOUS
 66
     1
 40
0.000000
 41
0.000000
  0
VERTEX
  8
0
  6
CONTINUOUS
 10
1.810600
 20
5.347320
  0
VERTEX
  8
0
  6
CONTINUOUS
 10
1.810600
 20
3.338720
  0
VERTEX
  8
0
  6
CONTINUOUS
 10
0.909920
 20
3.338720
  0
VERTEX
  8
0
  6
CONTINUOUS
 10
0.909920
 20
5.347320
  0
VERTEX
  8
0
  6
CONTINUOUS
 10
1.810600
 20
5.347320
  0
SEQEND
  8
0
  0
POLYLINE
  8
0
  6
CONTINUOUS
 66
     1
 40
0.000000
 41
0.000000
  0
VERTEX
  8
0
  6
CONTINUOUS
 10
1.185360
 20
3.335200
  0
VERTEX
  8
0
  6
CONTINUOUS
 10
1.185360
 20
3.241480
  0
VERTEX
  8
0
  6
CONTINUOUS
 10
1.144880
 20
3.239720
  0
VERTEX
  8
0
  6
CONTINUOUS
 10
1.107920
 20
3.233560
  0
VERTEX
  8
0
  6
CONTINUOUS
 10
1.071840
 20
3.224320
  0
VERTEX
  8
0
  6
CONTINUOUS
 10
1.037080
 20
3.211560
  0
VERTEX
  8
0
  6
CONTINUOUS
 10
1.004080
 20
3.195720
  0
VERTEX
  8
0
  6
CONTINUOUS
 10
0.973280
 20
3.176800
  0
VERTEX
  8
0
  6
CONTINUOUS
 10
0.930160
 20
3.142920
  0
VERTEX
  8
0
  6
CONTINUOUS
 10
0.904640
 20
3.117400
  0
VERTEX
  8
0
  6
CONTINUOUS
 10
0.870760
 20
3.074280
  0
VERTEX
  8
0
  6
CONTINUOUS
 10
0.851840
 20
3.043480
  0
VERTEX
  8
0
  6
CONTINUOUS
 10
0.828960
 20
2.993320
  0
VERTEX
  8
0
  6
CONTINUOUS
 10
0.817960
 20
2.958120
  0
VERTEX
  8
0
  6
CONTINUOUS
 10
0.810480
 20
2.921600
  0
VERTEX
  8
0
  6
CONTINUOUS
 10
0.806520
 20
2.883760
  0
VERTEX
  8
0
  6
CONTINUOUS
 10
0.806520
 20
2.845040
  0
VERTEX
  8
0
  6
CONTINUOUS
 10
0.810480
 20
2.807200
  0
VERTEX
  8
0
  6
CONTINUOUS
 10
0.817960
 20
2.770680
  0
VERTEX
  8
0
  6
CONTINUOUS
 10
0.828960
 20
2.735480
  0
VERTEX
  8
0
  6
CONTINUOUS
 10
0.851840
 20
2.685320
  0
VERTEX
  8
0
  6
CONTINUOUS
 10
0.870760
 20
2.654520
  0
VERTEX
  8
0
  6
CONTINUOUS
 10
0.904640
 20
2.611400
  0
VERTEX
  8
0
  6
CONTINUOUS
 10
0.930160
 20
2.585880
  0
VERTEX
  8
0
  6
CONTINUOUS
 10
0.973280
 20
2.552000
  0
VERTEX
  8
0
  6
CONTINUOUS
 10
1.004080
 20
2.533080
  0
VERTEX
  8
0
  6
CONTINUOUS
 10
1.054240
 20
2.510200
  0
VERTEX
  8
0
  6
CONTINUOUS
 10
1.089440
 20
2.499200
  0
VERTEX
  8
0
  6
CONTINUOUS
 10
1.125960
 20
2.491720
  0
VERTEX
  8
0
  6
CONTINUOUS
 10
1.163800
 20
2.487760
  0
VERTEX
  8
0
  6
CONTINUOUS
 10
1.202520
 20
2.487760
  0
VERTEX
  8
0
  6
CONTINUOUS
 10
1.240360
 20
2.491720
  0
VERTEX
  8
0
  6
CONTINUOUS
 10
1.276880
 20
2.499200
  0
VERTEX
  8
0
  6
CONTINUOUS
 10
1.312080
 20
2.510200
  0
VERTEX
  8
0
  6
CONTINUOUS
 10
1.362240
 20
2.533080
  0
VERTEX
  8
0
  6
CONTINUOUS
 10
1.393040
 20
2.552000
  0
VERTEX
  8
0
  6
CONTINUOUS
 10
1.436160
 20
2.585880
  0
VERTEX
  8
0
  6
CONTINUOUS
 10
1.461680
 20
2.611400
  0
VERTEX
  8
0
  6
CONTINUOUS
 10
1.495560
 20
2.654520
  0
VERTEX
  8
0
  6
CONTINUOUS
 10
1.514480
 20
2.685320
  0
VERTEX
  8
0
  6
CONTINUOUS
 10
1.537360
 20
2.735480
  0
VERTEX
  8
0
  6
CONTINUOUS
 10
1.548360
 20
2.770680
  0
VERTEX
  8
0
  6
CONTINUOUS
 10
1.555840
 20
2.807200
  0
VERTEX
  8
0
  6
CONTINUOUS
 10
1.559800
 20
2.845040
  0
VERTEX
  8
0
  6
CONTINUOUS
 10
1.560240
 20
2.864400
  0
VERTEX
  8
0
  6
CONTINUOUS
 10
1.562440
 20
2.862200
  0
VERTEX
  8
0
  6
CONTINUOUS
 10
1.653960
 20
2.862200
  0
VERTEX
  8
0
  6
CONTINUOUS
 10
1.675080
 20
2.487320
  0
VERTEX
  8
0
  6
CONTINUOUS
 10
6.199160
 20
2.487320
  0
VERTEX
  8
0
  6
CONTINUOUS
 10
6.197400
 20
2.486880
  0
VERTEX
  8
0
  6
CONTINUOUS
 10
6.220280
 20
2.860000
  0
VERTEX
  8
0
  6
CONTINUOUS
 10
6.313560
 20
2.860000
  0
VERTEX
  8
0
  6
CONTINUOUS
 10
6.315760
 20
2.862200
  0
VERTEX
  8
0
  6
CONTINUOUS
 10
6.317520
 20
2.823920
  0
VERTEX
  8
0
  6
CONTINUOUS
 10
6.323680
 20
2.786960
  0
VERTEX
  8
0
  6
CONTINUOUS
 10
6.332920
 20
2.750880
  0
VERTEX
  8
0
  6
CONTINUOUS
 10
6.345680
 20
2.716120
  0
VERTEX
  8
0
  6
CONTINUOUS
 10
6.361520
 20
2.683120
  0
VERTEX
  8
0
  6
CONTINUOUS
 10
6.380440
 20
2.652320
  0
VERTEX
  8
0
  6
CONTINUOUS
 10
6.414320
 20
2.609200
  0
VERTEX
  8
0
  6
CONTINUOUS
 10
6.439840
 20
2.583680
  0
VERTEX
  8
0
  6
CONTINUOUS
 10
6.482960
 20
2.549800
  0
VERTEX
  8
0
  6
CONTINUOUS
 10
6.513760
 20
2.530880
  0
VERTEX
  8
0
  6
CONTINUOUS
 10
6.563920
 20
2.508000
  0
VERTEX
  8
0
  6
CONTINUOUS
 10
6.599120
 20
2.497000
  0
VERTEX
  8
0
  6
CONTINUOUS
 10
6.635640
 20
2.489520
  0
VERTEX
  8
0
  6
CONTINUOUS
 10
6.673480
 20
2.485560
  0
VERTEX
  8
0
  6
CONTINUOUS
 10
6.712200
 20
2.485560
  0
VERTEX
  8
0
  6
CONTINUOUS
 10
6.750040
 20
2.489520
  0
VERTEX
  8
0
  6
CONTINUOUS
 10
6.786560
 20
2.497000
  0
VERTEX
  8
0
  6
CONTINUOUS
 10
6.821760
 20
2.508000
  0
VERTEX
  8
0
  6
CONTINUOUS
 10
6.871920
 20
2.530880
  0
VERTEX
  8
0
  6
CONTINUOUS
 10
6.902720
 20
2.549800
  0
VERTEX
  8
0
  6
CONTINUOUS
 10
6.945840
 20
2.583680
  0
VERTEX
  8
0
  6
CONTINUOUS
 10
6.971360
 20
2.609200
  0
VERTEX
  8
0
  6
CONTINUOUS
 10
7.005240
 20
2.652320
  0
VERTEX
  8
0
  6
CONTINUOUS
 10
7.024160
 20
2.683120
  0
VERTEX
  8
0
  6
CONTINUOUS
 10
7.047040
 20
2.733280
  0
VERTEX
  8
0
  6
CONTINUOUS
 10
7.058040
 20
2.768480
  0
VERTEX
  8
0
  6
CONTINUOUS
 10
7.065520
 20
2.805000
  0
VERTEX
  8
0
  6
CONTINUOUS
 10
7.069480
 20
2.842840
  0
VERTEX
  8
0
  6
CONTINUOUS
 10
7.069480
 20
2.881560
  0
VERTEX
  8
0
  6
CONTINUOUS
 10
7.065520
 20
2.919400
  0
VERTEX
  8
0
  6
CONTINUOUS
 10
7.058040
 20
2.955920
  0
VERTEX
  8
0
  6
CONTINUOUS
 10
7.047040
 20
2.991120
  0
VERTEX
  8
0
  6
CONTINUOUS
 10
7.024160
 20
3.041280
  0
VERTEX
  8
0
  6
CONTINUOUS
 10
7.005240
 20
3.072080
  0
VERTEX
  8
0
  6
CONTINUOUS
 10
6.971360
 20
3.115200
  0
VERTEX
  8
0
  6
CONTINUOUS
 10
6.945840
 20
3.140720
  0
VERTEX
  8
0
  6
CONTINUOUS
 10
6.902720
 20
3.174600
  0
VERTEX
  8
0
  6
CONTINUOUS
 10
6.871920
 20
3.193520
  0
VERTEX
  8
0
  6
CONTINUOUS
 10
6.821760
 20
3.216400
  0
VERTEX
  8
0
  6
CONTINUOUS
 10
6.786560
 20
3.227400
  0
VERTEX
  8
0
  6
CONTINUOUS
 10
6.750040
 20
3.234880
  0
VERTEX
  8
0
  6
CONTINUOUS
 10
6.712200
 20
3.238840
  0
VERTEX
  8
0
  6
CONTINUOUS
 10
6.690640
 20
3.239280
  0
VERTEX
  8
0
  6
CONTINUOUS
 10
6.690640
 20
3.339160
  0
VERTEX
  8
0
  6
CONTINUOUS
 10
6.067600
 20
3.339160
  0
VERTEX
  8
0
  6
CONTINUOUS
 10
6.067600
 20
3.480840
  0
VERTEX
  8
0
  6
CONTINUOUS
 10
6.064080
 20
3.483040
  0
VERTEX
  8
0
  6
CONTINUOUS
 10
1.808400
 20
3.483040
  0
VERTEX
  8
0
  6
CONTINUOUS
 10
1.808400
 20
3.341360
  0
VERTEX
  8
0
  6
CONTINUOUS
 10
1.185360
 20
3.341360
  0
VERTEX
  8
0
  6
CONTINUOUS
 10
1.185360
 20
3.335200
  0
SEQEND
  8
0
  0
SOLID
  8
0
 62
     7
 10
6.064960
 20
5.347320
 11
6.966520
 21
5.347320
 12
6.064960
 22
3.338720
 13
6.966520
 23
3.338720
  0
POLYLINE
  8
0
  6
CONTINUOUS
 66
     1
 40
0.000000
 41
0.000000
  0
VERTEX
  8
0
  6
CONTINUOUS
 10
6.064960
 20
5.347320
  0
VERTEX
  8
0
  6
CONTINUOUS
 10
6.966520
 20
5.347320
  0
VERTEX
  8
0
  6
CONTINUOUS
 10
6.966520
 20
3.338720
  0
VERTEX
  8
0
  6
CONTINUOUS
 10
6.064960
 20
3.338720
  0
VERTEX
  8
0
  6
CONTINUOUS
 10
6.064960
 20
5.347320
  0
SEQEND
  8
0
  0
TEXT
  8
0
 10
3.974520
 20
1.834800
 40
0.138146
  1
BA  648
 41
1.000000
  7
SN0
 71
     0
 72
     5
 11
4.563804
 21
1.834800
  0
TEXT
  8
0
 10
3.855720
 20
1.643400
 40
0.138146
  1
1" x 6-1/4"*
 41
1.000000
  7
SN0
 71
     0
 72
     5
 11
4.681272
 21
1.643400
  0
ENDSEC
  0
EOF
