  0
SECTION
  2
HEADER
  9
$ACADVER
  1
AC1006
  9
$EXTMIN
 10
2.986280
 20
0.872960
  9
$EXTMAX
 10
7.759400
 20
3.701280
  9
$LTSCALE
 40
0.044000
  9
$PDMODE
 70
    35
  9
$PDSIZE
 40
0.035200
  0
ENDSEC
  0
SECTION
  2
TABLES
  0
TABLE
  2
LTYPE
 70
     9
  0
LTYPE
  2
CONTINUOUS
 70
    64
  3
Solid line
 72
    65
 73
     0
 40
0.000000
  0
LTYPE
  2
DASHED
 70
    64
  3
__ __ __ __ __ __ __ __ __ __ __ __ __ __ __
 72
    65
 73
     2
 40
0.000330
 49
0.000220
 49
-0.000110
  0
LTYPE
  2
HIDDEN
 70
    64
  3
 _ _ _ _ _ _ _ _ _ _ _ _ _ _ _ _ _ _ _ _ _ _
 72
    65
 73
     2
 40
0.000165
 49
0.000110
 49
-0.000055
  0
LTYPE
  2
CENTER
 70
    64
  3
____ _ ____ _ ____ _ ____ _ ____ _ ____ _ ____
 72
    65
 73
     4
 40
0.000880
 49
0.000550
 49
-0.000110
 49
0.000110
 49
-0.000110
  0
LTYPE
  2
PHANTOM
 70
    64
  3
_____ _ _ _____ _ _ _____ _ _ _____ _ _ ____
 72
    65
 73
     6
 40
0.001100
 49
0.000550
 49
-0.000110
 49
0.000110
 49
-0.000110
 49
0.000110
 49
-0.000110
  0
LTYPE
  2
DOT
 70
    64
  3
...............................................
 72
    65
 73
     2
 40
0.000110
 49
0.000000
 49
-0.000110
  0
LTYPE
  2
DASHDOT
 70
    64
  3
__ . __ . __ . __ . __ . __ . __ . __ . __ . __
 72
    65
 73
     4
 40
0.000440
 49
0.000220
 49
-0.000110
 49
0.000000
 49
-0.000110
  0
LTYPE
  2
BORDER
 70
    64
  3
__ __ . __ __ . __ __ . __ __ . __ __ . __ __
 72
    65
 73
     6
 40
0.000770
 49
0.000220
 49
-0.000110
 49
0.000220
 49
-0.000110
 49
0.000000
 49
-0.000110
  0
LTYPE
  2
DIVIDE
 70
    64
  3
__ . . __ . . __ . . __ . . __ . . __ . . __
 72
    65
 73
     6
 40
0.000550
 49
0.000220
 49
-0.000110
 49
0.000000
 49
-0.000110
 49
0.000000
 49
-0.000110
  0
LTYPE
  2
DOTDOT
 70
    64
  3
 . .  . .  . .  . .  . .  . . 
 72
    65
 73
     5
 40
0.000242
 49
-0.000110
 49
0.000000
 49
-0.000110
 49
0.000000
 49
-0.000110
  0
ENDTAB
  0
TABLE
  2
STYLE
 70
     2
  0
STYLE
 70
     0
  2
SN0
 40
0.000000
 41
0.000440
 50
0.000000
 71
     0
 42
0.000000
  3
ROMAND
  0
STYLE
 70
    68
  2
SV0
 40
0.000000
 41
0.000440
 50
0.000000
 71
     0
 42
0.000000
  3
ROMAND
  0
ENDTAB
  0
TABLE
  2
LAYER
 70
     3
  0
LAYER
  2
FOREGROUND
 70
    64
 62
     7
  6
CONTINUOUS
  0
LAYER
  2
BACKGROUND
 70
    65
 62
    -7
  6
CONTINUOUS
  0
LAYER
  2
0
 70
    64
 62
     7
  6
CONTINUOUS
  0
ENDTAB
  0
ENDSEC
  0
SECTION
  2
ENTITIES
  0
POLYLINE
  8
FOREGROUND
  6
CONTINUOUS
 66
     1
 40
0.000000
 41
0.000000
  0
VERTEX
  8
FOREGROUND
  6
CONTINUOUS
 10
0.000000
 20
4.574240
  0
VERTEX
  8
FOREGROUND
  6
CONTINUOUS
 10
8.499920
 20
4.574240
  0
VERTEX
  8
FOREGROUND
  6
CONTINUOUS
 10
8.499920
 20
-6.425760
  0
VERTEX
  8
FOREGROUND
  6
CONTINUOUS
 10
0.000000
 20
-6.425760
  0
VERTEX
  8
FOREGROUND
  6
CONTINUOUS
 10
0.000000
 20
4.574240
  0
SEQEND
  8
0
  0
POLYLINE
  8
FOREGROUND
  6
CONTINUOUS
 66
     1
 40
0.000000
 41
0.000000
  0
VERTEX
  8
FOREGROUND
  6
CONTINUOUS
 10
0.000000
 20
4.574240
  0
VERTEX
  8
FOREGROUND
  6
CONTINUOUS
 10
8.499920
 20
4.574240
  0
VERTEX
  8
FOREGROUND
  6
CONTINUOUS
 10
8.499920
 20
-6.425760
  0
VERTEX
  8
FOREGROUND
  6
CONTINUOUS
 10
0.000000
 20
-6.425760
  0
VERTEX
  8
FOREGROUND
  6
CONTINUOUS
 10
0.000000
 20
4.574240
  0
SEQEND
  8
0
  0
POLYLINE
  8
0
  6
CONTINUOUS
 66
     1
 40
0.014080
 41
0.014080
  0
VERTEX
  8
0
  6
CONTINUOUS
 10
2.993320
 20
3.168440
  0
VERTEX
  8
0
  6
CONTINUOUS
 10
3.110360
 20
3.168440
  0
VERTEX
  8
0
  6
CONTINUOUS
 10
7.504200
 20
3.168440
  0
VERTEX
  8
0
  6
CONTINUOUS
 10
7.504200
 20
3.351480
  0
VERTEX
  8
0
  6
CONTINUOUS
 10
7.751480
 20
3.382280
  0
VERTEX
  8
0
  6
CONTINUOUS
 10
7.751480
 20
3.494040
  0
VERTEX
  8
0
  6
CONTINUOUS
 10
7.504200
 20
3.527040
  0
VERTEX
  8
0
  6
CONTINUOUS
 10
7.504200
 20
3.544640
  0
VERTEX
  8
0
  6
CONTINUOUS
 10
7.503320
 20
3.560920
  0
VERTEX
  8
0
  6
CONTINUOUS
 10
7.501560
 20
3.575880
  0
VERTEX
  8
0
  6
CONTINUOUS
 10
7.499360
 20
3.589960
  0
VERTEX
  8
0
  6
CONTINUOUS
 10
7.496280
 20
3.603160
  0
VERTEX
  8
0
  6
CONTINUOUS
 10
7.492320
 20
3.614600
  0
VERTEX
  8
0
  6
CONTINUOUS
 10
7.487920
 20
3.625600
  0
VERTEX
  8
0
  6
CONTINUOUS
 10
7.483080
 20
3.635280
  0
VERTEX
  8
0
  6
CONTINUOUS
 10
7.477800
 20
3.644080
  0
VERTEX
  8
0
  6
CONTINUOUS
 10
7.472080
 20
3.651560
  0
VERTEX
  8
0
  6
CONTINUOUS
 10
7.465480
 20
3.658160
  0
VERTEX
  8
0
  6
CONTINUOUS
 10
7.458880
 20
3.663880
  0
VERTEX
  8
0
  6
CONTINUOUS
 10
7.452280
 20
3.668720
  0
VERTEX
  8
0
  6
CONTINUOUS
 10
7.444800
 20
3.672680
  0
VERTEX
  8
0
  6
CONTINUOUS
 10
7.437760
 20
3.675320
  0
VERTEX
  8
0
  6
CONTINUOUS
 10
7.430280
 20
3.677520
  0
VERTEX
  8
0
  6
CONTINUOUS
 10
7.422360
 20
3.678400
  0
VERTEX
  8
0
  6
CONTINUOUS
 10
7.414880
 20
3.678840
  0
VERTEX
  8
0
  6
CONTINUOUS
 10
7.406960
 20
3.678400
  0
VERTEX
  8
0
  6
CONTINUOUS
 10
7.399480
 20
3.677080
  0
VERTEX
  8
0
  6
CONTINUOUS
 10
7.392000
 20
3.674880
  0
VERTEX
  8
0
  6
CONTINUOUS
 10
7.384520
 20
3.671800
  0
VERTEX
  8
0
  6
CONTINUOUS
 10
7.377480
 20
3.667840
  0
VERTEX
  8
0
  6
CONTINUOUS
 10
7.370880
 20
3.663440
  0
VERTEX
  8
0
  6
CONTINUOUS
 10
7.364280
 20
3.658160
  0
VERTEX
  8
0
  6
CONTINUOUS
 10
7.357680
 20
3.652440
  0
VERTEX
  8
0
  6
CONTINUOUS
 10
7.351960
 20
3.645840
  0
VERTEX
  8
0
  6
CONTINUOUS
 10
7.346680
 20
3.638360
  0
VERTEX
  8
0
  6
CONTINUOUS
 10
7.341840
 20
3.630440
  0
VERTEX
  8
0
  6
CONTINUOUS
 10
7.337440
 20
3.622080
  0
VERTEX
  8
0
  6
CONTINUOUS
 10
7.333920
 20
3.612840
  0
VERTEX
  8
0
  6
CONTINUOUS
 10
7.330840
 20
3.603160
  0
VERTEX
  8
0
  6
CONTINUOUS
 10
7.314120
 20
3.598760
  0
VERTEX
  8
0
  6
CONTINUOUS
 10
7.283320
 20
3.693360
  0
VERTEX
  8
0
  6
CONTINUOUS
 10
2.993760
 20
3.693360
  0
VERTEX
  8
0
  6
CONTINUOUS
 10
2.993760
 20
3.525280
  0
VERTEX
  8
0
  6
CONTINUOUS
 10
3.241040
 20
3.491840
  0
VERTEX
  8
0
  6
CONTINUOUS
 10
3.241040
 20
3.380520
  0
VERTEX
  8
0
  6
CONTINUOUS
 10
2.993760
 20
3.349280
  0
VERTEX
  8
0
  6
CONTINUOUS
 10
2.993760
 20
3.168880
  0
VERTEX
  8
0
  6
CONTINUOUS
 10
2.993320
 20
3.168440
  0
SEQEND
  8
0
  0
SOLID
  8
0
 62
    15
 10
7.436000
 20
1.856800
 11
7.438200
 21
2.599520
 12
7.450960
 22
1.851960
 13
7.453160
 23
2.594680
  0
POLYLINE
  8
0
  6
CONTINUOUS
 66
     1
 40
0.000000
 41
0.000000
  0
VERTEX
  8
0
  6
CONTINUOUS
 10
7.436000
 20
1.856800
  0
VERTEX
  8
0
  6
CONTINUOUS
 10
7.438200
 20
2.599520
  0
VERTEX
  8
0
  6
CONTINUOUS
 10
7.453160
 20
2.594680
  0
VERTEX
  8
0
  6
CONTINUOUS
 10
7.450960
 20
1.851960
  0
VERTEX
  8
0
  6
CONTINUOUS
 10
7.436000
 20
1.856800
  0
SEQEND
  8
0
  0
SOLID
  8
0
 62
    15
 10
7.320280
 20
1.778040
 11
7.322480
 21
2.520760
 12
7.337000
 22
1.782440
 13
7.338760
 23
2.525160
  0
POLYLINE
  8
0
  6
CONTINUOUS
 66
     1
 40
0.000000
 41
0.000000
  0
VERTEX
  8
0
  6
CONTINUOUS
 10
7.320280
 20
1.778040
  0
VERTEX
  8
0
  6
CONTINUOUS
 10
7.322480
 20
2.520760
  0
VERTEX
  8
0
  6
CONTINUOUS
 10
7.338760
 20
2.525160
  0
VERTEX
  8
0
  6
CONTINUOUS
 10
7.337000
 20
1.782440
  0
VERTEX
  8
0
  6
CONTINUOUS
 10
7.320280
 20
1.778040
  0
SEQEND
  8
0
  0
SOLID
  8
0
 62
    15
 10
7.289480
 20
1.872640
 11
7.291240
 21
2.615360
 12
7.320280
 22
1.778040
 13
7.322480
 23
2.520760
  0
POLYLINE
  8
0
  6
CONTINUOUS
 66
     1
 40
0.000000
 41
0.000000
  0
VERTEX
  8
0
  6
CONTINUOUS
 10
7.289480
 20
1.872640
  0
VERTEX
  8
0
  6
CONTINUOUS
 10
7.291240
 20
2.615360
  0
VERTEX
  8
0
  6
CONTINUOUS
 10
7.322480
 20
2.520760
  0
VERTEX
  8
0
  6
CONTINUOUS
 10
7.320280
 20
1.778040
  0
VERTEX
  8
0
  6
CONTINUOUS
 10
7.289480
 20
1.872640
  0
SEQEND
  8
0
  0
SOLID
  8
0
 62
    15
 10
2.999480
 20
1.347720
 11
3.001680
 21
2.090440
 12
2.999920
 22
1.348160
 13
3.002120
 23
2.090880
  0
POLYLINE
  8
0
  6
CONTINUOUS
 66
     1
 40
0.000000
 41
0.000000
  0
VERTEX
  8
0
  6
CONTINUOUS
 10
2.999480
 20
1.347720
  0
VERTEX
  8
0
  6
CONTINUOUS
 10
3.001680
 20
2.090440
  0
VERTEX
  8
0
  6
CONTINUOUS
 10
3.002120
 20
2.090880
  0
VERTEX
  8
0
  6
CONTINUOUS
 10
2.999920
 20
1.348160
  0
VERTEX
  8
0
  6
CONTINUOUS
 10
2.999480
 20
1.347720
  0
SEQEND
  8
0
  0
SOLID
  8
0
 62
    15
 10
7.337000
 20
1.782440
 11
7.338760
 21
2.525160
 12
7.343600
 22
1.801360
 13
7.345800
 23
2.544080
  0
POLYLINE
  8
0
  6
CONTINUOUS
 66
     1
 40
0.000000
 41
0.000000
  0
VERTEX
  8
0
  6
CONTINUOUS
 10
7.337000
 20
1.782440
  0
VERTEX
  8
0
  6
CONTINUOUS
 10
7.338760
 20
2.525160
  0
VERTEX
  8
0
  6
CONTINUOUS
 10
7.345800
 20
2.544080
  0
VERTEX
  8
0
  6
CONTINUOUS
 10
7.343600
 20
1.801360
  0
VERTEX
  8
0
  6
CONTINUOUS
 10
7.337000
 20
1.782440
  0
SEQEND
  8
0
  0
SOLID
  8
0
 62
    15
 10
7.343600
 20
1.801360
 11
7.345800
 21
2.544080
 12
7.352840
 22
1.817640
 13
7.354600
 23
2.560800
  0
POLYLINE
  8
0
  6
CONTINUOUS
 66
     1
 40
0.000000
 41
0.000000
  0
VERTEX
  8
0
  6
CONTINUOUS
 10
7.343600
 20
1.801360
  0
VERTEX
  8
0
  6
CONTINUOUS
 10
7.345800
 20
2.544080
  0
VERTEX
  8
0
  6
CONTINUOUS
 10
7.354600
 20
2.560800
  0
VERTEX
  8
0
  6
CONTINUOUS
 10
7.352840
 20
1.817640
  0
VERTEX
  8
0
  6
CONTINUOUS
 10
7.343600
 20
1.801360
  0
SEQEND
  8
0
  0
SOLID
  8
0
 62
    15
 10
7.352840
 20
1.817640
 11
7.354600
 21
2.560800
 12
7.363840
 22
1.831720
 13
7.366040
 23
2.574440
  0
POLYLINE
  8
0
  6
CONTINUOUS
 66
     1
 40
0.000000
 41
0.000000
  0
VERTEX
  8
0
  6
CONTINUOUS
 10
7.352840
 20
1.817640
  0
VERTEX
  8
0
  6
CONTINUOUS
 10
7.354600
 20
2.560800
  0
VERTEX
  8
0
  6
CONTINUOUS
 10
7.366040
 20
2.574440
  0
VERTEX
  8
0
  6
CONTINUOUS
 10
7.363840
 20
1.831720
  0
VERTEX
  8
0
  6
CONTINUOUS
 10
7.352840
 20
1.817640
  0
SEQEND
  8
0
  0
SOLID
  8
0
 62
    15
 10
7.363840
 20
1.831720
 11
7.366040
 21
2.574440
 12
7.376600
 22
1.842720
 13
7.378800
 23
2.585440
  0
POLYLINE
  8
0
  6
CONTINUOUS
 66
     1
 40
0.000000
 41
0.000000
  0
VERTEX
  8
0
  6
CONTINUOUS
 10
7.363840
 20
1.831720
  0
VERTEX
  8
0
  6
CONTINUOUS
 10
7.366040
 20
2.574440
  0
VERTEX
  8
0
  6
CONTINUOUS
 10
7.378800
 20
2.585440
  0
VERTEX
  8
0
  6
CONTINUOUS
 10
7.376600
 20
1.842720
  0
VERTEX
  8
0
  6
CONTINUOUS
 10
7.363840
 20
1.831720
  0
SEQEND
  8
0
  0
SOLID
  8
0
 62
    15
 10
7.376600
 20
1.842720
 11
7.378800
 21
2.585440
 12
7.390680
 22
1.851080
 13
7.392880
 23
2.593800
  0
POLYLINE
  8
0
  6
CONTINUOUS
 66
     1
 40
0.000000
 41
0.000000
  0
VERTEX
  8
0
  6
CONTINUOUS
 10
7.376600
 20
1.842720
  0
VERTEX
  8
0
  6
CONTINUOUS
 10
7.378800
 20
2.585440
  0
VERTEX
  8
0
  6
CONTINUOUS
 10
7.392880
 20
2.593800
  0
VERTEX
  8
0
  6
CONTINUOUS
 10
7.390680
 20
1.851080
  0
VERTEX
  8
0
  6
CONTINUOUS
 10
7.376600
 20
1.842720
  0
SEQEND
  8
0
  0
SOLID
  8
0
 62
    15
 10
7.390680
 20
1.851080
 11
7.392880
 21
2.593800
 12
7.405640
 22
1.856360
 13
7.407400
 23
2.599080
  0
POLYLINE
  8
0
  6
CONTINUOUS
 66
     1
 40
0.000000
 41
0.000000
  0
VERTEX
  8
0
  6
CONTINUOUS
 10
7.390680
 20
1.851080
  0
VERTEX
  8
0
  6
CONTINUOUS
 10
7.392880
 20
2.593800
  0
VERTEX
  8
0
  6
CONTINUOUS
 10
7.407400
 20
2.599080
  0
VERTEX
  8
0
  6
CONTINUOUS
 10
7.405640
 20
1.856360
  0
VERTEX
  8
0
  6
CONTINUOUS
 10
7.390680
 20
1.851080
  0
SEQEND
  8
0
  0
SOLID
  8
0
 62
    15
 10
7.405640
 20
1.856360
 11
7.407400
 21
2.599080
 12
7.420600
 22
1.858120
 13
7.422800
 23
2.600840
  0
POLYLINE
  8
0
  6
CONTINUOUS
 66
     1
 40
0.000000
 41
0.000000
  0
VERTEX
  8
0
  6
CONTINUOUS
 10
7.405640
 20
1.856360
  0
VERTEX
  8
0
  6
CONTINUOUS
 10
7.407400
 20
2.599080
  0
VERTEX
  8
0
  6
CONTINUOUS
 10
7.422800
 20
2.600840
  0
VERTEX
  8
0
  6
CONTINUOUS
 10
7.420600
 20
1.858120
  0
VERTEX
  8
0
  6
CONTINUOUS
 10
7.405640
 20
1.856360
  0
SEQEND
  8
0
  0
SOLID
  8
0
 62
    15
 10
7.420600
 20
1.858120
 11
7.422800
 21
2.600840
 12
7.436000
 22
1.856800
 13
7.438200
 23
2.599520
  0
POLYLINE
  8
0
  6
CONTINUOUS
 66
     1
 40
0.000000
 41
0.000000
  0
VERTEX
  8
0
  6
CONTINUOUS
 10
7.420600
 20
1.858120
  0
VERTEX
  8
0
  6
CONTINUOUS
 10
7.422800
 20
2.600840
  0
VERTEX
  8
0
  6
CONTINUOUS
 10
7.438200
 20
2.599520
  0
VERTEX
  8
0
  6
CONTINUOUS
 10
7.436000
 20
1.856800
  0
VERTEX
  8
0
  6
CONTINUOUS
 10
7.420600
 20
1.858120
  0
SEQEND
  8
0
  0
SOLID
  8
0
 62
    15
 10
2.999920
 20
1.528560
 11
3.002120
 21
2.271720
 12
3.247200
 22
1.559800
 13
3.248960
 23
2.302520
  0
POLYLINE
  8
0
  6
CONTINUOUS
 66
     1
 40
0.000000
 41
0.000000
  0
VERTEX
  8
0
  6
CONTINUOUS
 10
2.999920
 20
1.528560
  0
VERTEX
  8
0
  6
CONTINUOUS
 10
3.002120
 20
2.271720
  0
VERTEX
  8
0
  6
CONTINUOUS
 10
3.248960
 20
2.302520
  0
VERTEX
  8
0
  6
CONTINUOUS
 10
3.247200
 20
1.559800
  0
VERTEX
  8
0
  6
CONTINUOUS
 10
2.999920
 20
1.528560
  0
SEQEND
  8
0
  0
SOLID
  8
0
 62
    15
 10
7.450960
 20
1.851960
 11
7.453160
 21
2.594680
 12
7.465040
 22
1.843160
 13
7.467240
 23
2.586320
  0
POLYLINE
  8
0
  6
CONTINUOUS
 66
     1
 40
0.000000
 41
0.000000
  0
VERTEX
  8
0
  6
CONTINUOUS
 10
7.450960
 20
1.851960
  0
VERTEX
  8
0
  6
CONTINUOUS
 10
7.453160
 20
2.594680
  0
VERTEX
  8
0
  6
CONTINUOUS
 10
7.467240
 20
2.586320
  0
VERTEX
  8
0
  6
CONTINUOUS
 10
7.465040
 20
1.843160
  0
VERTEX
  8
0
  6
CONTINUOUS
 10
7.450960
 20
1.851960
  0
SEQEND
  8
0
  0
SOLID
  8
0
 62
    15
 10
7.465040
 20
1.843160
 11
7.467240
 21
2.586320
 12
7.477800
 22
1.830840
 13
7.480000
 23
2.573560
  0
POLYLINE
  8
0
  6
CONTINUOUS
 66
     1
 40
0.000000
 41
0.000000
  0
VERTEX
  8
0
  6
CONTINUOUS
 10
7.465040
 20
1.843160
  0
VERTEX
  8
0
  6
CONTINUOUS
 10
7.467240
 20
2.586320
  0
VERTEX
  8
0
  6
CONTINUOUS
 10
7.480000
 20
2.573560
  0
VERTEX
  8
0
  6
CONTINUOUS
 10
7.477800
 20
1.830840
  0
VERTEX
  8
0
  6
CONTINUOUS
 10
7.465040
 20
1.843160
  0
SEQEND
  8
0
  0
SOLID
  8
0
 62
    15
 10
7.477800
 20
1.830840
 11
7.480000
 21
2.573560
 12
7.489240
 22
1.814560
 13
7.491440
 23
2.557280
  0
POLYLINE
  8
0
  6
CONTINUOUS
 66
     1
 40
0.000000
 41
0.000000
  0
VERTEX
  8
0
  6
CONTINUOUS
 10
7.477800
 20
1.830840
  0
VERTEX
  8
0
  6
CONTINUOUS
 10
7.480000
 20
2.573560
  0
VERTEX
  8
0
  6
CONTINUOUS
 10
7.491440
 20
2.557280
  0
VERTEX
  8
0
  6
CONTINUOUS
 10
7.489240
 20
1.814560
  0
VERTEX
  8
0
  6
CONTINUOUS
 10
7.477800
 20
1.830840
  0
SEQEND
  8
0
  0
SOLID
  8
0
 62
    15
 10
7.498480
 20
1.794320
 11
7.500680
 21
2.537040
 12
7.505520
 22
1.769240
 13
7.507280
 23
2.512400
  0
POLYLINE
  8
0
  6
CONTINUOUS
 66
     1
 40
0.000000
 41
0.000000
  0
VERTEX
  8
0
  6
CONTINUOUS
 10
7.498480
 20
1.794320
  0
VERTEX
  8
0
  6
CONTINUOUS
 10
7.500680
 20
2.537040
  0
VERTEX
  8
0
  6
CONTINUOUS
 10
7.507280
 20
2.512400
  0
VERTEX
  8
0
  6
CONTINUOUS
 10
7.505520
 20
1.769240
  0
VERTEX
  8
0
  6
CONTINUOUS
 10
7.498480
 20
1.794320
  0
SEQEND
  8
0
  0
SOLID
  8
0
 62
    15
 10
7.489240
 20
1.814560
 11
7.491440
 21
2.557280
 12
7.498480
 22
1.794320
 13
7.500680
 23
2.537040
  0
POLYLINE
  8
0
  6
CONTINUOUS
 66
     1
 40
0.000000
 41
0.000000
  0
VERTEX
  8
0
  6
CONTINUOUS
 10
7.489240
 20
1.814560
  0
VERTEX
  8
0
  6
CONTINUOUS
 10
7.491440
 20
2.557280
  0
VERTEX
  8
0
  6
CONTINUOUS
 10
7.500680
 20
2.537040
  0
VERTEX
  8
0
  6
CONTINUOUS
 10
7.498480
 20
1.794320
  0
VERTEX
  8
0
  6
CONTINUOUS
 10
7.489240
 20
1.814560
  0
SEQEND
  8
0
  0
SOLID
  8
0
 62
    15
 10
7.505520
 20
1.769240
 11
7.507280
 21
2.512400
 12
7.509480
 22
1.740200
 13
7.511240
 23
2.482920
  0
POLYLINE
  8
0
  6
CONTINUOUS
 66
     1
 40
0.000000
 41
0.000000
  0
VERTEX
  8
0
  6
CONTINUOUS
 10
7.505520
 20
1.769240
  0
VERTEX
  8
0
  6
CONTINUOUS
 10
7.507280
 20
2.512400
  0
VERTEX
  8
0
  6
CONTINUOUS
 10
7.511240
 20
2.482920
  0
VERTEX
  8
0
  6
CONTINUOUS
 10
7.509480
 20
1.740200
  0
VERTEX
  8
0
  6
CONTINUOUS
 10
7.505520
 20
1.769240
  0
SEQEND
  8
0
  0
SOLID
  8
0
 62
    15
 10
7.757200
 20
1.673320
 11
7.759400
 21
2.416040
 12
7.757200
 22
1.561560
 13
7.759400
 23
2.304280
  0
POLYLINE
  8
0
  6
CONTINUOUS
 66
     1
 40
0.000000
 41
0.000000
  0
VERTEX
  8
0
  6
CONTINUOUS
 10
7.757200
 20
1.673320
  0
VERTEX
  8
0
  6
CONTINUOUS
 10
7.759400
 20
2.416040
  0
VERTEX
  8
0
  6
CONTINUOUS
 10
7.759400
 20
2.304280
  0
VERTEX
  8
0
  6
CONTINUOUS
 10
7.757200
 20
1.561560
  0
VERTEX
  8
0
  6
CONTINUOUS
 10
7.757200
 20
1.673320
  0
SEQEND
  8
0
  0
SOLID
  8
0
 62
    15
 10
7.510360
 20
1.706320
 11
7.512560
 21
2.449040
 12
7.757200
 22
1.673320
 13
7.759400
 23
2.416040
  0
POLYLINE
  8
0
  6
CONTINUOUS
 66
     1
 40
0.000000
 41
0.000000
  0
VERTEX
  8
0
  6
CONTINUOUS
 10
7.510360
 20
1.706320
  0
VERTEX
  8
0
  6
CONTINUOUS
 10
7.512560
 20
2.449040
  0
VERTEX
  8
0
  6
CONTINUOUS
 10
7.759400
 20
2.416040
  0
VERTEX
  8
0
  6
CONTINUOUS
 10
7.757200
 20
1.673320
  0
VERTEX
  8
0
  6
CONTINUOUS
 10
7.510360
 20
1.706320
  0
SEQEND
  8
0
  0
SOLID
  8
0
 62
    15
 10
7.509480
 20
1.740200
 11
7.511240
 21
2.482920
 12
7.510360
 22
1.706320
 13
7.512560
 23
2.449040
  0
POLYLINE
  8
0
  6
CONTINUOUS
 66
     1
 40
0.000000
 41
0.000000
  0
VERTEX
  8
0
  6
CONTINUOUS
 10
7.509480
 20
1.740200
  0
VERTEX
  8
0
  6
CONTINUOUS
 10
7.511240
 20
2.482920
  0
VERTEX
  8
0
  6
CONTINUOUS
 10
7.512560
 20
2.449040
  0
VERTEX
  8
0
  6
CONTINUOUS
 10
7.510360
 20
1.706320
  0
VERTEX
  8
0
  6
CONTINUOUS
 10
7.509480
 20
1.740200
  0
SEQEND
  8
0
  0
SOLID
  8
0
 62
    15
 10
7.510360
 20
1.530760
 11
7.512560
 21
2.273480
 12
7.510360
 22
1.347720
 13
7.512560
 23
2.090440
  0
POLYLINE
  8
0
  6
CONTINUOUS
 66
     1
 40
0.000000
 41
0.000000
  0
VERTEX
  8
0
  6
CONTINUOUS
 10
7.510360
 20
1.530760
  0
VERTEX
  8
0
  6
CONTINUOUS
 10
7.512560
 20
2.273480
  0
VERTEX
  8
0
  6
CONTINUOUS
 10
7.512560
 20
2.090440
  0
VERTEX
  8
0
  6
CONTINUOUS
 10
7.510360
 20
1.347720
  0
VERTEX
  8
0
  6
CONTINUOUS
 10
7.510360
 20
1.530760
  0
SEQEND
  8
0
  0
SOLID
  8
0
 62
    15
 10
2.999480
 20
1.872640
 11
3.001680
 21
2.615360
 12
7.289480
 22
1.872640
 13
7.291240
 23
2.615360
  0
POLYLINE
  8
0
  6
CONTINUOUS
 66
     1
 40
0.000000
 41
0.000000
  0
VERTEX
  8
0
  6
CONTINUOUS
 10
2.999480
 20
1.872640
  0
VERTEX
  8
0
  6
CONTINUOUS
 10
3.001680
 20
2.615360
  0
VERTEX
  8
0
  6
CONTINUOUS
 10
7.291240
 20
2.615360
  0
VERTEX
  8
0
  6
CONTINUOUS
 10
7.289480
 20
1.872640
  0
VERTEX
  8
0
  6
CONTINUOUS
 10
2.999480
 20
1.872640
  0
SEQEND
  8
0
  0
POLYLINE
  8
0
  6
CONTINUOUS
 66
     1
 40
0.000000
 41
0.000000
  0
VERTEX
  8
0
  6
CONTINUOUS
 10
2.999920
 20
1.348160
  0
VERTEX
  8
0
  6
CONTINUOUS
 10
2.999920
 20
1.528560
  0
VERTEX
  8
0
  6
CONTINUOUS
 10
3.247200
 20
1.559800
  0
VERTEX
  8
0
  6
CONTINUOUS
 10
3.247200
 20
1.671120
  0
VERTEX
  8
0
  6
CONTINUOUS
 10
2.999920
 20
1.704560
  0
VERTEX
  8
0
  6
CONTINUOUS
 10
2.999920
 20
1.872200
  0
VERTEX
  8
0
  6
CONTINUOUS
 10
2.999480
 20
1.872640
  0
VERTEX
  8
0
  6
CONTINUOUS
 10
7.289480
 20
1.872640
  0
VERTEX
  8
0
  6
CONTINUOUS
 10
7.320280
 20
1.778040
  0
VERTEX
  8
0
  6
CONTINUOUS
 10
7.337000
 20
1.782440
  0
VERTEX
  8
0
  6
CONTINUOUS
 10
7.343600
 20
1.801360
  0
VERTEX
  8
0
  6
CONTINUOUS
 10
7.352840
 20
1.817640
  0
VERTEX
  8
0
  6
CONTINUOUS
 10
7.363840
 20
1.831720
  0
VERTEX
  8
0
  6
CONTINUOUS
 10
7.376600
 20
1.842720
  0
VERTEX
  8
0
  6
CONTINUOUS
 10
7.390680
 20
1.851080
  0
VERTEX
  8
0
  6
CONTINUOUS
 10
7.405640
 20
1.856360
  0
VERTEX
  8
0
  6
CONTINUOUS
 10
7.420600
 20
1.858120
  0
VERTEX
  8
0
  6
CONTINUOUS
 10
7.436000
 20
1.856800
  0
VERTEX
  8
0
  6
CONTINUOUS
 10
7.450960
 20
1.851960
  0
VERTEX
  8
0
  6
CONTINUOUS
 10
7.465040
 20
1.843160
  0
VERTEX
  8
0
  6
CONTINUOUS
 10
7.477800
 20
1.830840
  0
VERTEX
  8
0
  6
CONTINUOUS
 10
7.489240
 20
1.814560
  0
VERTEX
  8
0
  6
CONTINUOUS
 10
7.498480
 20
1.794320
  0
VERTEX
  8
0
  6
CONTINUOUS
 10
7.505520
 20
1.769240
  0
VERTEX
  8
0
  6
CONTINUOUS
 10
7.509480
 20
1.740200
  0
VERTEX
  8
0
  6
CONTINUOUS
 10
7.510360
 20
1.706320
  0
VERTEX
  8
0
  6
CONTINUOUS
 10
7.757200
 20
1.673320
  0
VERTEX
  8
0
  6
CONTINUOUS
 10
7.757200
 20
1.561560
  0
VERTEX
  8
0
  6
CONTINUOUS
 10
7.510360
 20
1.530760
  0
VERTEX
  8
0
  6
CONTINUOUS
 10
7.510360
 20
1.347720
  0
VERTEX
  8
0
  6
CONTINUOUS
 10
2.999480
 20
1.347720
  0
VERTEX
  8
0
  6
CONTINUOUS
 10
2.999920
 20
1.348160
  0
SEQEND
  8
0
  0
TEXT
  8
0
 10
5.085080
 20
1.108800
 40
0.138048
  1
BA  645
 41
1.000000
  7
SN0
 71
     0
 72
     5
 11
5.675992
 21
1.108800
  0
TEXT
  8
0
 10
4.929320
 20
0.916960
 40
0.138048
  1
1/2" x 4-3/4"
 41
1.000000
  7
SN0
 71
     0
 72
     5
 11
5.831201
 21
0.916960
  0
ENDSEC
  0
EOF
