  0
SECTION
  2
HEADER
  9
$ACADVER
  1
AC1006
  9
$EXTMIN
 10
2.675200
 20
0.539000
  9
$EXTMAX
 10
7.494520
 20
5.712960
  9
$LTSCALE
 40
0.044000
  9
$PDMODE
 70
    35
  9
$PDSIZE
 40
0.035200
  0
ENDSEC
  0
SECTION
  2
TABLES
  0
TABLE
  2
LTYPE
 70
     9
  0
LTYPE
  2
CONTINUOUS
 70
    64
  3
Solid line
 72
    65
 73
     0
 40
0.000000
  0
LTYPE
  2
DASHED
 70
    64
  3
__ __ __ __ __ __ __ __ __ __ __ __ __ __ __
 72
    65
 73
     2
 40
0.000330
 49
0.000220
 49
-0.000110
  0
LTYPE
  2
HIDDEN
 70
    64
  3
 _ _ _ _ _ _ _ _ _ _ _ _ _ _ _ _ _ _ _ _ _ _
 72
    65
 73
     2
 40
0.000165
 49
0.000110
 49
-0.000055
  0
LTYPE
  2
CENTER
 70
    64
  3
____ _ ____ _ ____ _ ____ _ ____ _ ____ _ ____
 72
    65
 73
     4
 40
0.000880
 49
0.000550
 49
-0.000110
 49
0.000110
 49
-0.000110
  0
LTYPE
  2
PHANTOM
 70
    64
  3
_____ _ _ _____ _ _ _____ _ _ _____ _ _ ____
 72
    65
 73
     6
 40
0.001100
 49
0.000550
 49
-0.000110
 49
0.000110
 49
-0.000110
 49
0.000110
 49
-0.000110
  0
LTYPE
  2
DOT
 70
    64
  3
...............................................
 72
    65
 73
     2
 40
0.000110
 49
0.000000
 49
-0.000110
  0
LTYPE
  2
DASHDOT
 70
    64
  3
__ . __ . __ . __ . __ . __ . __ . __ . __ . __
 72
    65
 73
     4
 40
0.000440
 49
0.000220
 49
-0.000110
 49
0.000000
 49
-0.000110
  0
LTYPE
  2
BORDER
 70
    64
  3
__ __ . __ __ . __ __ . __ __ . __ __ . __ __
 72
    65
 73
     6
 40
0.000770
 49
0.000220
 49
-0.000110
 49
0.000220
 49
-0.000110
 49
0.000000
 49
-0.000110
  0
LTYPE
  2
DIVIDE
 70
    64
  3
__ . . __ . . __ . . __ . . __ . . __ . . __
 72
    65
 73
     6
 40
0.000550
 49
0.000220
 49
-0.000110
 49
0.000000
 49
-0.000110
 49
0.000000
 49
-0.000110
  0
LTYPE
  2
DOTDOT
 70
    64
  3
 . .  . .  . .  . .  . .  . . 
 72
    65
 73
     5
 40
0.000242
 49
-0.000110
 49
0.000000
 49
-0.000110
 49
0.000000
 49
-0.000110
  0
ENDTAB
  0
TABLE
  2
STYLE
 70
     2
  0
STYLE
 70
     0
  2
SN0
 40
0.000000
 41
0.000440
 50
0.000000
 71
     0
 42
0.000000
  3
ROMAND
  0
STYLE
 70
    68
  2
SV0
 40
0.000000
 41
0.000440
 50
0.000000
 71
     0
 42
0.000000
  3
ROMAND
  0
ENDTAB
  0
TABLE
  2
LAYER
 70
     3
  0
LAYER
  2
FOREGROUND
 70
    64
 62
     7
  6
CONTINUOUS
  0
LAYER
  2
BACKGROUND
 70
    65
 62
    -7
  6
CONTINUOUS
  0
LAYER
  2
0
 70
    64
 62
     7
  6
CONTINUOUS
  0
ENDTAB
  0
ENDSEC
  0
SECTION
  2
ENTITIES
  0
POLYLINE
  8
FOREGROUND
  6
CONTINUOUS
 66
     1
 40
0.000000
 41
0.000000
  0
VERTEX
  8
FOREGROUND
  6
CONTINUOUS
 10
0.000000
 20
6.251960
  0
VERTEX
  8
FOREGROUND
  6
CONTINUOUS
 10
8.499920
 20
6.251960
  0
VERTEX
  8
FOREGROUND
  6
CONTINUOUS
 10
8.499920
 20
-4.748040
  0
VERTEX
  8
FOREGROUND
  6
CONTINUOUS
 10
0.000000
 20
-4.748040
  0
VERTEX
  8
FOREGROUND
  6
CONTINUOUS
 10
0.000000
 20
6.251960
  0
SEQEND
  8
0
  0
POLYLINE
  8
FOREGROUND
  6
CONTINUOUS
 66
     1
 40
0.000000
 41
0.000000
  0
VERTEX
  8
FOREGROUND
  6
CONTINUOUS
 10
0.000000
 20
6.251960
  0
VERTEX
  8
FOREGROUND
  6
CONTINUOUS
 10
8.499920
 20
6.251960
  0
VERTEX
  8
FOREGROUND
  6
CONTINUOUS
 10
8.499920
 20
-4.748040
  0
VERTEX
  8
FOREGROUND
  6
CONTINUOUS
 10
0.000000
 20
-4.748040
  0
VERTEX
  8
FOREGROUND
  6
CONTINUOUS
 10
0.000000
 20
6.251960
  0
SEQEND
  8
0
  0
POLYLINE
  8
0
  6
CONTINUOUS
 66
     1
 40
0.014080
 41
0.014080
  0
VERTEX
  8
0
  6
CONTINUOUS
 10
3.553000
 20
5.530360
  0
VERTEX
  8
0
  6
CONTINUOUS
 10
3.573680
 20
5.546640
  0
VERTEX
  8
0
  6
CONTINUOUS
 10
3.594800
 20
5.560720
  0
VERTEX
  8
0
  6
CONTINUOUS
 10
3.615920
 20
5.572600
  0
VERTEX
  8
0
  6
CONTINUOUS
 10
3.648480
 20
5.586240
  0
VERTEX
  8
0
  6
CONTINUOUS
 10
3.681040
 20
5.593720
  0
VERTEX
  8
0
  6
CONTINUOUS
 10
3.703040
 20
5.594600
  0
VERTEX
  8
0
  6
CONTINUOUS
 10
3.725480
 20
5.591960
  0
VERTEX
  8
0
  6
CONTINUOUS
 10
3.747480
 20
5.585360
  0
VERTEX
  8
0
  6
CONTINUOUS
 10
3.769480
 20
5.575240
  0
VERTEX
  8
0
  6
CONTINUOUS
 10
3.802920
 20
5.551480
  0
VERTEX
  8
0
  6
CONTINUOUS
 10
3.824480
 20
5.529920
  0
VERTEX
  8
0
  6
CONTINUOUS
 10
3.857040
 20
5.488120
  0
VERTEX
  8
0
  6
CONTINUOUS
 10
3.878600
 20
5.453360
  0
VERTEX
  8
0
  6
CONTINUOUS
 10
3.939760
 20
5.338080
  0
VERTEX
  8
0
  6
CONTINUOUS
 10
3.967920
 20
5.294520
  0
VERTEX
  8
0
  6
CONTINUOUS
 10
3.996080
 20
5.260200
  0
VERTEX
  8
0
  6
CONTINUOUS
 10
4.025120
 20
5.234240
  0
VERTEX
  8
0
  6
CONTINUOUS
 10
4.055480
 20
5.214000
  0
VERTEX
  8
0
  6
CONTINUOUS
 10
4.077480
 20
5.203880
  0
VERTEX
  8
0
  6
CONTINUOUS
 10
4.126320
 20
5.187600
  0
VERTEX
  8
0
  6
CONTINUOUS
 10
4.183960
 20
5.174400
  0
VERTEX
  8
0
  6
CONTINUOUS
 10
4.292640
 20
5.153280
  0
VERTEX
  8
0
  6
CONTINUOUS
 10
4.306280
 20
5.048120
  0
VERTEX
  8
0
  6
CONTINUOUS
 10
4.340160
 20
5.048120
  0
VERTEX
  8
0
  6
CONTINUOUS
 10
4.356440
 20
5.067920
  0
VERTEX
  8
0
  6
CONTINUOUS
 10
4.374920
 20
5.084200
  0
VERTEX
  8
0
  6
CONTINUOUS
 10
4.395160
 20
5.096520
  0
VERTEX
  8
0
  6
CONTINUOUS
 10
4.416280
 20
5.104880
  0
VERTEX
  8
0
  6
CONTINUOUS
 10
4.438280
 20
5.109720
  0
VERTEX
  8
0
  6
CONTINUOUS
 10
4.461160
 20
5.110600
  0
VERTEX
  8
0
  6
CONTINUOUS
 10
4.484040
 20
5.107520
  0
VERTEX
  8
0
  6
CONTINUOUS
 10
4.506920
 20
5.100040
  0
VERTEX
  8
0
  6
CONTINUOUS
 10
4.528920
 20
5.088600
  0
VERTEX
  8
0
  6
CONTINUOUS
 10
4.550040
 20
5.072760
  0
VERTEX
  8
0
  6
CONTINUOUS
 10
4.569840
 20
5.052520
  0
VERTEX
  8
0
  6
CONTINUOUS
 10
4.587880
 20
5.027880
  0
VERTEX
  8
0
  6
CONTINUOUS
 10
4.604160
 20
4.998840
  0
VERTEX
  8
0
  6
CONTINUOUS
 10
4.617800
 20
4.965400
  0
VERTEX
  8
0
  6
CONTINUOUS
 10
4.628360
 20
4.927120
  0
VERTEX
  8
0
  6
CONTINUOUS
 10
4.636280
 20
4.884440
  0
VERTEX
  8
0
  6
CONTINUOUS
 10
4.728680
 20
4.873880
  0
VERTEX
  8
0
  6
CONTINUOUS
 10
4.736600
 20
4.848360
  0
VERTEX
  8
0
  6
CONTINUOUS
 10
4.751560
 20
4.821520
  0
VERTEX
  8
0
  6
CONTINUOUS
 10
4.765640
 20
4.803920
  0
VERTEX
  8
0
  6
CONTINUOUS
 10
4.782800
 20
4.787640
  0
VERTEX
  8
0
  6
CONTINUOUS
 10
4.803480
 20
4.774440
  0
VERTEX
  8
0
  6
CONTINUOUS
 10
4.827680
 20
4.764320
  0
VERTEX
  8
0
  6
CONTINUOUS
 10
4.854960
 20
4.759040
  0
VERTEX
  8
0
  6
CONTINUOUS
 10
4.871680
 20
4.636720
  0
VERTEX
  8
0
  6
CONTINUOUS
 10
5.991920
 20
4.642880
  0
VERTEX
  8
0
  6
CONTINUOUS
 10
6.019200
 20
4.542560
  0
VERTEX
  8
0
  6
CONTINUOUS
 10
6.051760
 20
4.542560
  0
VERTEX
  8
0
  6
CONTINUOUS
 10
6.067600
 20
4.565440
  0
VERTEX
  8
0
  6
CONTINUOUS
 10
6.084760
 20
4.584360
  0
VERTEX
  8
0
  6
CONTINUOUS
 10
6.102360
 20
4.598440
  0
VERTEX
  8
0
  6
CONTINUOUS
 10
6.120400
 20
4.607680
  0
VERTEX
  8
0
  6
CONTINUOUS
 10
6.138000
 20
4.610760
  0
VERTEX
  8
0
  6
CONTINUOUS
 10
6.155600
 20
4.606800
  0
VERTEX
  8
0
  6
CONTINUOUS
 10
6.163960
 20
4.602400
  0
VERTEX
  8
0
  6
CONTINUOUS
 10
6.172320
 20
4.595800
  0
VERTEX
  8
0
  6
CONTINUOUS
 10
6.187720
 20
4.576440
  0
VERTEX
  8
0
  6
CONTINUOUS
 10
6.209280
 20
4.546960
  0
VERTEX
  8
0
  6
CONTINUOUS
 10
6.230400
 20
4.526720
  0
VERTEX
  8
0
  6
CONTINUOUS
 10
6.256360
 20
4.511320
  0
VERTEX
  8
0
  6
CONTINUOUS
 10
6.303440
 20
4.492840
  0
VERTEX
  8
0
  6
CONTINUOUS
 10
6.311360
 20
4.488440
  0
VERTEX
  8
0
  6
CONTINUOUS
 10
6.321480
 20
4.478320
  0
VERTEX
  8
0
  6
CONTINUOUS
 10
6.327200
 20
4.468200
  0
VERTEX
  8
0
  6
CONTINUOUS
 10
6.331600
 20
4.446640
  0
VERTEX
  8
0
  6
CONTINUOUS
 10
6.332040
 20
4.426840
  0
VERTEX
  8
0
  6
CONTINUOUS
 10
7.180800
 20
4.426840
  0
VERTEX
  8
0
  6
CONTINUOUS
 10
7.180800
 20
4.045360
  0
VERTEX
  8
0
  6
CONTINUOUS
 10
2.682680
 20
4.045360
  0
VERTEX
  8
0
  6
CONTINUOUS
 10
2.682680
 20
5.705480
  0
VERTEX
  8
0
  6
CONTINUOUS
 10
3.382720
 20
5.705480
  0
VERTEX
  8
0
  6
CONTINUOUS
 10
3.402080
 20
5.609560
  0
VERTEX
  8
0
  6
CONTINUOUS
 10
3.528800
 20
5.609560
  0
VERTEX
  8
0
  6
CONTINUOUS
 10
3.528800
 20
5.530800
  0
VERTEX
  8
0
  6
CONTINUOUS
 10
3.553000
 20
5.530360
  0
SEQEND
  8
0
  0
SOLID
  8
0
 62
    15
 10
4.940320
 20
1.853280
 11
4.949560
 21
2.592920
 12
5.033160
 22
1.842720
 13
5.042400
 23
2.581920
  0
POLYLINE
  8
0
  6
CONTINUOUS
 66
     1
 40
0.000000
 41
0.000000
  0
VERTEX
  8
0
  6
CONTINUOUS
 10
4.940320
 20
1.853280
  0
VERTEX
  8
0
  6
CONTINUOUS
 10
4.949560
 20
2.592920
  0
VERTEX
  8
0
  6
CONTINUOUS
 10
5.042400
 20
2.581920
  0
VERTEX
  8
0
  6
CONTINUOUS
 10
5.033160
 20
1.842720
  0
VERTEX
  8
0
  6
CONTINUOUS
 10
4.940320
 20
1.853280
  0
SEQEND
  8
0
  0
SOLID
  8
0
 62
    15
 10
3.898840
 20
2.529560
 11
3.908080
 21
3.268760
 12
3.941960
 22
2.551120
 13
3.951200
 23
3.290760
  0
POLYLINE
  8
0
  6
CONTINUOUS
 66
     1
 40
0.000000
 41
0.000000
  0
VERTEX
  8
0
  6
CONTINUOUS
 10
3.898840
 20
2.529560
  0
VERTEX
  8
0
  6
CONTINUOUS
 10
3.908080
 20
3.268760
  0
VERTEX
  8
0
  6
CONTINUOUS
 10
3.951200
 20
3.290760
  0
VERTEX
  8
0
  6
CONTINUOUS
 10
3.941960
 20
2.551120
  0
VERTEX
  8
0
  6
CONTINUOUS
 10
3.898840
 20
2.529560
  0
SEQEND
  8
0
  0
SOLID
  8
0
 62
    15
 10
3.941960
 20
2.551120
 11
3.951200
 21
3.290760
 12
3.985520
 22
2.562560
 13
3.994760
 23
3.301760
  0
POLYLINE
  8
0
  6
CONTINUOUS
 66
     1
 40
0.000000
 41
0.000000
  0
VERTEX
  8
0
  6
CONTINUOUS
 10
3.941960
 20
2.551120
  0
VERTEX
  8
0
  6
CONTINUOUS
 10
3.951200
 20
3.290760
  0
VERTEX
  8
0
  6
CONTINUOUS
 10
3.994760
 20
3.301760
  0
VERTEX
  8
0
  6
CONTINUOUS
 10
3.985520
 20
2.562560
  0
VERTEX
  8
0
  6
CONTINUOUS
 10
3.941960
 20
2.551120
  0
SEQEND
  8
0
  0
SOLID
  8
0
 62
    15
 10
3.985520
 20
2.562560
 11
3.994760
 21
3.301760
 12
4.029960
 22
2.560800
 13
4.038760
 23
3.300000
  0
POLYLINE
  8
0
  6
CONTINUOUS
 66
     1
 40
0.000000
 41
0.000000
  0
VERTEX
  8
0
  6
CONTINUOUS
 10
3.985520
 20
2.562560
  0
VERTEX
  8
0
  6
CONTINUOUS
 10
3.994760
 20
3.301760
  0
VERTEX
  8
0
  6
CONTINUOUS
 10
4.038760
 20
3.300000
  0
VERTEX
  8
0
  6
CONTINUOUS
 10
4.029960
 20
2.560800
  0
VERTEX
  8
0
  6
CONTINUOUS
 10
3.985520
 20
2.562560
  0
SEQEND
  8
0
  0
SOLID
  8
0
 62
    15
 10
4.029960
 20
2.560800
 11
4.038760
 21
3.300000
 12
4.073960
 22
2.544080
 13
4.083200
 23
3.283280
  0
POLYLINE
  8
0
  6
CONTINUOUS
 66
     1
 40
0.000000
 41
0.000000
  0
VERTEX
  8
0
  6
CONTINUOUS
 10
4.029960
 20
2.560800
  0
VERTEX
  8
0
  6
CONTINUOUS
 10
4.038760
 20
3.300000
  0
VERTEX
  8
0
  6
CONTINUOUS
 10
4.083200
 20
3.283280
  0
VERTEX
  8
0
  6
CONTINUOUS
 10
4.073960
 20
2.544080
  0
VERTEX
  8
0
  6
CONTINUOUS
 10
4.029960
 20
2.560800
  0
SEQEND
  8
0
  0
SOLID
  8
0
 62
    15
 10
4.073960
 20
2.544080
 11
4.083200
 21
3.283280
 12
4.118400
 22
2.510200
 13
4.127200
 23
3.249400
  0
POLYLINE
  8
0
  6
CONTINUOUS
 66
     1
 40
0.000000
 41
0.000000
  0
VERTEX
  8
0
  6
CONTINUOUS
 10
4.073960
 20
2.544080
  0
VERTEX
  8
0
  6
CONTINUOUS
 10
4.083200
 20
3.283280
  0
VERTEX
  8
0
  6
CONTINUOUS
 10
4.127200
 20
3.249400
  0
VERTEX
  8
0
  6
CONTINUOUS
 10
4.118400
 20
2.510200
  0
VERTEX
  8
0
  6
CONTINUOUS
 10
4.073960
 20
2.544080
  0
SEQEND
  8
0
  0
SOLID
  8
0
 62
    15
 10
4.118400
 20
2.510200
 11
4.127200
 21
3.249400
 12
4.161520
 22
2.456960
 13
4.170760
 23
3.196160
  0
POLYLINE
  8
0
  6
CONTINUOUS
 66
     1
 40
0.000000
 41
0.000000
  0
VERTEX
  8
0
  6
CONTINUOUS
 10
4.118400
 20
2.510200
  0
VERTEX
  8
0
  6
CONTINUOUS
 10
4.127200
 20
3.249400
  0
VERTEX
  8
0
  6
CONTINUOUS
 10
4.170760
 20
3.196160
  0
VERTEX
  8
0
  6
CONTINUOUS
 10
4.161520
 20
2.456960
  0
VERTEX
  8
0
  6
CONTINUOUS
 10
4.118400
 20
2.510200
  0
SEQEND
  8
0
  0
SOLID
  8
0
 62
    15
 10
4.161520
 20
2.456960
 11
4.170760
 21
3.196160
 12
4.204200
 22
2.382160
 13
4.213440
 23
3.121360
  0
POLYLINE
  8
0
  6
CONTINUOUS
 66
     1
 40
0.000000
 41
0.000000
  0
VERTEX
  8
0
  6
CONTINUOUS
 10
4.161520
 20
2.456960
  0
VERTEX
  8
0
  6
CONTINUOUS
 10
4.170760
 20
3.196160
  0
VERTEX
  8
0
  6
CONTINUOUS
 10
4.213440
 20
3.121360
  0
VERTEX
  8
0
  6
CONTINUOUS
 10
4.204200
 20
2.382160
  0
VERTEX
  8
0
  6
CONTINUOUS
 10
4.161520
 20
2.456960
  0
SEQEND
  8
0
  0
SOLID
  8
0
 62
    15
 10
4.204200
 20
2.382160
 11
4.213440
 21
3.121360
 12
4.244240
 22
2.306920
 13
4.253480
 23
3.046120
  0
POLYLINE
  8
0
  6
CONTINUOUS
 66
     1
 40
0.000000
 41
0.000000
  0
VERTEX
  8
0
  6
CONTINUOUS
 10
4.204200
 20
2.382160
  0
VERTEX
  8
0
  6
CONTINUOUS
 10
4.213440
 20
3.121360
  0
VERTEX
  8
0
  6
CONTINUOUS
 10
4.253480
 20
3.046120
  0
VERTEX
  8
0
  6
CONTINUOUS
 10
4.244240
 20
2.306920
  0
VERTEX
  8
0
  6
CONTINUOUS
 10
4.204200
 20
2.382160
  0
SEQEND
  8
0
  0
SOLID
  8
0
 62
    15
 10
4.244240
 20
2.306920
 11
4.253480
 21
3.046120
 12
4.282080
 22
2.251040
 13
4.291320
 23
2.990240
  0
POLYLINE
  8
0
  6
CONTINUOUS
 66
     1
 40
0.000000
 41
0.000000
  0
VERTEX
  8
0
  6
CONTINUOUS
 10
4.244240
 20
2.306920
  0
VERTEX
  8
0
  6
CONTINUOUS
 10
4.253480
 20
3.046120
  0
VERTEX
  8
0
  6
CONTINUOUS
 10
4.291320
 20
2.990240
  0
VERTEX
  8
0
  6
CONTINUOUS
 10
4.282080
 20
2.251040
  0
VERTEX
  8
0
  6
CONTINUOUS
 10
4.244240
 20
2.306920
  0
SEQEND
  8
0
  0
SOLID
  8
0
 62
    15
 10
4.282080
 20
2.251040
 11
4.291320
 21
2.990240
 12
4.319920
 22
2.211000
 13
4.328720
 23
2.950200
  0
POLYLINE
  8
0
  6
CONTINUOUS
 66
     1
 40
0.000000
 41
0.000000
  0
VERTEX
  8
0
  6
CONTINUOUS
 10
4.282080
 20
2.251040
  0
VERTEX
  8
0
  6
CONTINUOUS
 10
4.291320
 20
2.990240
  0
VERTEX
  8
0
  6
CONTINUOUS
 10
4.328720
 20
2.950200
  0
VERTEX
  8
0
  6
CONTINUOUS
 10
4.319920
 20
2.211000
  0
VERTEX
  8
0
  6
CONTINUOUS
 10
4.282080
 20
2.251040
  0
SEQEND
  8
0
  0
SOLID
  8
0
 62
    15
 10
4.319920
 20
2.211000
 11
4.328720
 21
2.950200
 12
4.359960
 22
2.182840
 13
4.369200
 23
2.922480
  0
POLYLINE
  8
0
  6
CONTINUOUS
 66
     1
 40
0.000000
 41
0.000000
  0
VERTEX
  8
0
  6
CONTINUOUS
 10
4.319920
 20
2.211000
  0
VERTEX
  8
0
  6
CONTINUOUS
 10
4.328720
 20
2.950200
  0
VERTEX
  8
0
  6
CONTINUOUS
 10
4.369200
 20
2.922480
  0
VERTEX
  8
0
  6
CONTINUOUS
 10
4.359960
 20
2.182840
  0
VERTEX
  8
0
  6
CONTINUOUS
 10
4.319920
 20
2.211000
  0
SEQEND
  8
0
  0
SOLID
  8
0
 62
    15
 10
4.359960
 20
2.182840
 11
4.369200
 21
2.922480
 12
4.405720
 22
2.163480
 13
4.414520
 23
2.903120
  0
POLYLINE
  8
0
  6
CONTINUOUS
 66
     1
 40
0.000000
 41
0.000000
  0
VERTEX
  8
0
  6
CONTINUOUS
 10
4.359960
 20
2.182840
  0
VERTEX
  8
0
  6
CONTINUOUS
 10
4.369200
 20
2.922480
  0
VERTEX
  8
0
  6
CONTINUOUS
 10
4.414520
 20
2.903120
  0
VERTEX
  8
0
  6
CONTINUOUS
 10
4.405720
 20
2.163480
  0
VERTEX
  8
0
  6
CONTINUOUS
 10
4.359960
 20
2.182840
  0
SEQEND
  8
0
  0
SOLID
  8
0
 62
    15
 10
4.405720
 20
2.163480
 11
4.414520
 21
2.903120
 12
4.458520
 22
2.149400
 13
4.467760
 23
2.889040
  0
POLYLINE
  8
0
  6
CONTINUOUS
 66
     1
 40
0.000000
 41
0.000000
  0
VERTEX
  8
0
  6
CONTINUOUS
 10
4.405720
 20
2.163480
  0
VERTEX
  8
0
  6
CONTINUOUS
 10
4.414520
 20
2.903120
  0
VERTEX
  8
0
  6
CONTINUOUS
 10
4.467760
 20
2.889040
  0
VERTEX
  8
0
  6
CONTINUOUS
 10
4.458520
 20
2.149400
  0
VERTEX
  8
0
  6
CONTINUOUS
 10
4.405720
 20
2.163480
  0
SEQEND
  8
0
  0
SOLID
  8
0
 62
    15
 10
4.458520
 20
2.149400
 11
4.467760
 21
2.889040
 12
4.521440
 22
2.137080
 13
4.530680
 23
2.876280
  0
POLYLINE
  8
0
  6
CONTINUOUS
 66
     1
 40
0.000000
 41
0.000000
  0
VERTEX
  8
0
  6
CONTINUOUS
 10
4.458520
 20
2.149400
  0
VERTEX
  8
0
  6
CONTINUOUS
 10
4.467760
 20
2.889040
  0
VERTEX
  8
0
  6
CONTINUOUS
 10
4.530680
 20
2.876280
  0
VERTEX
  8
0
  6
CONTINUOUS
 10
4.521440
 20
2.137080
  0
VERTEX
  8
0
  6
CONTINUOUS
 10
4.458520
 20
2.149400
  0
SEQEND
  8
0
  0
SOLID
  8
0
 62
    15
 10
4.521440
 20
2.137080
 11
4.530680
 21
2.876280
 12
4.557520
 22
2.130040
 13
4.566760
 23
2.869240
  0
POLYLINE
  8
0
  6
CONTINUOUS
 66
     1
 40
0.000000
 41
0.000000
  0
VERTEX
  8
0
  6
CONTINUOUS
 10
4.521440
 20
2.137080
  0
VERTEX
  8
0
  6
CONTINUOUS
 10
4.530680
 20
2.876280
  0
VERTEX
  8
0
  6
CONTINUOUS
 10
4.566760
 20
2.869240
  0
VERTEX
  8
0
  6
CONTINUOUS
 10
4.557520
 20
2.130040
  0
VERTEX
  8
0
  6
CONTINUOUS
 10
4.521440
 20
2.137080
  0
SEQEND
  8
0
  0
SOLID
  8
0
 62
    15
 10
4.557520
 20
2.130040
 11
4.566760
 21
2.869240
 12
4.597120
 22
2.122120
 13
4.605920
 23
2.861760
  0
POLYLINE
  8
0
  6
CONTINUOUS
 66
     1
 40
0.000000
 41
0.000000
  0
VERTEX
  8
0
  6
CONTINUOUS
 10
4.557520
 20
2.130040
  0
VERTEX
  8
0
  6
CONTINUOUS
 10
4.566760
 20
2.869240
  0
VERTEX
  8
0
  6
CONTINUOUS
 10
4.605920
 20
2.861760
  0
VERTEX
  8
0
  6
CONTINUOUS
 10
4.597120
 20
2.122120
  0
VERTEX
  8
0
  6
CONTINUOUS
 10
4.557520
 20
2.130040
  0
SEQEND
  8
0
  0
SOLID
  8
0
 62
    15
 10
4.597120
 20
2.122120
 11
4.605920
 21
2.861760
 12
4.610760
 22
2.016960
 13
4.619560
 23
2.756160
  0
POLYLINE
  8
0
  6
CONTINUOUS
 66
     1
 40
0.000000
 41
0.000000
  0
VERTEX
  8
0
  6
CONTINUOUS
 10
4.597120
 20
2.122120
  0
VERTEX
  8
0
  6
CONTINUOUS
 10
4.605920
 20
2.861760
  0
VERTEX
  8
0
  6
CONTINUOUS
 10
4.619560
 20
2.756160
  0
VERTEX
  8
0
  6
CONTINUOUS
 10
4.610760
 20
2.016960
  0
VERTEX
  8
0
  6
CONTINUOUS
 10
4.597120
 20
2.122120
  0
SEQEND
  8
0
  0
SOLID
  8
0
 62
    15
 10
4.610760
 20
2.016960
 11
4.619560
 21
2.756160
 12
4.644640
 22
2.016960
 13
4.653440
 23
2.756160
  0
POLYLINE
  8
0
  6
CONTINUOUS
 66
     1
 40
0.000000
 41
0.000000
  0
VERTEX
  8
0
  6
CONTINUOUS
 10
4.610760
 20
2.016960
  0
VERTEX
  8
0
  6
CONTINUOUS
 10
4.619560
 20
2.756160
  0
VERTEX
  8
0
  6
CONTINUOUS
 10
4.653440
 20
2.756160
  0
VERTEX
  8
0
  6
CONTINUOUS
 10
4.644640
 20
2.016960
  0
VERTEX
  8
0
  6
CONTINUOUS
 10
4.610760
 20
2.016960
  0
SEQEND
  8
0
  0
SOLID
  8
0
 62
    15
 10
4.644640
 20
2.016960
 11
4.653440
 21
2.756160
 12
4.679400
 22
2.052600
 13
4.688200
 23
2.792240
  0
POLYLINE
  8
0
  6
CONTINUOUS
 66
     1
 40
0.000000
 41
0.000000
  0
VERTEX
  8
0
  6
CONTINUOUS
 10
4.644640
 20
2.016960
  0
VERTEX
  8
0
  6
CONTINUOUS
 10
4.653440
 20
2.756160
  0
VERTEX
  8
0
  6
CONTINUOUS
 10
4.688200
 20
2.792240
  0
VERTEX
  8
0
  6
CONTINUOUS
 10
4.679400
 20
2.052600
  0
VERTEX
  8
0
  6
CONTINUOUS
 10
4.644640
 20
2.016960
  0
SEQEND
  8
0
  0
SOLID
  8
0
 62
    15
 10
4.679400
 20
2.052600
 11
4.688200
 21
2.792240
 12
4.720760
 22
2.073720
 13
4.729560
 23
2.813360
  0
POLYLINE
  8
0
  6
CONTINUOUS
 66
     1
 40
0.000000
 41
0.000000
  0
VERTEX
  8
0
  6
CONTINUOUS
 10
4.679400
 20
2.052600
  0
VERTEX
  8
0
  6
CONTINUOUS
 10
4.688200
 20
2.792240
  0
VERTEX
  8
0
  6
CONTINUOUS
 10
4.729560
 20
2.813360
  0
VERTEX
  8
0
  6
CONTINUOUS
 10
4.720760
 20
2.073720
  0
VERTEX
  8
0
  6
CONTINUOUS
 10
4.679400
 20
2.052600
  0
SEQEND
  8
0
  0
SOLID
  8
0
 62
    15
 10
4.720760
 20
2.073720
 11
4.729560
 21
2.813360
 12
4.765640
 22
2.079440
 13
4.774440
 23
2.818640
  0
POLYLINE
  8
0
  6
CONTINUOUS
 66
     1
 40
0.000000
 41
0.000000
  0
VERTEX
  8
0
  6
CONTINUOUS
 10
4.720760
 20
2.073720
  0
VERTEX
  8
0
  6
CONTINUOUS
 10
4.729560
 20
2.813360
  0
VERTEX
  8
0
  6
CONTINUOUS
 10
4.774440
 20
2.818640
  0
VERTEX
  8
0
  6
CONTINUOUS
 10
4.765640
 20
2.079440
  0
VERTEX
  8
0
  6
CONTINUOUS
 10
4.720760
 20
2.073720
  0
SEQEND
  8
0
  0
SOLID
  8
0
 62
    15
 10
4.765640
 20
2.079440
 11
4.774440
 21
2.818640
 12
4.810960
 22
2.068880
 13
4.820200
 23
2.808080
  0
POLYLINE
  8
0
  6
CONTINUOUS
 66
     1
 40
0.000000
 41
0.000000
  0
VERTEX
  8
0
  6
CONTINUOUS
 10
4.765640
 20
2.079440
  0
VERTEX
  8
0
  6
CONTINUOUS
 10
4.774440
 20
2.818640
  0
VERTEX
  8
0
  6
CONTINUOUS
 10
4.820200
 20
2.808080
  0
VERTEX
  8
0
  6
CONTINUOUS
 10
4.810960
 20
2.068880
  0
VERTEX
  8
0
  6
CONTINUOUS
 10
4.765640
 20
2.079440
  0
SEQEND
  8
0
  0
SOLID
  8
0
 62
    15
 10
4.810960
 20
2.068880
 11
4.820200
 21
2.808080
 12
4.854080
 22
2.041600
 13
4.863320
 23
2.780800
  0
POLYLINE
  8
0
  6
CONTINUOUS
 66
     1
 40
0.000000
 41
0.000000
  0
VERTEX
  8
0
  6
CONTINUOUS
 10
4.810960
 20
2.068880
  0
VERTEX
  8
0
  6
CONTINUOUS
 10
4.820200
 20
2.808080
  0
VERTEX
  8
0
  6
CONTINUOUS
 10
4.863320
 20
2.780800
  0
VERTEX
  8
0
  6
CONTINUOUS
 10
4.854080
 20
2.041600
  0
VERTEX
  8
0
  6
CONTINUOUS
 10
4.810960
 20
2.068880
  0
SEQEND
  8
0
  0
SOLID
  8
0
 62
    15
 10
4.854080
 20
2.041600
 11
4.863320
 21
2.780800
 12
4.892360
 22
1.996720
 13
4.901160
 23
2.736360
  0
POLYLINE
  8
0
  6
CONTINUOUS
 66
     1
 40
0.000000
 41
0.000000
  0
VERTEX
  8
0
  6
CONTINUOUS
 10
4.854080
 20
2.041600
  0
VERTEX
  8
0
  6
CONTINUOUS
 10
4.863320
 20
2.780800
  0
VERTEX
  8
0
  6
CONTINUOUS
 10
4.901160
 20
2.736360
  0
VERTEX
  8
0
  6
CONTINUOUS
 10
4.892360
 20
1.996720
  0
VERTEX
  8
0
  6
CONTINUOUS
 10
4.854080
 20
2.041600
  0
SEQEND
  8
0
  0
SOLID
  8
0
 62
    15
 10
4.892360
 20
1.996720
 11
4.901160
 21
2.736360
 12
4.921840
 22
1.934240
 13
4.931080
 23
2.673880
  0
POLYLINE
  8
0
  6
CONTINUOUS
 66
     1
 40
0.000000
 41
0.000000
  0
VERTEX
  8
0
  6
CONTINUOUS
 10
4.892360
 20
1.996720
  0
VERTEX
  8
0
  6
CONTINUOUS
 10
4.901160
 20
2.736360
  0
VERTEX
  8
0
  6
CONTINUOUS
 10
4.931080
 20
2.673880
  0
VERTEX
  8
0
  6
CONTINUOUS
 10
4.921840
 20
1.934240
  0
VERTEX
  8
0
  6
CONTINUOUS
 10
4.892360
 20
1.996720
  0
SEQEND
  8
0
  0
SOLID
  8
0
 62
    15
 10
4.921840
 20
1.934240
 11
4.931080
 21
2.673880
 12
4.940320
 22
1.853280
 13
4.949560
 23
2.592920
  0
POLYLINE
  8
0
  6
CONTINUOUS
 66
     1
 40
0.000000
 41
0.000000
  0
VERTEX
  8
0
  6
CONTINUOUS
 10
4.921840
 20
1.934240
  0
VERTEX
  8
0
  6
CONTINUOUS
 10
4.931080
 20
2.673880
  0
VERTEX
  8
0
  6
CONTINUOUS
 10
4.949560
 20
2.592920
  0
VERTEX
  8
0
  6
CONTINUOUS
 10
4.940320
 20
1.853280
  0
VERTEX
  8
0
  6
CONTINUOUS
 10
4.921840
 20
1.934240
  0
SEQEND
  8
0
  0
SOLID
  8
0
 62
    15
 10
3.857480
 20
2.499200
 11
3.866720
 21
3.238400
 12
3.898840
 22
2.529560
 13
3.908080
 23
3.268760
  0
POLYLINE
  8
0
  6
CONTINUOUS
 66
     1
 40
0.000000
 41
0.000000
  0
VERTEX
  8
0
  6
CONTINUOUS
 10
3.857480
 20
2.499200
  0
VERTEX
  8
0
  6
CONTINUOUS
 10
3.866720
 20
3.238400
  0
VERTEX
  8
0
  6
CONTINUOUS
 10
3.908080
 20
3.268760
  0
VERTEX
  8
0
  6
CONTINUOUS
 10
3.898840
 20
2.529560
  0
VERTEX
  8
0
  6
CONTINUOUS
 10
3.857480
 20
2.499200
  0
SEQEND
  8
0
  0
SOLID
  8
0
 62
    15
 10
5.033160
 20
1.842720
 11
5.042400
 21
2.581920
 12
5.045040
 22
1.808400
 13
5.054280
 23
2.547600
  0
POLYLINE
  8
0
  6
CONTINUOUS
 66
     1
 40
0.000000
 41
0.000000
  0
VERTEX
  8
0
  6
CONTINUOUS
 10
5.033160
 20
1.842720
  0
VERTEX
  8
0
  6
CONTINUOUS
 10
5.042400
 20
2.581920
  0
VERTEX
  8
0
  6
CONTINUOUS
 10
5.054280
 20
2.547600
  0
VERTEX
  8
0
  6
CONTINUOUS
 10
5.045040
 20
1.808400
  0
VERTEX
  8
0
  6
CONTINUOUS
 10
5.033160
 20
1.842720
  0
SEQEND
  8
0
  0
SOLID
  8
0
 62
    15
 10
5.045040
 20
1.808400
 11
5.054280
 21
2.547600
 12
5.070120
 22
1.772760
 13
5.079360
 23
2.511960
  0
POLYLINE
  8
0
  6
CONTINUOUS
 66
     1
 40
0.000000
 41
0.000000
  0
VERTEX
  8
0
  6
CONTINUOUS
 10
5.045040
 20
1.808400
  0
VERTEX
  8
0
  6
CONTINUOUS
 10
5.054280
 20
2.547600
  0
VERTEX
  8
0
  6
CONTINUOUS
 10
5.079360
 20
2.511960
  0
VERTEX
  8
0
  6
CONTINUOUS
 10
5.070120
 20
1.772760
  0
VERTEX
  8
0
  6
CONTINUOUS
 10
5.045040
 20
1.808400
  0
SEQEND
  8
0
  0
SOLID
  8
0
 62
    15
 10
5.070120
 20
1.772760
 11
5.079360
 21
2.511960
 12
5.107960
 22
1.743280
 13
5.117200
 23
2.482480
  0
POLYLINE
  8
0
  6
CONTINUOUS
 66
     1
 40
0.000000
 41
0.000000
  0
VERTEX
  8
0
  6
CONTINUOUS
 10
5.070120
 20
1.772760
  0
VERTEX
  8
0
  6
CONTINUOUS
 10
5.079360
 20
2.511960
  0
VERTEX
  8
0
  6
CONTINUOUS
 10
5.117200
 20
2.482480
  0
VERTEX
  8
0
  6
CONTINUOUS
 10
5.107960
 20
1.743280
  0
VERTEX
  8
0
  6
CONTINUOUS
 10
5.070120
 20
1.772760
  0
SEQEND
  8
0
  0
SOLID
  8
0
 62
    15
 10
5.107960
 20
1.743280
 11
5.117200
 21
2.482480
 12
5.159440
 22
1.727880
 13
5.168680
 23
2.467080
  0
POLYLINE
  8
0
  6
CONTINUOUS
 66
     1
 40
0.000000
 41
0.000000
  0
VERTEX
  8
0
  6
CONTINUOUS
 10
5.107960
 20
1.743280
  0
VERTEX
  8
0
  6
CONTINUOUS
 10
5.117200
 20
2.482480
  0
VERTEX
  8
0
  6
CONTINUOUS
 10
5.168680
 20
2.467080
  0
VERTEX
  8
0
  6
CONTINUOUS
 10
5.159440
 20
1.727880
  0
VERTEX
  8
0
  6
CONTINUOUS
 10
5.107960
 20
1.743280
  0
SEQEND
  8
0
  0
SOLID
  8
0
 62
    15
 10
5.159440
 20
1.727880
 11
5.168680
 21
2.467080
 12
5.176160
 22
1.605560
 13
5.185400
 23
2.344760
  0
POLYLINE
  8
0
  6
CONTINUOUS
 66
     1
 40
0.000000
 41
0.000000
  0
VERTEX
  8
0
  6
CONTINUOUS
 10
5.159440
 20
1.727880
  0
VERTEX
  8
0
  6
CONTINUOUS
 10
5.168680
 20
2.467080
  0
VERTEX
  8
0
  6
CONTINUOUS
 10
5.185400
 20
2.344760
  0
VERTEX
  8
0
  6
CONTINUOUS
 10
5.176160
 20
1.605560
  0
VERTEX
  8
0
  6
CONTINUOUS
 10
5.159440
 20
1.727880
  0
SEQEND
  8
0
  0
SOLID
  8
0
 62
    15
 10
5.176160
 20
1.605560
 11
5.185400
 21
2.344760
 12
6.296400
 22
1.611720
 13
6.305640
 23
2.351360
  0
POLYLINE
  8
0
  6
CONTINUOUS
 66
     1
 40
0.000000
 41
0.000000
  0
VERTEX
  8
0
  6
CONTINUOUS
 10
5.176160
 20
1.605560
  0
VERTEX
  8
0
  6
CONTINUOUS
 10
5.185400
 20
2.344760
  0
VERTEX
  8
0
  6
CONTINUOUS
 10
6.305640
 20
2.351360
  0
VERTEX
  8
0
  6
CONTINUOUS
 10
6.296400
 20
1.611720
  0
VERTEX
  8
0
  6
CONTINUOUS
 10
5.176160
 20
1.605560
  0
SEQEND
  8
0
  0
SOLID
  8
0
 62
    15
 10
6.296400
 20
1.611720
 11
6.305640
 21
2.351360
 12
6.323680
 22
1.511400
 13
6.332920
 23
2.250600
  0
POLYLINE
  8
0
  6
CONTINUOUS
 66
     1
 40
0.000000
 41
0.000000
  0
VERTEX
  8
0
  6
CONTINUOUS
 10
6.296400
 20
1.611720
  0
VERTEX
  8
0
  6
CONTINUOUS
 10
6.305640
 20
2.351360
  0
VERTEX
  8
0
  6
CONTINUOUS
 10
6.332920
 20
2.250600
  0
VERTEX
  8
0
  6
CONTINUOUS
 10
6.323680
 20
1.511400
  0
VERTEX
  8
0
  6
CONTINUOUS
 10
6.296400
 20
1.611720
  0
SEQEND
  8
0
  0
SOLID
  8
0
 62
    15
 10
6.323680
 20
1.511400
 11
6.332920
 21
2.250600
 12
6.356240
 22
1.511400
 13
6.365480
 23
2.250600
  0
POLYLINE
  8
0
  6
CONTINUOUS
 66
     1
 40
0.000000
 41
0.000000
  0
VERTEX
  8
0
  6
CONTINUOUS
 10
6.323680
 20
1.511400
  0
VERTEX
  8
0
  6
CONTINUOUS
 10
6.332920
 20
2.250600
  0
VERTEX
  8
0
  6
CONTINUOUS
 10
6.365480
 20
2.250600
  0
VERTEX
  8
0
  6
CONTINUOUS
 10
6.356240
 20
1.511400
  0
VERTEX
  8
0
  6
CONTINUOUS
 10
6.323680
 20
1.511400
  0
SEQEND
  8
0
  0
SOLID
  8
0
 62
    15
 10
6.356240
 20
1.511400
 11
6.365480
 21
2.250600
 12
6.388800
 22
1.553200
 13
6.398040
 23
2.292400
  0
POLYLINE
  8
0
  6
CONTINUOUS
 66
     1
 40
0.000000
 41
0.000000
  0
VERTEX
  8
0
  6
CONTINUOUS
 10
6.356240
 20
1.511400
  0
VERTEX
  8
0
  6
CONTINUOUS
 10
6.365480
 20
2.250600
  0
VERTEX
  8
0
  6
CONTINUOUS
 10
6.398040
 20
2.292400
  0
VERTEX
  8
0
  6
CONTINUOUS
 10
6.388800
 20
1.553200
  0
VERTEX
  8
0
  6
CONTINUOUS
 10
6.356240
 20
1.511400
  0
SEQEND
  8
0
  0
SOLID
  8
0
 62
    15
 10
6.388800
 20
1.553200
 11
6.398040
 21
2.292400
 12
6.424440
 22
1.576520
 13
6.433680
 23
2.315720
  0
POLYLINE
  8
0
  6
CONTINUOUS
 66
     1
 40
0.000000
 41
0.000000
  0
VERTEX
  8
0
  6
CONTINUOUS
 10
6.388800
 20
1.553200
  0
VERTEX
  8
0
  6
CONTINUOUS
 10
6.398040
 20
2.292400
  0
VERTEX
  8
0
  6
CONTINUOUS
 10
6.433680
 20
2.315720
  0
VERTEX
  8
0
  6
CONTINUOUS
 10
6.424440
 20
1.576520
  0
VERTEX
  8
0
  6
CONTINUOUS
 10
6.388800
 20
1.553200
  0
SEQEND
  8
0
  0
SOLID
  8
0
 62
    15
 10
6.424440
 20
1.576520
 11
6.433680
 21
2.315720
 12
6.460080
 22
1.575640
 13
6.469320
 23
2.315280
  0
POLYLINE
  8
0
  6
CONTINUOUS
 66
     1
 40
0.000000
 41
0.000000
  0
VERTEX
  8
0
  6
CONTINUOUS
 10
6.424440
 20
1.576520
  0
VERTEX
  8
0
  6
CONTINUOUS
 10
6.433680
 20
2.315720
  0
VERTEX
  8
0
  6
CONTINUOUS
 10
6.469320
 20
2.315280
  0
VERTEX
  8
0
  6
CONTINUOUS
 10
6.460080
 20
1.575640
  0
VERTEX
  8
0
  6
CONTINUOUS
 10
6.424440
 20
1.576520
  0
SEQEND
  8
0
  0
SOLID
  8
0
 62
    15
 10
6.460080
 20
1.575640
 11
6.469320
 21
2.315280
 12
6.476800
 22
1.564640
 13
6.485600
 23
2.303840
  0
POLYLINE
  8
0
  6
CONTINUOUS
 66
     1
 40
0.000000
 41
0.000000
  0
VERTEX
  8
0
  6
CONTINUOUS
 10
6.460080
 20
1.575640
  0
VERTEX
  8
0
  6
CONTINUOUS
 10
6.469320
 20
2.315280
  0
VERTEX
  8
0
  6
CONTINUOUS
 10
6.485600
 20
2.303840
  0
VERTEX
  8
0
  6
CONTINUOUS
 10
6.476800
 20
1.564640
  0
VERTEX
  8
0
  6
CONTINUOUS
 10
6.460080
 20
1.575640
  0
SEQEND
  8
0
  0
SOLID
  8
0
 62
    15
 10
6.476800
 20
1.564640
 11
6.485600
 21
2.303840
 12
6.492200
 22
1.545280
 13
6.501000
 23
2.284480
  0
POLYLINE
  8
0
  6
CONTINUOUS
 66
     1
 40
0.000000
 41
0.000000
  0
VERTEX
  8
0
  6
CONTINUOUS
 10
6.476800
 20
1.564640
  0
VERTEX
  8
0
  6
CONTINUOUS
 10
6.485600
 20
2.303840
  0
VERTEX
  8
0
  6
CONTINUOUS
 10
6.501000
 20
2.284480
  0
VERTEX
  8
0
  6
CONTINUOUS
 10
6.492200
 20
1.545280
  0
VERTEX
  8
0
  6
CONTINUOUS
 10
6.476800
 20
1.564640
  0
SEQEND
  8
0
  0
SOLID
  8
0
 62
    15
 10
6.492200
 20
1.545280
 11
6.501000
 21
2.284480
 12
6.520800
 22
1.508320
 13
6.530040
 23
2.247520
  0
POLYLINE
  8
0
  6
CONTINUOUS
 66
     1
 40
0.000000
 41
0.000000
  0
VERTEX
  8
0
  6
CONTINUOUS
 10
6.492200
 20
1.545280
  0
VERTEX
  8
0
  6
CONTINUOUS
 10
6.501000
 20
2.284480
  0
VERTEX
  8
0
  6
CONTINUOUS
 10
6.530040
 20
2.247520
  0
VERTEX
  8
0
  6
CONTINUOUS
 10
6.520800
 20
1.508320
  0
VERTEX
  8
0
  6
CONTINUOUS
 10
6.492200
 20
1.545280
  0
SEQEND
  8
0
  0
SOLID
  8
0
 62
    15
 10
6.520800
 20
1.508320
 11
6.530040
 21
2.247520
 12
6.548080
 22
1.486760
 13
6.557320
 23
2.225960
  0
POLYLINE
  8
0
  6
CONTINUOUS
 66
     1
 40
0.000000
 41
0.000000
  0
VERTEX
  8
0
  6
CONTINUOUS
 10
6.520800
 20
1.508320
  0
VERTEX
  8
0
  6
CONTINUOUS
 10
6.530040
 20
2.247520
  0
VERTEX
  8
0
  6
CONTINUOUS
 10
6.557320
 20
2.225960
  0
VERTEX
  8
0
  6
CONTINUOUS
 10
6.548080
 20
1.486760
  0
VERTEX
  8
0
  6
CONTINUOUS
 10
6.520800
 20
1.508320
  0
SEQEND
  8
0
  0
SOLID
  8
0
 62
    15
 10
6.548080
 20
1.486760
 11
6.557320
 21
2.225960
 12
6.591200
 22
1.468720
 13
6.600440
 23
2.207920
  0
POLYLINE
  8
0
  6
CONTINUOUS
 66
     1
 40
0.000000
 41
0.000000
  0
VERTEX
  8
0
  6
CONTINUOUS
 10
6.548080
 20
1.486760
  0
VERTEX
  8
0
  6
CONTINUOUS
 10
6.557320
 20
2.225960
  0
VERTEX
  8
0
  6
CONTINUOUS
 10
6.600440
 20
2.207920
  0
VERTEX
  8
0
  6
CONTINUOUS
 10
6.591200
 20
1.468720
  0
VERTEX
  8
0
  6
CONTINUOUS
 10
6.548080
 20
1.486760
  0
SEQEND
  8
0
  0
SOLID
  8
0
 62
    15
 10
6.591200
 20
1.468720
 11
6.600440
 21
2.207920
 12
6.622880
 22
1.451120
 13
6.632120
 23
2.190320
  0
POLYLINE
  8
0
  6
CONTINUOUS
 66
     1
 40
0.000000
 41
0.000000
  0
VERTEX
  8
0
  6
CONTINUOUS
 10
6.591200
 20
1.468720
  0
VERTEX
  8
0
  6
CONTINUOUS
 10
6.600440
 20
2.207920
  0
VERTEX
  8
0
  6
CONTINUOUS
 10
6.632120
 20
2.190320
  0
VERTEX
  8
0
  6
CONTINUOUS
 10
6.622880
 20
1.451120
  0
VERTEX
  8
0
  6
CONTINUOUS
 10
6.591200
 20
1.468720
  0
SEQEND
  8
0
  0
SOLID
  8
0
 62
    15
 10
7.484840
 20
1.395680
 11
7.494080
 21
2.134880
 12
7.484840
 22
1.014200
 13
7.494080
 23
1.753400
  0
POLYLINE
  8
0
  6
CONTINUOUS
 66
     1
 40
0.000000
 41
0.000000
  0
VERTEX
  8
0
  6
CONTINUOUS
 10
7.484840
 20
1.395680
  0
VERTEX
  8
0
  6
CONTINUOUS
 10
7.494080
 20
2.134880
  0
VERTEX
  8
0
  6
CONTINUOUS
 10
7.494080
 20
1.753400
  0
VERTEX
  8
0
  6
CONTINUOUS
 10
7.484840
 20
1.014200
  0
VERTEX
  8
0
  6
CONTINUOUS
 10
7.484840
 20
1.395680
  0
SEQEND
  8
0
  0
SOLID
  8
0
 62
    15
 10
6.636520
 20
1.395680
 11
6.645760
 21
2.134880
 12
7.484840
 22
1.395680
 13
7.494080
 23
2.134880
  0
POLYLINE
  8
0
  6
CONTINUOUS
 66
     1
 40
0.000000
 41
0.000000
  0
VERTEX
  8
0
  6
CONTINUOUS
 10
6.636520
 20
1.395680
  0
VERTEX
  8
0
  6
CONTINUOUS
 10
6.645760
 20
2.134880
  0
VERTEX
  8
0
  6
CONTINUOUS
 10
7.494080
 20
2.134880
  0
VERTEX
  8
0
  6
CONTINUOUS
 10
7.484840
 20
1.395680
  0
VERTEX
  8
0
  6
CONTINUOUS
 10
6.636520
 20
1.395680
  0
SEQEND
  8
0
  0
SOLID
  8
0
 62
    15
 10
6.633440
 20
1.430880
 11
6.642680
 21
2.170080
 12
6.636520
 22
1.395680
 13
6.645760
 23
2.134880
  0
POLYLINE
  8
0
  6
CONTINUOUS
 66
     1
 40
0.000000
 41
0.000000
  0
VERTEX
  8
0
  6
CONTINUOUS
 10
6.633440
 20
1.430880
  0
VERTEX
  8
0
  6
CONTINUOUS
 10
6.642680
 20
2.170080
  0
VERTEX
  8
0
  6
CONTINUOUS
 10
6.645760
 20
2.134880
  0
VERTEX
  8
0
  6
CONTINUOUS
 10
6.636520
 20
1.395680
  0
VERTEX
  8
0
  6
CONTINUOUS
 10
6.633440
 20
1.430880
  0
SEQEND
  8
0
  0
SOLID
  8
0
 62
    15
 10
6.622880
 20
1.451120
 11
6.632120
 21
2.190320
 12
6.633440
 22
1.430880
 13
6.642680
 23
2.170080
  0
POLYLINE
  8
0
  6
CONTINUOUS
 66
     1
 40
0.000000
 41
0.000000
  0
VERTEX
  8
0
  6
CONTINUOUS
 10
6.622880
 20
1.451120
  0
VERTEX
  8
0
  6
CONTINUOUS
 10
6.632120
 20
2.190320
  0
VERTEX
  8
0
  6
CONTINUOUS
 10
6.642680
 20
2.170080
  0
VERTEX
  8
0
  6
CONTINUOUS
 10
6.633440
 20
1.430880
  0
VERTEX
  8
0
  6
CONTINUOUS
 10
6.622880
 20
1.451120
  0
SEQEND
  8
0
  0
SOLID
  8
0
 62
    15
 10
2.987160
 20
2.674320
 11
2.996400
 21
3.413520
 12
3.687200
 22
2.674320
 13
3.696440
 23
3.413520
  0
POLYLINE
  8
0
  6
CONTINUOUS
 66
     1
 40
0.000000
 41
0.000000
  0
VERTEX
  8
0
  6
CONTINUOUS
 10
2.987160
 20
2.674320
  0
VERTEX
  8
0
  6
CONTINUOUS
 10
2.996400
 20
3.413520
  0
VERTEX
  8
0
  6
CONTINUOUS
 10
3.696440
 20
3.413520
  0
VERTEX
  8
0
  6
CONTINUOUS
 10
3.687200
 20
2.674320
  0
VERTEX
  8
0
  6
CONTINUOUS
 10
2.987160
 20
2.674320
  0
SEQEND
  8
0
  0
SOLID
  8
0
 62
    15
 10
3.687200
 20
2.674320
 11
3.696440
 21
3.413520
 12
3.706560
 22
2.578400
 13
3.715360
 23
3.318040
  0
POLYLINE
  8
0
  6
CONTINUOUS
 66
     1
 40
0.000000
 41
0.000000
  0
VERTEX
  8
0
  6
CONTINUOUS
 10
3.687200
 20
2.674320
  0
VERTEX
  8
0
  6
CONTINUOUS
 10
3.696440
 20
3.413520
  0
VERTEX
  8
0
  6
CONTINUOUS
 10
3.715360
 20
3.318040
  0
VERTEX
  8
0
  6
CONTINUOUS
 10
3.706560
 20
2.578400
  0
VERTEX
  8
0
  6
CONTINUOUS
 10
3.687200
 20
2.674320
  0
SEQEND
  8
0
  0
SOLID
  8
0
 62
    15
 10
3.706560
 20
2.578400
 11
3.715360
 21
3.318040
 12
3.833280
 22
2.578400
 13
3.842080
 23
3.318040
  0
POLYLINE
  8
0
  6
CONTINUOUS
 66
     1
 40
0.000000
 41
0.000000
  0
VERTEX
  8
0
  6
CONTINUOUS
 10
3.706560
 20
2.578400
  0
VERTEX
  8
0
  6
CONTINUOUS
 10
3.715360
 20
3.318040
  0
VERTEX
  8
0
  6
CONTINUOUS
 10
3.842080
 20
3.318040
  0
VERTEX
  8
0
  6
CONTINUOUS
 10
3.833280
 20
2.578400
  0
VERTEX
  8
0
  6
CONTINUOUS
 10
3.706560
 20
2.578400
  0
SEQEND
  8
0
  0
SOLID
  8
0
 62
    15
 10
3.833280
 20
2.578400
 11
3.842080
 21
3.318040
 12
3.833280
 22
2.499640
 13
3.842080
 23
3.238840
  0
POLYLINE
  8
0
  6
CONTINUOUS
 66
     1
 40
0.000000
 41
0.000000
  0
VERTEX
  8
0
  6
CONTINUOUS
 10
3.833280
 20
2.578400
  0
VERTEX
  8
0
  6
CONTINUOUS
 10
3.842080
 20
3.318040
  0
VERTEX
  8
0
  6
CONTINUOUS
 10
3.842080
 20
3.238840
  0
VERTEX
  8
0
  6
CONTINUOUS
 10
3.833280
 20
2.499640
  0
VERTEX
  8
0
  6
CONTINUOUS
 10
3.833280
 20
2.578400
  0
SEQEND
  8
0
  0
SOLID
  8
0
 62
    15
 10
3.833280
 20
2.499640
 11
3.842080
 21
3.238840
 12
3.857480
 22
2.499200
 13
3.866720
 23
3.238400
  0
POLYLINE
  8
0
  6
CONTINUOUS
 66
     1
 40
0.000000
 41
0.000000
  0
VERTEX
  8
0
  6
CONTINUOUS
 10
3.833280
 20
2.499640
  0
VERTEX
  8
0
  6
CONTINUOUS
 10
3.842080
 20
3.238840
  0
VERTEX
  8
0
  6
CONTINUOUS
 10
3.866720
 20
3.238400
  0
VERTEX
  8
0
  6
CONTINUOUS
 10
3.857480
 20
2.499200
  0
VERTEX
  8
0
  6
CONTINUOUS
 10
3.833280
 20
2.499640
  0
SEQEND
  8
0
  0
POLYLINE
  8
0
  6
CONTINUOUS
 66
     1
 40
0.000000
 41
0.000000
  0
VERTEX
  8
0
  6
CONTINUOUS
 10
3.857480
 20
2.499200
  0
VERTEX
  8
0
  6
CONTINUOUS
 10
3.898840
 20
2.529560
  0
VERTEX
  8
0
  6
CONTINUOUS
 10
3.941960
 20
2.551120
  0
VERTEX
  8
0
  6
CONTINUOUS
 10
3.985520
 20
2.562560
  0
VERTEX
  8
0
  6
CONTINUOUS
 10
4.029960
 20
2.560800
  0
VERTEX
  8
0
  6
CONTINUOUS
 10
4.073960
 20
2.544080
  0
VERTEX
  8
0
  6
CONTINUOUS
 10
4.118400
 20
2.510200
  0
VERTEX
  8
0
  6
CONTINUOUS
 10
4.161520
 20
2.456960
  0
VERTEX
  8
0
  6
CONTINUOUS
 10
4.204200
 20
2.382160
  0
VERTEX
  8
0
  6
CONTINUOUS
 10
4.244240
 20
2.306920
  0
VERTEX
  8
0
  6
CONTINUOUS
 10
4.282080
 20
2.251040
  0
VERTEX
  8
0
  6
CONTINUOUS
 10
4.319920
 20
2.211000
  0
VERTEX
  8
0
  6
CONTINUOUS
 10
4.359960
 20
2.182840
  0
VERTEX
  8
0
  6
CONTINUOUS
 10
4.405720
 20
2.163480
  0
VERTEX
  8
0
  6
CONTINUOUS
 10
4.458520
 20
2.149400
  0
VERTEX
  8
0
  6
CONTINUOUS
 10
4.597120
 20
2.122120
  0
VERTEX
  8
0
  6
CONTINUOUS
 10
4.610760
 20
2.016960
  0
VERTEX
  8
0
  6
CONTINUOUS
 10
4.644640
 20
2.016960
  0
VERTEX
  8
0
  6
CONTINUOUS
 10
4.679400
 20
2.052600
  0
VERTEX
  8
0
  6
CONTINUOUS
 10
4.720760
 20
2.073720
  0
VERTEX
  8
0
  6
CONTINUOUS
 10
4.765640
 20
2.079440
  0
VERTEX
  8
0
  6
CONTINUOUS
 10
4.810960
 20
2.068880
  0
VERTEX
  8
0
  6
CONTINUOUS
 10
4.854080
 20
2.041600
  0
VERTEX
  8
0
  6
CONTINUOUS
 10
4.892360
 20
1.996720
  0
VERTEX
  8
0
  6
CONTINUOUS
 10
4.921840
 20
1.934240
  0
VERTEX
  8
0
  6
CONTINUOUS
 10
4.940320
 20
1.853280
  0
VERTEX
  8
0
  6
CONTINUOUS
 10
5.033160
 20
1.842720
  0
VERTEX
  8
0
  6
CONTINUOUS
 10
5.045040
 20
1.808400
  0
VERTEX
  8
0
  6
CONTINUOUS
 10
5.070120
 20
1.772760
  0
VERTEX
  8
0
  6
CONTINUOUS
 10
5.107960
 20
1.743280
  0
VERTEX
  8
0
  6
CONTINUOUS
 10
5.159440
 20
1.727880
  0
VERTEX
  8
0
  6
CONTINUOUS
 10
5.176160
 20
1.605560
  0
VERTEX
  8
0
  6
CONTINUOUS
 10
6.296400
 20
1.611720
  0
VERTEX
  8
0
  6
CONTINUOUS
 10
6.323680
 20
1.511400
  0
VERTEX
  8
0
  6
CONTINUOUS
 10
6.356240
 20
1.511400
  0
VERTEX
  8
0
  6
CONTINUOUS
 10
6.388800
 20
1.553200
  0
VERTEX
  8
0
  6
CONTINUOUS
 10
6.424440
 20
1.576520
  0
VERTEX
  8
0
  6
CONTINUOUS
 10
6.460080
 20
1.575640
  0
VERTEX
  8
0
  6
CONTINUOUS
 10
6.476800
 20
1.564640
  0
VERTEX
  8
0
  6
CONTINUOUS
 10
6.520800
 20
1.508320
  0
VERTEX
  8
0
  6
CONTINUOUS
 10
6.548080
 20
1.486760
  0
VERTEX
  8
0
  6
CONTINUOUS
 10
6.591200
 20
1.468720
  0
VERTEX
  8
0
  6
CONTINUOUS
 10
6.622880
 20
1.451120
  0
VERTEX
  8
0
  6
CONTINUOUS
 10
6.633440
 20
1.430880
  0
VERTEX
  8
0
  6
CONTINUOUS
 10
6.636520
 20
1.395680
  0
VERTEX
  8
0
  6
CONTINUOUS
 10
7.484840
 20
1.395680
  0
VERTEX
  8
0
  6
CONTINUOUS
 10
7.484840
 20
1.014200
  0
VERTEX
  8
0
  6
CONTINUOUS
 10
2.987160
 20
1.014200
  0
VERTEX
  8
0
  6
CONTINUOUS
 10
2.987160
 20
2.674320
  0
VERTEX
  8
0
  6
CONTINUOUS
 10
3.687200
 20
2.674320
  0
VERTEX
  8
0
  6
CONTINUOUS
 10
3.706560
 20
2.578400
  0
VERTEX
  8
0
  6
CONTINUOUS
 10
3.833280
 20
2.578400
  0
VERTEX
  8
0
  6
CONTINUOUS
 10
3.833280
 20
2.499640
  0
VERTEX
  8
0
  6
CONTINUOUS
 10
3.857480
 20
2.499200
  0
SEQEND
  8
0
  0
TEXT
  8
0
 10
4.945600
 20
0.773960
 40
0.138020
  1
BA  644
 41
1.000000
  7
SN0
 71
     0
 72
     5
 11
5.536466
 21
0.773960
  0
TEXT
  8
0
 10
4.697440
 20
0.582560
 40
0.138020
  1
11/16" x 4-1/2"
 41
1.000000
  7
SN0
 71
     0
 72
     5
 11
5.783972
 21
0.582560
  0
ENDSEC
  0
EOF
