  0
SECTION
  2
HEADER
  9
$ACADVER
  1
AC1006
  9
$EXTMIN
 10
5.714720
 20
0.449240
  9
$EXTMAX
 10
7.850920
 20
3.127520
  9
$LTSCALE
 40
0.044000
  9
$PDMODE
 70
    35
  9
$PDSIZE
 40
0.035200
  0
ENDSEC
  0
SECTION
  2
TABLES
  0
TABLE
  2
LTYPE
 70
     9
  0
LTYPE
  2
CONTINUOUS
 70
    64
  3
Solid line
 72
    65
 73
     0
 40
0.000000
  0
LTYPE
  2
DASHED
 70
    64
  3
__ __ __ __ __ __ __ __ __ __ __ __ __ __ __
 72
    65
 73
     2
 40
0.000330
 49
0.000220
 49
-0.000110
  0
LTYPE
  2
HIDDEN
 70
    64
  3
 _ _ _ _ _ _ _ _ _ _ _ _ _ _ _ _ _ _ _ _ _ _
 72
    65
 73
     2
 40
0.000165
 49
0.000110
 49
-0.000055
  0
LTYPE
  2
CENTER
 70
    64
  3
____ _ ____ _ ____ _ ____ _ ____ _ ____ _ ____
 72
    65
 73
     4
 40
0.000880
 49
0.000550
 49
-0.000110
 49
0.000110
 49
-0.000110
  0
LTYPE
  2
PHANTOM
 70
    64
  3
_____ _ _ _____ _ _ _____ _ _ _____ _ _ ____
 72
    65
 73
     6
 40
0.001100
 49
0.000550
 49
-0.000110
 49
0.000110
 49
-0.000110
 49
0.000110
 49
-0.000110
  0
LTYPE
  2
DOT
 70
    64
  3
...............................................
 72
    65
 73
     2
 40
0.000110
 49
0.000000
 49
-0.000110
  0
LTYPE
  2
DASHDOT
 70
    64
  3
__ . __ . __ . __ . __ . __ . __ . __ . __ . __
 72
    65
 73
     4
 40
0.000440
 49
0.000220
 49
-0.000110
 49
0.000000
 49
-0.000110
  0
LTYPE
  2
BORDER
 70
    64
  3
__ __ . __ __ . __ __ . __ __ . __ __ . __ __
 72
    65
 73
     6
 40
0.000770
 49
0.000220
 49
-0.000110
 49
0.000220
 49
-0.000110
 49
0.000000
 49
-0.000110
  0
LTYPE
  2
DIVIDE
 70
    64
  3
__ . . __ . . __ . . __ . . __ . . __ . . __
 72
    65
 73
     6
 40
0.000550
 49
0.000220
 49
-0.000110
 49
0.000000
 49
-0.000110
 49
0.000000
 49
-0.000110
  0
LTYPE
  2
DOTDOT
 70
    64
  3
 . .  . .  . .  . .  . .  . . 
 72
    65
 73
     5
 40
0.000242
 49
-0.000110
 49
0.000000
 49
-0.000110
 49
0.000000
 49
-0.000110
  0
ENDTAB
  0
TABLE
  2
STYLE
 70
     2
  0
STYLE
 70
     0
  2
SN0
 40
0.000000
 41
0.000440
 50
0.000000
 71
     0
 42
0.000000
  3
ROMAND
  0
STYLE
 70
    68
  2
SV0
 40
0.000000
 41
0.000440
 50
0.000000
 71
     0
 42
0.000000
  3
ROMAND
  0
ENDTAB
  0
TABLE
  2
LAYER
 70
     3
  0
LAYER
  2
FOREGROUND
 70
    64
 62
     7
  6
CONTINUOUS
  0
LAYER
  2
BACKGROUND
 70
    65
 62
    -7
  6
CONTINUOUS
  0
LAYER
  2
0
 70
    64
 62
     7
  6
CONTINUOUS
  0
ENDTAB
  0
ENDSEC
  0
SECTION
  2
ENTITIES
  0
POLYLINE
  8
FOREGROUND
  6
CONTINUOUS
 66
     1
 40
0.000000
 41
0.000000
  0
VERTEX
  8
FOREGROUND
  6
CONTINUOUS
 10
0.000000
 20
3.576760
  0
VERTEX
  8
FOREGROUND
  6
CONTINUOUS
 10
8.499920
 20
3.576760
  0
VERTEX
  8
FOREGROUND
  6
CONTINUOUS
 10
8.499920
 20
-7.423240
  0
VERTEX
  8
FOREGROUND
  6
CONTINUOUS
 10
0.000000
 20
-7.423240
  0
VERTEX
  8
FOREGROUND
  6
CONTINUOUS
 10
0.000000
 20
3.576760
  0
SEQEND
  8
0
  0
POLYLINE
  8
FOREGROUND
  6
CONTINUOUS
 66
     1
 40
0.000000
 41
0.000000
  0
VERTEX
  8
FOREGROUND
  6
CONTINUOUS
 10
0.000000
 20
3.576760
  0
VERTEX
  8
FOREGROUND
  6
CONTINUOUS
 10
8.499920
 20
3.576760
  0
VERTEX
  8
FOREGROUND
  6
CONTINUOUS
 10
8.499920
 20
-7.423240
  0
VERTEX
  8
FOREGROUND
  6
CONTINUOUS
 10
0.000000
 20
-7.423240
  0
VERTEX
  8
FOREGROUND
  6
CONTINUOUS
 10
0.000000
 20
3.576760
  0
SEQEND
  8
0
  0
POLYLINE
  8
0
  6
CONTINUOUS
 66
     1
 40
0.014080
 41
0.014080
  0
VERTEX
  8
0
  6
CONTINUOUS
 10
7.320720
 20
2.367200
  0
VERTEX
  8
0
  6
CONTINUOUS
 10
7.340070
 20
2.371116
  0
VERTEX
  8
0
  6
CONTINUOUS
 10
7.355869
 20
2.381771
  0
VERTEX
  8
0
  6
CONTINUOUS
 10
7.366524
 20
2.397570
  0
VERTEX
  8
0
  6
CONTINUOUS
 10
7.370440
 20
2.416920
  0
VERTEX
  8
0
  6
CONTINUOUS
 10
7.370440
 20
3.070320
  0
VERTEX
  8
0
  6
CONTINUOUS
 10
7.366523
 20
3.089672
  0
VERTEX
  8
0
  6
CONTINUOUS
 10
7.355866
 20
3.105472
  0
VERTEX
  8
0
  6
CONTINUOUS
 10
7.340064
 20
3.116126
  0
VERTEX
  8
0
  6
CONTINUOUS
 10
7.320711
 20
3.120040
  0
VERTEX
  8
0
  6
CONTINUOUS
 10
5.914911
 20
3.120040
  0
VERTEX
  8
0
  6
CONTINUOUS
 10
5.895564
 20
3.116121
  0
VERTEX
  8
0
  6
CONTINUOUS
 10
5.879768
 20
3.105466
  0
VERTEX
  8
0
  6
CONTINUOUS
 10
5.869116
 20
3.089668
  0
VERTEX
  8
0
  6
CONTINUOUS
 10
5.865200
 20
3.070320
  0
VERTEX
  8
0
  6
CONTINUOUS
 10
5.865200
 20
2.416920
  0
VERTEX
  8
0
  6
CONTINUOUS
 10
5.869116
 20
2.397570
  0
VERTEX
  8
0
  6
CONTINUOUS
 10
5.879771
 20
2.381771
  0
VERTEX
  8
0
  6
CONTINUOUS
 10
5.895570
 20
2.371116
  0
VERTEX
  8
0
  6
CONTINUOUS
 10
5.914920
 20
2.367200
  0
VERTEX
  8
0
  6
CONTINUOUS
 10
7.320720
 20
2.367200
  0
SEQEND
  8
0
  0
SOLID
  8
0
 62
    15
 10
7.220840
 20
0.937640
 11
7.850920
 21
1.316480
 12
7.220400
 22
0.935000
 13
7.850920
 23
1.313840
  0
POLYLINE
  8
0
  6
CONTINUOUS
 66
     1
 40
0.000000
 41
0.000000
  0
VERTEX
  8
0
  6
CONTINUOUS
 10
7.220840
 20
0.937640
  0
VERTEX
  8
0
  6
CONTINUOUS
 10
7.850920
 20
1.316480
  0
VERTEX
  8
0
  6
CONTINUOUS
 10
7.850920
 20
1.313840
  0
VERTEX
  8
0
  6
CONTINUOUS
 10
7.220400
 20
0.935000
  0
VERTEX
  8
0
  6
CONTINUOUS
 10
7.220840
 20
0.937640
  0
SEQEND
  8
0
  0
SOLID
  8
0
 62
    15
 10
7.173320
 20
1.640320
 11
7.803400
 21
2.019160
 12
7.175520
 22
1.639880
 13
7.805600
 23
2.018720
  0
POLYLINE
  8
0
  6
CONTINUOUS
 66
     1
 40
0.000000
 41
0.000000
  0
VERTEX
  8
0
  6
CONTINUOUS
 10
7.173320
 20
1.640320
  0
VERTEX
  8
0
  6
CONTINUOUS
 10
7.803400
 20
2.019160
  0
VERTEX
  8
0
  6
CONTINUOUS
 10
7.805600
 20
2.018720
  0
VERTEX
  8
0
  6
CONTINUOUS
 10
7.175520
 20
1.639880
  0
VERTEX
  8
0
  6
CONTINUOUS
 10
7.173320
 20
1.640320
  0
SEQEND
  8
0
  0
SOLID
  8
0
 62
    15
 10
7.175520
 20
1.639880
 11
7.805600
 21
2.018720
 12
7.178160
 22
1.639440
 13
7.808240
 23
2.018720
  0
POLYLINE
  8
0
  6
CONTINUOUS
 66
     1
 40
0.000000
 41
0.000000
  0
VERTEX
  8
0
  6
CONTINUOUS
 10
7.175520
 20
1.639880
  0
VERTEX
  8
0
  6
CONTINUOUS
 10
7.805600
 20
2.018720
  0
VERTEX
  8
0
  6
CONTINUOUS
 10
7.808240
 20
2.018720
  0
VERTEX
  8
0
  6
CONTINUOUS
 10
7.178160
 20
1.639440
  0
VERTEX
  8
0
  6
CONTINUOUS
 10
7.175520
 20
1.639880
  0
SEQEND
  8
0
  0
SOLID
  8
0
 62
    15
 10
7.178160
 20
1.639440
 11
7.808240
 21
2.018720
 12
7.180360
 22
1.639440
 13
7.810440
 23
2.018280
  0
POLYLINE
  8
0
  6
CONTINUOUS
 66
     1
 40
0.000000
 41
0.000000
  0
VERTEX
  8
0
  6
CONTINUOUS
 10
7.178160
 20
1.639440
  0
VERTEX
  8
0
  6
CONTINUOUS
 10
7.808240
 20
2.018720
  0
VERTEX
  8
0
  6
CONTINUOUS
 10
7.810440
 20
2.018280
  0
VERTEX
  8
0
  6
CONTINUOUS
 10
7.180360
 20
1.639440
  0
VERTEX
  8
0
  6
CONTINUOUS
 10
7.178160
 20
1.639440
  0
SEQEND
  8
0
  0
SOLID
  8
0
 62
    15
 10
7.180360
 20
1.639440
 11
7.810440
 21
2.018280
 12
7.182560
 22
1.638560
 13
7.813080
 23
2.017840
  0
POLYLINE
  8
0
  6
CONTINUOUS
 66
     1
 40
0.000000
 41
0.000000
  0
VERTEX
  8
0
  6
CONTINUOUS
 10
7.180360
 20
1.639440
  0
VERTEX
  8
0
  6
CONTINUOUS
 10
7.810440
 20
2.018280
  0
VERTEX
  8
0
  6
CONTINUOUS
 10
7.813080
 20
2.017840
  0
VERTEX
  8
0
  6
CONTINUOUS
 10
7.182560
 20
1.638560
  0
VERTEX
  8
0
  6
CONTINUOUS
 10
7.180360
 20
1.639440
  0
SEQEND
  8
0
  0
SOLID
  8
0
 62
    15
 10
7.182560
 20
1.638560
 11
7.813080
 21
2.017840
 12
7.185200
 22
1.638120
 13
7.815280
 23
2.016960
  0
POLYLINE
  8
0
  6
CONTINUOUS
 66
     1
 40
0.000000
 41
0.000000
  0
VERTEX
  8
0
  6
CONTINUOUS
 10
7.182560
 20
1.638560
  0
VERTEX
  8
0
  6
CONTINUOUS
 10
7.813080
 20
2.017840
  0
VERTEX
  8
0
  6
CONTINUOUS
 10
7.815280
 20
2.016960
  0
VERTEX
  8
0
  6
CONTINUOUS
 10
7.185200
 20
1.638120
  0
VERTEX
  8
0
  6
CONTINUOUS
 10
7.182560
 20
1.638560
  0
SEQEND
  8
0
  0
SOLID
  8
0
 62
    15
 10
7.185200
 20
1.638120
 11
7.815280
 21
2.016960
 12
7.187400
 22
1.637240
 13
7.817480
 23
2.016080
  0
POLYLINE
  8
0
  6
CONTINUOUS
 66
     1
 40
0.000000
 41
0.000000
  0
VERTEX
  8
0
  6
CONTINUOUS
 10
7.185200
 20
1.638120
  0
VERTEX
  8
0
  6
CONTINUOUS
 10
7.815280
 20
2.016960
  0
VERTEX
  8
0
  6
CONTINUOUS
 10
7.817480
 20
2.016080
  0
VERTEX
  8
0
  6
CONTINUOUS
 10
7.187400
 20
1.637240
  0
VERTEX
  8
0
  6
CONTINUOUS
 10
7.185200
 20
1.638120
  0
SEQEND
  8
0
  0
SOLID
  8
0
 62
    15
 10
7.187400
 20
1.637240
 11
7.817480
 21
2.016080
 12
7.189600
 22
1.636360
 13
7.819680
 23
2.015640
  0
POLYLINE
  8
0
  6
CONTINUOUS
 66
     1
 40
0.000000
 41
0.000000
  0
VERTEX
  8
0
  6
CONTINUOUS
 10
7.187400
 20
1.637240
  0
VERTEX
  8
0
  6
CONTINUOUS
 10
7.817480
 20
2.016080
  0
VERTEX
  8
0
  6
CONTINUOUS
 10
7.819680
 20
2.015640
  0
VERTEX
  8
0
  6
CONTINUOUS
 10
7.189600
 20
1.636360
  0
VERTEX
  8
0
  6
CONTINUOUS
 10
7.187400
 20
1.637240
  0
SEQEND
  8
0
  0
SOLID
  8
0
 62
    15
 10
7.189600
 20
1.636360
 11
7.819680
 21
2.015640
 12
7.191800
 22
1.635480
 13
7.821880
 23
2.014320
  0
POLYLINE
  8
0
  6
CONTINUOUS
 66
     1
 40
0.000000
 41
0.000000
  0
VERTEX
  8
0
  6
CONTINUOUS
 10
7.189600
 20
1.636360
  0
VERTEX
  8
0
  6
CONTINUOUS
 10
7.819680
 20
2.015640
  0
VERTEX
  8
0
  6
CONTINUOUS
 10
7.821880
 20
2.014320
  0
VERTEX
  8
0
  6
CONTINUOUS
 10
7.191800
 20
1.635480
  0
VERTEX
  8
0
  6
CONTINUOUS
 10
7.189600
 20
1.636360
  0
SEQEND
  8
0
  0
SOLID
  8
0
 62
    15
 10
7.191800
 20
1.635480
 11
7.821880
 21
2.014320
 12
7.194000
 22
1.634600
 13
7.824080
 23
2.013440
  0
POLYLINE
  8
0
  6
CONTINUOUS
 66
     1
 40
0.000000
 41
0.000000
  0
VERTEX
  8
0
  6
CONTINUOUS
 10
7.191800
 20
1.635480
  0
VERTEX
  8
0
  6
CONTINUOUS
 10
7.821880
 20
2.014320
  0
VERTEX
  8
0
  6
CONTINUOUS
 10
7.824080
 20
2.013440
  0
VERTEX
  8
0
  6
CONTINUOUS
 10
7.194000
 20
1.634600
  0
VERTEX
  8
0
  6
CONTINUOUS
 10
7.191800
 20
1.635480
  0
SEQEND
  8
0
  0
SOLID
  8
0
 62
    15
 10
7.194000
 20
1.634600
 11
7.824080
 21
2.013440
 12
7.195760
 22
1.633280
 13
7.826280
 23
2.012120
  0
POLYLINE
  8
0
  6
CONTINUOUS
 66
     1
 40
0.000000
 41
0.000000
  0
VERTEX
  8
0
  6
CONTINUOUS
 10
7.194000
 20
1.634600
  0
VERTEX
  8
0
  6
CONTINUOUS
 10
7.824080
 20
2.013440
  0
VERTEX
  8
0
  6
CONTINUOUS
 10
7.826280
 20
2.012120
  0
VERTEX
  8
0
  6
CONTINUOUS
 10
7.195760
 20
1.633280
  0
VERTEX
  8
0
  6
CONTINUOUS
 10
7.194000
 20
1.634600
  0
SEQEND
  8
0
  0
SOLID
  8
0
 62
    15
 10
7.195760
 20
1.633280
 11
7.826280
 21
2.012120
 12
7.199720
 22
1.630640
 13
7.829800
 23
2.009920
  0
POLYLINE
  8
0
  6
CONTINUOUS
 66
     1
 40
0.000000
 41
0.000000
  0
VERTEX
  8
0
  6
CONTINUOUS
 10
7.195760
 20
1.633280
  0
VERTEX
  8
0
  6
CONTINUOUS
 10
7.826280
 20
2.012120
  0
VERTEX
  8
0
  6
CONTINUOUS
 10
7.829800
 20
2.009920
  0
VERTEX
  8
0
  6
CONTINUOUS
 10
7.199720
 20
1.630640
  0
VERTEX
  8
0
  6
CONTINUOUS
 10
7.195760
 20
1.633280
  0
SEQEND
  8
0
  0
SOLID
  8
0
 62
    15
 10
7.199720
 20
1.630640
 11
7.829800
 21
2.009920
 12
7.201480
 22
1.629320
 13
7.832000
 23
2.008160
  0
POLYLINE
  8
0
  6
CONTINUOUS
 66
     1
 40
0.000000
 41
0.000000
  0
VERTEX
  8
0
  6
CONTINUOUS
 10
7.199720
 20
1.630640
  0
VERTEX
  8
0
  6
CONTINUOUS
 10
7.829800
 20
2.009920
  0
VERTEX
  8
0
  6
CONTINUOUS
 10
7.832000
 20
2.008160
  0
VERTEX
  8
0
  6
CONTINUOUS
 10
7.201480
 20
1.629320
  0
VERTEX
  8
0
  6
CONTINUOUS
 10
7.199720
 20
1.630640
  0
SEQEND
  8
0
  0
SOLID
  8
0
 62
    15
 10
7.201480
 20
1.629320
 11
7.832000
 21
2.008160
 12
7.205000
 22
1.626240
 13
7.835520
 23
2.005520
  0
POLYLINE
  8
0
  6
CONTINUOUS
 66
     1
 40
0.000000
 41
0.000000
  0
VERTEX
  8
0
  6
CONTINUOUS
 10
7.201480
 20
1.629320
  0
VERTEX
  8
0
  6
CONTINUOUS
 10
7.832000
 20
2.008160
  0
VERTEX
  8
0
  6
CONTINUOUS
 10
7.835520
 20
2.005520
  0
VERTEX
  8
0
  6
CONTINUOUS
 10
7.205000
 20
1.626240
  0
VERTEX
  8
0
  6
CONTINUOUS
 10
7.201480
 20
1.629320
  0
SEQEND
  8
0
  0
SOLID
  8
0
 62
    15
 10
7.205000
 20
1.626240
 11
7.835520
 21
2.005520
 12
7.206760
 22
1.624920
 13
7.836840
 23
2.003760
  0
POLYLINE
  8
0
  6
CONTINUOUS
 66
     1
 40
0.000000
 41
0.000000
  0
VERTEX
  8
0
  6
CONTINUOUS
 10
7.205000
 20
1.626240
  0
VERTEX
  8
0
  6
CONTINUOUS
 10
7.835520
 20
2.005520
  0
VERTEX
  8
0
  6
CONTINUOUS
 10
7.836840
 20
2.003760
  0
VERTEX
  8
0
  6
CONTINUOUS
 10
7.206760
 20
1.624920
  0
VERTEX
  8
0
  6
CONTINUOUS
 10
7.205000
 20
1.626240
  0
SEQEND
  8
0
  0
SOLID
  8
0
 62
    15
 10
7.206760
 20
1.624920
 11
7.836840
 21
2.003760
 12
7.209840
 22
1.621400
 13
7.839920
 23
2.000240
  0
POLYLINE
  8
0
  6
CONTINUOUS
 66
     1
 40
0.000000
 41
0.000000
  0
VERTEX
  8
0
  6
CONTINUOUS
 10
7.206760
 20
1.624920
  0
VERTEX
  8
0
  6
CONTINUOUS
 10
7.836840
 20
2.003760
  0
VERTEX
  8
0
  6
CONTINUOUS
 10
7.839920
 20
2.000240
  0
VERTEX
  8
0
  6
CONTINUOUS
 10
7.209840
 20
1.621400
  0
VERTEX
  8
0
  6
CONTINUOUS
 10
7.206760
 20
1.624920
  0
SEQEND
  8
0
  0
SOLID
  8
0
 62
    15
 10
7.209840
 20
1.621400
 11
7.839920
 21
2.000240
 12
7.211160
 22
1.619200
 13
7.841240
 23
1.998040
  0
POLYLINE
  8
0
  6
CONTINUOUS
 66
     1
 40
0.000000
 41
0.000000
  0
VERTEX
  8
0
  6
CONTINUOUS
 10
7.209840
 20
1.621400
  0
VERTEX
  8
0
  6
CONTINUOUS
 10
7.839920
 20
2.000240
  0
VERTEX
  8
0
  6
CONTINUOUS
 10
7.841240
 20
1.998040
  0
VERTEX
  8
0
  6
CONTINUOUS
 10
7.211160
 20
1.619200
  0
VERTEX
  8
0
  6
CONTINUOUS
 10
7.209840
 20
1.621400
  0
SEQEND
  8
0
  0
SOLID
  8
0
 62
    15
 10
7.211160
 20
1.619200
 11
7.841240
 21
1.998040
 12
7.213800
 22
1.615240
 13
7.843880
 23
1.994520
  0
POLYLINE
  8
0
  6
CONTINUOUS
 66
     1
 40
0.000000
 41
0.000000
  0
VERTEX
  8
0
  6
CONTINUOUS
 10
7.211160
 20
1.619200
  0
VERTEX
  8
0
  6
CONTINUOUS
 10
7.841240
 20
1.998040
  0
VERTEX
  8
0
  6
CONTINUOUS
 10
7.843880
 20
1.994520
  0
VERTEX
  8
0
  6
CONTINUOUS
 10
7.213800
 20
1.615240
  0
VERTEX
  8
0
  6
CONTINUOUS
 10
7.211160
 20
1.619200
  0
SEQEND
  8
0
  0
SOLID
  8
0
 62
    15
 10
7.213800
 20
1.615240
 11
7.843880
 21
1.994520
 12
7.215120
 22
1.613480
 13
7.845200
 23
1.992320
  0
POLYLINE
  8
0
  6
CONTINUOUS
 66
     1
 40
0.000000
 41
0.000000
  0
VERTEX
  8
0
  6
CONTINUOUS
 10
7.213800
 20
1.615240
  0
VERTEX
  8
0
  6
CONTINUOUS
 10
7.843880
 20
1.994520
  0
VERTEX
  8
0
  6
CONTINUOUS
 10
7.845200
 20
1.992320
  0
VERTEX
  8
0
  6
CONTINUOUS
 10
7.215120
 20
1.613480
  0
VERTEX
  8
0
  6
CONTINUOUS
 10
7.213800
 20
1.615240
  0
SEQEND
  8
0
  0
SOLID
  8
0
 62
    15
 10
7.215120
 20
1.613480
 11
7.845200
 21
1.992320
 12
7.216000
 22
1.611280
 13
7.846080
 23
1.990120
  0
POLYLINE
  8
0
  6
CONTINUOUS
 66
     1
 40
0.000000
 41
0.000000
  0
VERTEX
  8
0
  6
CONTINUOUS
 10
7.215120
 20
1.613480
  0
VERTEX
  8
0
  6
CONTINUOUS
 10
7.845200
 20
1.992320
  0
VERTEX
  8
0
  6
CONTINUOUS
 10
7.846080
 20
1.990120
  0
VERTEX
  8
0
  6
CONTINUOUS
 10
7.216000
 20
1.611280
  0
VERTEX
  8
0
  6
CONTINUOUS
 10
7.215120
 20
1.613480
  0
SEQEND
  8
0
  0
SOLID
  8
0
 62
    15
 10
7.216000
 20
1.611280
 11
7.846080
 21
1.990120
 12
7.216880
 22
1.609080
 13
7.846960
 23
1.987920
  0
POLYLINE
  8
0
  6
CONTINUOUS
 66
     1
 40
0.000000
 41
0.000000
  0
VERTEX
  8
0
  6
CONTINUOUS
 10
7.216000
 20
1.611280
  0
VERTEX
  8
0
  6
CONTINUOUS
 10
7.846080
 20
1.990120
  0
VERTEX
  8
0
  6
CONTINUOUS
 10
7.846960
 20
1.987920
  0
VERTEX
  8
0
  6
CONTINUOUS
 10
7.216880
 20
1.609080
  0
VERTEX
  8
0
  6
CONTINUOUS
 10
7.216000
 20
1.611280
  0
SEQEND
  8
0
  0
SOLID
  8
0
 62
    15
 10
7.216880
 20
1.609080
 11
7.846960
 21
1.987920
 12
7.217760
 22
1.606880
 13
7.847840
 23
1.985720
  0
POLYLINE
  8
0
  6
CONTINUOUS
 66
     1
 40
0.000000
 41
0.000000
  0
VERTEX
  8
0
  6
CONTINUOUS
 10
7.216880
 20
1.609080
  0
VERTEX
  8
0
  6
CONTINUOUS
 10
7.846960
 20
1.987920
  0
VERTEX
  8
0
  6
CONTINUOUS
 10
7.847840
 20
1.985720
  0
VERTEX
  8
0
  6
CONTINUOUS
 10
7.217760
 20
1.606880
  0
VERTEX
  8
0
  6
CONTINUOUS
 10
7.216880
 20
1.609080
  0
SEQEND
  8
0
  0
SOLID
  8
0
 62
    15
 10
7.217760
 20
1.606880
 11
7.847840
 21
1.985720
 12
7.218640
 22
1.604680
 13
7.848720
 23
1.983520
  0
POLYLINE
  8
0
  6
CONTINUOUS
 66
     1
 40
0.000000
 41
0.000000
  0
VERTEX
  8
0
  6
CONTINUOUS
 10
7.217760
 20
1.606880
  0
VERTEX
  8
0
  6
CONTINUOUS
 10
7.847840
 20
1.985720
  0
VERTEX
  8
0
  6
CONTINUOUS
 10
7.848720
 20
1.983520
  0
VERTEX
  8
0
  6
CONTINUOUS
 10
7.218640
 20
1.604680
  0
VERTEX
  8
0
  6
CONTINUOUS
 10
7.217760
 20
1.606880
  0
SEQEND
  8
0
  0
SOLID
  8
0
 62
    15
 10
7.218640
 20
1.604680
 11
7.848720
 21
1.983520
 12
7.219080
 22
1.602480
 13
7.849160
 23
1.981320
  0
POLYLINE
  8
0
  6
CONTINUOUS
 66
     1
 40
0.000000
 41
0.000000
  0
VERTEX
  8
0
  6
CONTINUOUS
 10
7.218640
 20
1.604680
  0
VERTEX
  8
0
  6
CONTINUOUS
 10
7.848720
 20
1.983520
  0
VERTEX
  8
0
  6
CONTINUOUS
 10
7.849160
 20
1.981320
  0
VERTEX
  8
0
  6
CONTINUOUS
 10
7.219080
 20
1.602480
  0
VERTEX
  8
0
  6
CONTINUOUS
 10
7.218640
 20
1.604680
  0
SEQEND
  8
0
  0
SOLID
  8
0
 62
    15
 10
7.219080
 20
1.602480
 11
7.849160
 21
1.981320
 12
7.219520
 22
1.599840
 13
7.850040
 23
1.978680
  0
POLYLINE
  8
0
  6
CONTINUOUS
 66
     1
 40
0.000000
 41
0.000000
  0
VERTEX
  8
0
  6
CONTINUOUS
 10
7.219080
 20
1.602480
  0
VERTEX
  8
0
  6
CONTINUOUS
 10
7.849160
 20
1.981320
  0
VERTEX
  8
0
  6
CONTINUOUS
 10
7.850040
 20
1.978680
  0
VERTEX
  8
0
  6
CONTINUOUS
 10
7.219520
 20
1.599840
  0
VERTEX
  8
0
  6
CONTINUOUS
 10
7.219080
 20
1.602480
  0
SEQEND
  8
0
  0
SOLID
  8
0
 62
    15
 10
7.219520
 20
1.599840
 11
7.850040
 21
1.978680
 12
7.219960
 22
1.597640
 13
7.850480
 23
1.976480
  0
POLYLINE
  8
0
  6
CONTINUOUS
 66
     1
 40
0.000000
 41
0.000000
  0
VERTEX
  8
0
  6
CONTINUOUS
 10
7.219520
 20
1.599840
  0
VERTEX
  8
0
  6
CONTINUOUS
 10
7.850040
 20
1.978680
  0
VERTEX
  8
0
  6
CONTINUOUS
 10
7.850480
 20
1.976480
  0
VERTEX
  8
0
  6
CONTINUOUS
 10
7.219960
 20
1.597640
  0
VERTEX
  8
0
  6
CONTINUOUS
 10
7.219520
 20
1.599840
  0
SEQEND
  8
0
  0
SOLID
  8
0
 62
    15
 10
7.219960
 20
1.597640
 11
7.850480
 21
1.976480
 12
7.220400
 22
1.595000
 13
7.850480
 23
1.974280
  0
POLYLINE
  8
0
  6
CONTINUOUS
 66
     1
 40
0.000000
 41
0.000000
  0
VERTEX
  8
0
  6
CONTINUOUS
 10
7.219960
 20
1.597640
  0
VERTEX
  8
0
  6
CONTINUOUS
 10
7.850480
 20
1.976480
  0
VERTEX
  8
0
  6
CONTINUOUS
 10
7.850480
 20
1.974280
  0
VERTEX
  8
0
  6
CONTINUOUS
 10
7.220400
 20
1.595000
  0
VERTEX
  8
0
  6
CONTINUOUS
 10
7.219960
 20
1.597640
  0
SEQEND
  8
0
  0
SOLID
  8
0
 62
    15
 10
7.220400
 20
1.595000
 11
7.850480
 21
1.974280
 12
7.220400
 22
1.592800
 13
7.850920
 23
1.971640
  0
POLYLINE
  8
0
  6
CONTINUOUS
 66
     1
 40
0.000000
 41
0.000000
  0
VERTEX
  8
0
  6
CONTINUOUS
 10
7.220400
 20
1.595000
  0
VERTEX
  8
0
  6
CONTINUOUS
 10
7.850480
 20
1.974280
  0
VERTEX
  8
0
  6
CONTINUOUS
 10
7.850920
 20
1.971640
  0
VERTEX
  8
0
  6
CONTINUOUS
 10
7.220400
 20
1.592800
  0
VERTEX
  8
0
  6
CONTINUOUS
 10
7.220400
 20
1.595000
  0
SEQEND
  8
0
  0
SOLID
  8
0
 62
    15
 10
7.220400
 20
1.592800
 11
7.850920
 21
1.971640
 12
7.220840
 22
1.590160
 13
7.850920
 23
1.969000
  0
POLYLINE
  8
0
  6
CONTINUOUS
 66
     1
 40
0.000000
 41
0.000000
  0
VERTEX
  8
0
  6
CONTINUOUS
 10
7.220400
 20
1.592800
  0
VERTEX
  8
0
  6
CONTINUOUS
 10
7.850920
 20
1.971640
  0
VERTEX
  8
0
  6
CONTINUOUS
 10
7.850920
 20
1.969000
  0
VERTEX
  8
0
  6
CONTINUOUS
 10
7.220840
 20
1.590160
  0
VERTEX
  8
0
  6
CONTINUOUS
 10
7.220400
 20
1.592800
  0
SEQEND
  8
0
  0
SOLID
  8
0
 62
    15
 10
7.220840
 20
1.590160
 11
7.850920
 21
1.969000
 12
7.220840
 22
0.937640
 13
7.850920
 23
1.316480
  0
POLYLINE
  8
0
  6
CONTINUOUS
 66
     1
 40
0.000000
 41
0.000000
  0
VERTEX
  8
0
  6
CONTINUOUS
 10
7.220840
 20
1.590160
  0
VERTEX
  8
0
  6
CONTINUOUS
 10
7.850920
 20
1.969000
  0
VERTEX
  8
0
  6
CONTINUOUS
 10
7.850920
 20
1.316480
  0
VERTEX
  8
0
  6
CONTINUOUS
 10
7.220840
 20
0.937640
  0
VERTEX
  8
0
  6
CONTINUOUS
 10
7.220840
 20
1.590160
  0
SEQEND
  8
0
  0
SOLID
  8
0
 62
    15
 10
7.170680
 20
1.640320
 11
7.800760
 21
2.019160
 12
7.173320
 22
1.640320
 13
7.803400
 23
2.019160
  0
POLYLINE
  8
0
  6
CONTINUOUS
 66
     1
 40
0.000000
 41
0.000000
  0
VERTEX
  8
0
  6
CONTINUOUS
 10
7.170680
 20
1.640320
  0
VERTEX
  8
0
  6
CONTINUOUS
 10
7.800760
 20
2.019160
  0
VERTEX
  8
0
  6
CONTINUOUS
 10
7.803400
 20
2.019160
  0
VERTEX
  8
0
  6
CONTINUOUS
 10
7.173320
 20
1.640320
  0
VERTEX
  8
0
  6
CONTINUOUS
 10
7.170680
 20
1.640320
  0
SEQEND
  8
0
  0
SOLID
  8
0
 62
    15
 10
7.220400
 20
0.935000
 11
7.850920
 21
1.313840
 12
7.220400
 22
0.932800
 13
7.850480
 23
1.311640
  0
POLYLINE
  8
0
  6
CONTINUOUS
 66
     1
 40
0.000000
 41
0.000000
  0
VERTEX
  8
0
  6
CONTINUOUS
 10
7.220400
 20
0.935000
  0
VERTEX
  8
0
  6
CONTINUOUS
 10
7.850920
 20
1.313840
  0
VERTEX
  8
0
  6
CONTINUOUS
 10
7.850480
 20
1.311640
  0
VERTEX
  8
0
  6
CONTINUOUS
 10
7.220400
 20
0.932800
  0
VERTEX
  8
0
  6
CONTINUOUS
 10
7.220400
 20
0.935000
  0
SEQEND
  8
0
  0
SOLID
  8
0
 62
    15
 10
7.220400
 20
0.932800
 11
7.850480
 21
1.311640
 12
7.219960
 22
0.930160
 13
7.850480
 23
1.309000
  0
POLYLINE
  8
0
  6
CONTINUOUS
 66
     1
 40
0.000000
 41
0.000000
  0
VERTEX
  8
0
  6
CONTINUOUS
 10
7.220400
 20
0.932800
  0
VERTEX
  8
0
  6
CONTINUOUS
 10
7.850480
 20
1.311640
  0
VERTEX
  8
0
  6
CONTINUOUS
 10
7.850480
 20
1.309000
  0
VERTEX
  8
0
  6
CONTINUOUS
 10
7.219960
 20
0.930160
  0
VERTEX
  8
0
  6
CONTINUOUS
 10
7.220400
 20
0.932800
  0
SEQEND
  8
0
  0
SOLID
  8
0
 62
    15
 10
7.219960
 20
0.930160
 11
7.850480
 21
1.309000
 12
7.219520
 22
0.927960
 13
7.850040
 23
1.306800
  0
POLYLINE
  8
0
  6
CONTINUOUS
 66
     1
 40
0.000000
 41
0.000000
  0
VERTEX
  8
0
  6
CONTINUOUS
 10
7.219960
 20
0.930160
  0
VERTEX
  8
0
  6
CONTINUOUS
 10
7.850480
 20
1.309000
  0
VERTEX
  8
0
  6
CONTINUOUS
 10
7.850040
 20
1.306800
  0
VERTEX
  8
0
  6
CONTINUOUS
 10
7.219520
 20
0.927960
  0
VERTEX
  8
0
  6
CONTINUOUS
 10
7.219960
 20
0.930160
  0
SEQEND
  8
0
  0
SOLID
  8
0
 62
    15
 10
7.219520
 20
0.927960
 11
7.850040
 21
1.306800
 12
7.219080
 22
0.925320
 13
7.849160
 23
1.304160
  0
POLYLINE
  8
0
  6
CONTINUOUS
 66
     1
 40
0.000000
 41
0.000000
  0
VERTEX
  8
0
  6
CONTINUOUS
 10
7.219520
 20
0.927960
  0
VERTEX
  8
0
  6
CONTINUOUS
 10
7.850040
 20
1.306800
  0
VERTEX
  8
0
  6
CONTINUOUS
 10
7.849160
 20
1.304160
  0
VERTEX
  8
0
  6
CONTINUOUS
 10
7.219080
 20
0.925320
  0
VERTEX
  8
0
  6
CONTINUOUS
 10
7.219520
 20
0.927960
  0
SEQEND
  8
0
  0
SOLID
  8
0
 62
    15
 10
7.219080
 20
0.925320
 11
7.849160
 21
1.304160
 12
7.218640
 22
0.923120
 13
7.848720
 23
1.301960
  0
POLYLINE
  8
0
  6
CONTINUOUS
 66
     1
 40
0.000000
 41
0.000000
  0
VERTEX
  8
0
  6
CONTINUOUS
 10
7.219080
 20
0.925320
  0
VERTEX
  8
0
  6
CONTINUOUS
 10
7.849160
 20
1.304160
  0
VERTEX
  8
0
  6
CONTINUOUS
 10
7.848720
 20
1.301960
  0
VERTEX
  8
0
  6
CONTINUOUS
 10
7.218640
 20
0.923120
  0
VERTEX
  8
0
  6
CONTINUOUS
 10
7.219080
 20
0.925320
  0
SEQEND
  8
0
  0
SOLID
  8
0
 62
    15
 10
7.218640
 20
0.923120
 11
7.848720
 21
1.301960
 12
7.217760
 22
0.920920
 13
7.847840
 23
1.299760
  0
POLYLINE
  8
0
  6
CONTINUOUS
 66
     1
 40
0.000000
 41
0.000000
  0
VERTEX
  8
0
  6
CONTINUOUS
 10
7.218640
 20
0.923120
  0
VERTEX
  8
0
  6
CONTINUOUS
 10
7.848720
 20
1.301960
  0
VERTEX
  8
0
  6
CONTINUOUS
 10
7.847840
 20
1.299760
  0
VERTEX
  8
0
  6
CONTINUOUS
 10
7.217760
 20
0.920920
  0
VERTEX
  8
0
  6
CONTINUOUS
 10
7.218640
 20
0.923120
  0
SEQEND
  8
0
  0
SOLID
  8
0
 62
    15
 10
7.217760
 20
0.920920
 11
7.847840
 21
1.299760
 12
7.216880
 22
0.918720
 13
7.846960
 23
1.297560
  0
POLYLINE
  8
0
  6
CONTINUOUS
 66
     1
 40
0.000000
 41
0.000000
  0
VERTEX
  8
0
  6
CONTINUOUS
 10
7.217760
 20
0.920920
  0
VERTEX
  8
0
  6
CONTINUOUS
 10
7.847840
 20
1.299760
  0
VERTEX
  8
0
  6
CONTINUOUS
 10
7.846960
 20
1.297560
  0
VERTEX
  8
0
  6
CONTINUOUS
 10
7.216880
 20
0.918720
  0
VERTEX
  8
0
  6
CONTINUOUS
 10
7.217760
 20
0.920920
  0
SEQEND
  8
0
  0
SOLID
  8
0
 62
    15
 10
7.216880
 20
0.918720
 11
7.846960
 21
1.297560
 12
7.216000
 22
0.916520
 13
7.846080
 23
1.295360
  0
POLYLINE
  8
0
  6
CONTINUOUS
 66
     1
 40
0.000000
 41
0.000000
  0
VERTEX
  8
0
  6
CONTINUOUS
 10
7.216880
 20
0.918720
  0
VERTEX
  8
0
  6
CONTINUOUS
 10
7.846960
 20
1.297560
  0
VERTEX
  8
0
  6
CONTINUOUS
 10
7.846080
 20
1.295360
  0
VERTEX
  8
0
  6
CONTINUOUS
 10
7.216000
 20
0.916520
  0
VERTEX
  8
0
  6
CONTINUOUS
 10
7.216880
 20
0.918720
  0
SEQEND
  8
0
  0
SOLID
  8
0
 62
    15
 10
7.216000
 20
0.916520
 11
7.846080
 21
1.295360
 12
7.215120
 22
0.914320
 13
7.845200
 23
1.293160
  0
POLYLINE
  8
0
  6
CONTINUOUS
 66
     1
 40
0.000000
 41
0.000000
  0
VERTEX
  8
0
  6
CONTINUOUS
 10
7.216000
 20
0.916520
  0
VERTEX
  8
0
  6
CONTINUOUS
 10
7.846080
 20
1.295360
  0
VERTEX
  8
0
  6
CONTINUOUS
 10
7.845200
 20
1.293160
  0
VERTEX
  8
0
  6
CONTINUOUS
 10
7.215120
 20
0.914320
  0
VERTEX
  8
0
  6
CONTINUOUS
 10
7.216000
 20
0.916520
  0
SEQEND
  8
0
  0
SOLID
  8
0
 62
    15
 10
7.215120
 20
0.914320
 11
7.845200
 21
1.293160
 12
7.213800
 22
0.912120
 13
7.843880
 23
1.291400
  0
POLYLINE
  8
0
  6
CONTINUOUS
 66
     1
 40
0.000000
 41
0.000000
  0
VERTEX
  8
0
  6
CONTINUOUS
 10
7.215120
 20
0.914320
  0
VERTEX
  8
0
  6
CONTINUOUS
 10
7.845200
 20
1.293160
  0
VERTEX
  8
0
  6
CONTINUOUS
 10
7.843880
 20
1.291400
  0
VERTEX
  8
0
  6
CONTINUOUS
 10
7.213800
 20
0.912120
  0
VERTEX
  8
0
  6
CONTINUOUS
 10
7.215120
 20
0.914320
  0
SEQEND
  8
0
  0
SOLID
  8
0
 62
    15
 10
7.213800
 20
0.912120
 11
7.843880
 21
1.291400
 12
7.211160
 22
0.908600
 13
7.841240
 23
1.287440
  0
POLYLINE
  8
0
  6
CONTINUOUS
 66
     1
 40
0.000000
 41
0.000000
  0
VERTEX
  8
0
  6
CONTINUOUS
 10
7.213800
 20
0.912120
  0
VERTEX
  8
0
  6
CONTINUOUS
 10
7.843880
 20
1.291400
  0
VERTEX
  8
0
  6
CONTINUOUS
 10
7.841240
 20
1.287440
  0
VERTEX
  8
0
  6
CONTINUOUS
 10
7.211160
 20
0.908600
  0
VERTEX
  8
0
  6
CONTINUOUS
 10
7.213800
 20
0.912120
  0
SEQEND
  8
0
  0
SOLID
  8
0
 62
    15
 10
7.211160
 20
0.908600
 11
7.841240
 21
1.287440
 12
7.209840
 22
0.906400
 13
7.839920
 23
1.285680
  0
POLYLINE
  8
0
  6
CONTINUOUS
 66
     1
 40
0.000000
 41
0.000000
  0
VERTEX
  8
0
  6
CONTINUOUS
 10
7.211160
 20
0.908600
  0
VERTEX
  8
0
  6
CONTINUOUS
 10
7.841240
 20
1.287440
  0
VERTEX
  8
0
  6
CONTINUOUS
 10
7.839920
 20
1.285680
  0
VERTEX
  8
0
  6
CONTINUOUS
 10
7.209840
 20
0.906400
  0
VERTEX
  8
0
  6
CONTINUOUS
 10
7.211160
 20
0.908600
  0
SEQEND
  8
0
  0
SOLID
  8
0
 62
    15
 10
7.209840
 20
0.906400
 11
7.839920
 21
1.285680
 12
7.206760
 22
0.902880
 13
7.836840
 23
1.282160
  0
POLYLINE
  8
0
  6
CONTINUOUS
 66
     1
 40
0.000000
 41
0.000000
  0
VERTEX
  8
0
  6
CONTINUOUS
 10
7.209840
 20
0.906400
  0
VERTEX
  8
0
  6
CONTINUOUS
 10
7.839920
 20
1.285680
  0
VERTEX
  8
0
  6
CONTINUOUS
 10
7.836840
 20
1.282160
  0
VERTEX
  8
0
  6
CONTINUOUS
 10
7.206760
 20
0.902880
  0
VERTEX
  8
0
  6
CONTINUOUS
 10
7.209840
 20
0.906400
  0
SEQEND
  8
0
  0
SOLID
  8
0
 62
    15
 10
7.206760
 20
0.902880
 11
7.836840
 21
1.282160
 12
7.205000
 22
0.901560
 13
7.835520
 23
1.280400
  0
POLYLINE
  8
0
  6
CONTINUOUS
 66
     1
 40
0.000000
 41
0.000000
  0
VERTEX
  8
0
  6
CONTINUOUS
 10
7.206760
 20
0.902880
  0
VERTEX
  8
0
  6
CONTINUOUS
 10
7.836840
 20
1.282160
  0
VERTEX
  8
0
  6
CONTINUOUS
 10
7.835520
 20
1.280400
  0
VERTEX
  8
0
  6
CONTINUOUS
 10
7.205000
 20
0.901560
  0
VERTEX
  8
0
  6
CONTINUOUS
 10
7.206760
 20
0.902880
  0
SEQEND
  8
0
  0
SOLID
  8
0
 62
    15
 10
7.205000
 20
0.901560
 11
7.835520
 21
1.280400
 12
7.201480
 22
0.898480
 13
7.832000
 23
1.277320
  0
POLYLINE
  8
0
  6
CONTINUOUS
 66
     1
 40
0.000000
 41
0.000000
  0
VERTEX
  8
0
  6
CONTINUOUS
 10
7.205000
 20
0.901560
  0
VERTEX
  8
0
  6
CONTINUOUS
 10
7.835520
 20
1.280400
  0
VERTEX
  8
0
  6
CONTINUOUS
 10
7.832000
 20
1.277320
  0
VERTEX
  8
0
  6
CONTINUOUS
 10
7.201480
 20
0.898480
  0
VERTEX
  8
0
  6
CONTINUOUS
 10
7.205000
 20
0.901560
  0
SEQEND
  8
0
  0
SOLID
  8
0
 62
    15
 10
7.199720
 20
0.896720
 11
7.829800
 21
1.276000
 12
7.195760
 22
0.894520
 13
7.826280
 23
1.273360
  0
POLYLINE
  8
0
  6
CONTINUOUS
 66
     1
 40
0.000000
 41
0.000000
  0
VERTEX
  8
0
  6
CONTINUOUS
 10
7.199720
 20
0.896720
  0
VERTEX
  8
0
  6
CONTINUOUS
 10
7.829800
 20
1.276000
  0
VERTEX
  8
0
  6
CONTINUOUS
 10
7.826280
 20
1.273360
  0
VERTEX
  8
0
  6
CONTINUOUS
 10
7.195760
 20
0.894520
  0
VERTEX
  8
0
  6
CONTINUOUS
 10
7.199720
 20
0.896720
  0
SEQEND
  8
0
  0
SOLID
  8
0
 62
    15
 10
7.201480
 20
0.898480
 11
7.832000
 21
1.277320
 12
7.199720
 22
0.896720
 13
7.829800
 23
1.276000
  0
POLYLINE
  8
0
  6
CONTINUOUS
 66
     1
 40
0.000000
 41
0.000000
  0
VERTEX
  8
0
  6
CONTINUOUS
 10
7.201480
 20
0.898480
  0
VERTEX
  8
0
  6
CONTINUOUS
 10
7.832000
 20
1.277320
  0
VERTEX
  8
0
  6
CONTINUOUS
 10
7.829800
 20
1.276000
  0
VERTEX
  8
0
  6
CONTINUOUS
 10
7.199720
 20
0.896720
  0
VERTEX
  8
0
  6
CONTINUOUS
 10
7.201480
 20
0.898480
  0
SEQEND
  8
0
  0
SOLID
  8
0
 62
    15
 10
5.740240
 20
1.633280
 11
6.370320
 21
2.012120
 12
5.742000
 22
1.634600
 13
6.372520
 23
2.013440
  0
POLYLINE
  8
0
  6
CONTINUOUS
 66
     1
 40
0.000000
 41
0.000000
  0
VERTEX
  8
0
  6
CONTINUOUS
 10
5.740240
 20
1.633280
  0
VERTEX
  8
0
  6
CONTINUOUS
 10
6.370320
 20
2.012120
  0
VERTEX
  8
0
  6
CONTINUOUS
 10
6.372520
 20
2.013440
  0
VERTEX
  8
0
  6
CONTINUOUS
 10
5.742000
 20
1.634600
  0
VERTEX
  8
0
  6
CONTINUOUS
 10
5.740240
 20
1.633280
  0
SEQEND
  8
0
  0
SOLID
  8
0
 62
    15
 10
5.742000
 20
1.634600
 11
6.372520
 21
2.013440
 12
5.744200
 22
1.635480
 13
6.374280
 23
2.014320
  0
POLYLINE
  8
0
  6
CONTINUOUS
 66
     1
 40
0.000000
 41
0.000000
  0
VERTEX
  8
0
  6
CONTINUOUS
 10
5.742000
 20
1.634600
  0
VERTEX
  8
0
  6
CONTINUOUS
 10
6.372520
 20
2.013440
  0
VERTEX
  8
0
  6
CONTINUOUS
 10
6.374280
 20
2.014320
  0
VERTEX
  8
0
  6
CONTINUOUS
 10
5.744200
 20
1.635480
  0
VERTEX
  8
0
  6
CONTINUOUS
 10
5.742000
 20
1.634600
  0
SEQEND
  8
0
  0
SOLID
  8
0
 62
    15
 10
5.744200
 20
1.635480
 11
6.374280
 21
2.014320
 12
5.746400
 22
1.636360
 13
6.376480
 23
2.015640
  0
POLYLINE
  8
0
  6
CONTINUOUS
 66
     1
 40
0.000000
 41
0.000000
  0
VERTEX
  8
0
  6
CONTINUOUS
 10
5.744200
 20
1.635480
  0
VERTEX
  8
0
  6
CONTINUOUS
 10
6.374280
 20
2.014320
  0
VERTEX
  8
0
  6
CONTINUOUS
 10
6.376480
 20
2.015640
  0
VERTEX
  8
0
  6
CONTINUOUS
 10
5.746400
 20
1.636360
  0
VERTEX
  8
0
  6
CONTINUOUS
 10
5.744200
 20
1.635480
  0
SEQEND
  8
0
  0
SOLID
  8
0
 62
    15
 10
5.746400
 20
1.636360
 11
6.376480
 21
2.015640
 12
5.748600
 22
1.637240
 13
6.378680
 23
2.016080
  0
POLYLINE
  8
0
  6
CONTINUOUS
 66
     1
 40
0.000000
 41
0.000000
  0
VERTEX
  8
0
  6
CONTINUOUS
 10
5.746400
 20
1.636360
  0
VERTEX
  8
0
  6
CONTINUOUS
 10
6.376480
 20
2.015640
  0
VERTEX
  8
0
  6
CONTINUOUS
 10
6.378680
 20
2.016080
  0
VERTEX
  8
0
  6
CONTINUOUS
 10
5.748600
 20
1.637240
  0
VERTEX
  8
0
  6
CONTINUOUS
 10
5.746400
 20
1.636360
  0
SEQEND
  8
0
  0
SOLID
  8
0
 62
    15
 10
5.748600
 20
1.637240
 11
6.378680
 21
2.016080
 12
5.750800
 22
1.638120
 13
6.380880
 23
2.016960
  0
POLYLINE
  8
0
  6
CONTINUOUS
 66
     1
 40
0.000000
 41
0.000000
  0
VERTEX
  8
0
  6
CONTINUOUS
 10
5.748600
 20
1.637240
  0
VERTEX
  8
0
  6
CONTINUOUS
 10
6.378680
 20
2.016080
  0
VERTEX
  8
0
  6
CONTINUOUS
 10
6.380880
 20
2.016960
  0
VERTEX
  8
0
  6
CONTINUOUS
 10
5.750800
 20
1.638120
  0
VERTEX
  8
0
  6
CONTINUOUS
 10
5.748600
 20
1.637240
  0
SEQEND
  8
0
  0
SOLID
  8
0
 62
    15
 10
5.750800
 20
1.638120
 11
6.380880
 21
2.016960
 12
5.753000
 22
1.638560
 13
6.383520
 23
2.017840
  0
POLYLINE
  8
0
  6
CONTINUOUS
 66
     1
 40
0.000000
 41
0.000000
  0
VERTEX
  8
0
  6
CONTINUOUS
 10
5.750800
 20
1.638120
  0
VERTEX
  8
0
  6
CONTINUOUS
 10
6.380880
 20
2.016960
  0
VERTEX
  8
0
  6
CONTINUOUS
 10
6.383520
 20
2.017840
  0
VERTEX
  8
0
  6
CONTINUOUS
 10
5.753000
 20
1.638560
  0
VERTEX
  8
0
  6
CONTINUOUS
 10
5.750800
 20
1.638120
  0
SEQEND
  8
0
  0
SOLID
  8
0
 62
    15
 10
5.753000
 20
1.638560
 11
6.383520
 21
2.017840
 12
5.755640
 22
1.639440
 13
6.385720
 23
2.018280
  0
POLYLINE
  8
0
  6
CONTINUOUS
 66
     1
 40
0.000000
 41
0.000000
  0
VERTEX
  8
0
  6
CONTINUOUS
 10
5.753000
 20
1.638560
  0
VERTEX
  8
0
  6
CONTINUOUS
 10
6.383520
 20
2.017840
  0
VERTEX
  8
0
  6
CONTINUOUS
 10
6.385720
 20
2.018280
  0
VERTEX
  8
0
  6
CONTINUOUS
 10
5.755640
 20
1.639440
  0
VERTEX
  8
0
  6
CONTINUOUS
 10
5.753000
 20
1.638560
  0
SEQEND
  8
0
  0
SOLID
  8
0
 62
    15
 10
5.755640
 20
1.639440
 11
6.385720
 21
2.018280
 12
5.757840
 22
1.639440
 13
6.387920
 23
2.018720
  0
POLYLINE
  8
0
  6
CONTINUOUS
 66
     1
 40
0.000000
 41
0.000000
  0
VERTEX
  8
0
  6
CONTINUOUS
 10
5.755640
 20
1.639440
  0
VERTEX
  8
0
  6
CONTINUOUS
 10
6.385720
 20
2.018280
  0
VERTEX
  8
0
  6
CONTINUOUS
 10
6.387920
 20
2.018720
  0
VERTEX
  8
0
  6
CONTINUOUS
 10
5.757840
 20
1.639440
  0
VERTEX
  8
0
  6
CONTINUOUS
 10
5.755640
 20
1.639440
  0
SEQEND
  8
0
  0
SOLID
  8
0
 62
    15
 10
5.757840
 20
1.639440
 11
6.387920
 21
2.018720
 12
5.760480
 22
1.639880
 13
6.390560
 23
2.018720
  0
POLYLINE
  8
0
  6
CONTINUOUS
 66
     1
 40
0.000000
 41
0.000000
  0
VERTEX
  8
0
  6
CONTINUOUS
 10
5.757840
 20
1.639440
  0
VERTEX
  8
0
  6
CONTINUOUS
 10
6.387920
 20
2.018720
  0
VERTEX
  8
0
  6
CONTINUOUS
 10
6.390560
 20
2.018720
  0
VERTEX
  8
0
  6
CONTINUOUS
 10
5.760480
 20
1.639880
  0
VERTEX
  8
0
  6
CONTINUOUS
 10
5.757840
 20
1.639440
  0
SEQEND
  8
0
  0
SOLID
  8
0
 62
    15
 10
5.760480
 20
1.639880
 11
6.390560
 21
2.018720
 12
5.762680
 22
1.640320
 13
6.393200
 23
2.019160
  0
POLYLINE
  8
0
  6
CONTINUOUS
 66
     1
 40
0.000000
 41
0.000000
  0
VERTEX
  8
0
  6
CONTINUOUS
 10
5.760480
 20
1.639880
  0
VERTEX
  8
0
  6
CONTINUOUS
 10
6.390560
 20
2.018720
  0
VERTEX
  8
0
  6
CONTINUOUS
 10
6.393200
 20
2.019160
  0
VERTEX
  8
0
  6
CONTINUOUS
 10
5.762680
 20
1.640320
  0
VERTEX
  8
0
  6
CONTINUOUS
 10
5.760480
 20
1.639880
  0
SEQEND
  8
0
  0
SOLID
  8
0
 62
    15
 10
5.762680
 20
1.640320
 11
6.393200
 21
2.019160
 12
5.765320
 22
1.640320
 13
6.395400
 23
2.019160
  0
POLYLINE
  8
0
  6
CONTINUOUS
 66
     1
 40
0.000000
 41
0.000000
  0
VERTEX
  8
0
  6
CONTINUOUS
 10
5.762680
 20
1.640320
  0
VERTEX
  8
0
  6
CONTINUOUS
 10
6.393200
 20
2.019160
  0
VERTEX
  8
0
  6
CONTINUOUS
 10
6.395400
 20
2.019160
  0
VERTEX
  8
0
  6
CONTINUOUS
 10
5.765320
 20
1.640320
  0
VERTEX
  8
0
  6
CONTINUOUS
 10
5.762680
 20
1.640320
  0
SEQEND
  8
0
  0
SOLID
  8
0
 62
    15
 10
5.765320
 20
1.640320
 11
6.395400
 21
2.019160
 12
7.170680
 22
1.640320
 13
7.800760
 23
2.019160
  0
POLYLINE
  8
0
  6
CONTINUOUS
 66
     1
 40
0.000000
 41
0.000000
  0
VERTEX
  8
0
  6
CONTINUOUS
 10
5.765320
 20
1.640320
  0
VERTEX
  8
0
  6
CONTINUOUS
 10
6.395400
 20
2.019160
  0
VERTEX
  8
0
  6
CONTINUOUS
 10
7.800760
 20
2.019160
  0
VERTEX
  8
0
  6
CONTINUOUS
 10
7.170680
 20
1.640320
  0
VERTEX
  8
0
  6
CONTINUOUS
 10
5.765320
 20
1.640320
  0
SEQEND
  8
0
  0
POLYLINE
  8
0
  6
CONTINUOUS
 66
     1
 40
0.000000
 41
0.000000
  0
VERTEX
  8
0
  6
CONTINUOUS
 10
7.170680
 20
1.640320
  0
VERTEX
  8
0
  6
CONTINUOUS
 10
7.185200
 20
1.638120
  0
VERTEX
  8
0
  6
CONTINUOUS
 10
7.195760
 20
1.633280
  0
VERTEX
  8
0
  6
CONTINUOUS
 10
7.209840
 20
1.621400
  0
VERTEX
  8
0
  6
CONTINUOUS
 10
7.217760
 20
1.606880
  0
VERTEX
  8
0
  6
CONTINUOUS
 10
7.220840
 20
1.590160
  0
VERTEX
  8
0
  6
CONTINUOUS
 10
7.220400
 20
0.932800
  0
VERTEX
  8
0
  6
CONTINUOUS
 10
7.216880
 20
0.918720
  0
VERTEX
  8
0
  6
CONTINUOUS
 10
7.209840
 20
0.906400
  0
VERTEX
  8
0
  6
CONTINUOUS
 10
7.195760
 20
0.894520
  0
VERTEX
  8
0
  6
CONTINUOUS
 10
7.178160
 20
0.887920
  0
VERTEX
  8
0
  6
CONTINUOUS
 10
5.757840
 20
0.887920
  0
VERTEX
  8
0
  6
CONTINUOUS
 10
5.740240
 20
0.894520
  0
VERTEX
  8
0
  6
CONTINUOUS
 10
5.729240
 20
0.902880
  0
VERTEX
  8
0
  6
CONTINUOUS
 10
5.720000
 20
0.916520
  0
VERTEX
  8
0
  6
CONTINUOUS
 10
5.716040
 20
0.930160
  0
VERTEX
  8
0
  6
CONTINUOUS
 10
5.715160
 20
0.937640
  0
VERTEX
  8
0
  6
CONTINUOUS
 10
5.715600
 20
1.595000
  0
VERTEX
  8
0
  6
CONTINUOUS
 10
5.719120
 20
1.609080
  0
VERTEX
  8
0
  6
CONTINUOUS
 10
5.729240
 20
1.624920
  0
VERTEX
  8
0
  6
CONTINUOUS
 10
5.744200
 20
1.635480
  0
VERTEX
  8
0
  6
CONTINUOUS
 10
5.757840
 20
1.639440
  0
VERTEX
  8
0
  6
CONTINUOUS
 10
5.765320
 20
1.640320
  0
VERTEX
  8
0
  6
CONTINUOUS
 10
7.170680
 20
1.640320
  0
SEQEND
  8
0
  0
TEXT
  8
0
 10
6.488680
 20
0.684640
 40
0.138104
  1
BA  643
 41
1.000000
  7
SN0
 71
     0
 72
     5
 11
7.078303
 21
0.684640
  0
TEXT
  8
0
 10
6.332920
 20
0.493240
 40
0.138104
  1
3/4" x 1-1/2"
 41
1.000000
  7
SN0
 71
     0
 72
     5
 11
7.232420
 21
0.493240
  0
ENDSEC
  0
EOF
