  0
SECTION
  2
HEADER
  9
$ACADVER
  1
AC1006
  9
$EXTMIN
 10
0.892760
 20
0.477400
  9
$EXTMAX
 10
7.876000
 20
10.742160
  9
$LTSCALE
 40
0.044000
  9
$PDMODE
 70
    35
  9
$PDSIZE
 40
0.035200
  0
ENDSEC
  0
SECTION
  2
TABLES
  0
TABLE
  2
LTYPE
 70
     9
  0
LTYPE
  2
CONTINUOUS
 70
    64
  3
Solid line
 72
    65
 73
     0
 40
0.000000
  0
LTYPE
  2
DASHED
 70
    64
  3
__ __ __ __ __ __ __ __ __ __ __ __ __ __ __
 72
    65
 73
     2
 40
0.000330
 49
0.000220
 49
-0.000110
  0
LTYPE
  2
HIDDEN
 70
    64
  3
 _ _ _ _ _ _ _ _ _ _ _ _ _ _ _ _ _ _ _ _ _ _
 72
    65
 73
     2
 40
0.000165
 49
0.000110
 49
-0.000055
  0
LTYPE
  2
CENTER
 70
    64
  3
____ _ ____ _ ____ _ ____ _ ____ _ ____ _ ____
 72
    65
 73
     4
 40
0.000880
 49
0.000550
 49
-0.000110
 49
0.000110
 49
-0.000110
  0
LTYPE
  2
PHANTOM
 70
    64
  3
_____ _ _ _____ _ _ _____ _ _ _____ _ _ ____
 72
    65
 73
     6
 40
0.001100
 49
0.000550
 49
-0.000110
 49
0.000110
 49
-0.000110
 49
0.000110
 49
-0.000110
  0
LTYPE
  2
DOT
 70
    64
  3
...............................................
 72
    65
 73
     2
 40
0.000110
 49
0.000000
 49
-0.000110
  0
LTYPE
  2
DASHDOT
 70
    64
  3
__ . __ . __ . __ . __ . __ . __ . __ . __ . __
 72
    65
 73
     4
 40
0.000440
 49
0.000220
 49
-0.000110
 49
0.000000
 49
-0.000110
  0
LTYPE
  2
BORDER
 70
    64
  3
__ __ . __ __ . __ __ . __ __ . __ __ . __ __
 72
    65
 73
     6
 40
0.000770
 49
0.000220
 49
-0.000110
 49
0.000220
 49
-0.000110
 49
0.000000
 49
-0.000110
  0
LTYPE
  2
DIVIDE
 70
    64
  3
__ . . __ . . __ . . __ . . __ . . __ . . __
 72
    65
 73
     6
 40
0.000550
 49
0.000220
 49
-0.000110
 49
0.000000
 49
-0.000110
 49
0.000000
 49
-0.000110
  0
LTYPE
  2
DOTDOT
 70
    64
  3
 . .  . .  . .  . .  . .  . . 
 72
    65
 73
     5
 40
0.000242
 49
-0.000110
 49
0.000000
 49
-0.000110
 49
0.000000
 49
-0.000110
  0
ENDTAB
  0
TABLE
  2
STYLE
 70
     2
  0
STYLE
 70
     0
  2
SN0
 40
0.000000
 41
0.000440
 50
0.000000
 71
     0
 42
0.000000
  3
ROMAND
  0
STYLE
 70
    68
  2
SV0
 40
0.000000
 41
0.000440
 50
0.000000
 71
     0
 42
0.000000
  3
ROMAND
  0
ENDTAB
  0
TABLE
  2
LAYER
 70
     3
  0
LAYER
  2
FOREGROUND
 70
    64
 62
     7
  6
CONTINUOUS
  0
LAYER
  2
BACKGROUND
 70
    65
 62
    -7
  6
CONTINUOUS
  0
LAYER
  2
0
 70
    64
 62
     7
  6
CONTINUOUS
  0
ENDTAB
  0
ENDSEC
  0
SECTION
  2
ENTITIES
  0
POLYLINE
  8
FOREGROUND
  6
CONTINUOUS
 66
     1
 40
0.000000
 41
0.000000
  0
VERTEX
  8
FOREGROUND
  6
CONTINUOUS
 10
0.000000
 20
11.219560
  0
VERTEX
  8
FOREGROUND
  6
CONTINUOUS
 10
8.499920
 20
11.219560
  0
VERTEX
  8
FOREGROUND
  6
CONTINUOUS
 10
8.499920
 20
0.219560
  0
VERTEX
  8
FOREGROUND
  6
CONTINUOUS
 10
0.000000
 20
0.219560
  0
VERTEX
  8
FOREGROUND
  6
CONTINUOUS
 10
0.000000
 20
11.219560
  0
SEQEND
  8
0
  0
POLYLINE
  8
FOREGROUND
  6
CONTINUOUS
 66
     1
 40
0.000000
 41
0.000000
  0
VERTEX
  8
FOREGROUND
  6
CONTINUOUS
 10
0.000000
 20
11.219560
  0
VERTEX
  8
FOREGROUND
  6
CONTINUOUS
 10
8.499920
 20
11.219560
  0
VERTEX
  8
FOREGROUND
  6
CONTINUOUS
 10
8.499920
 20
0.219560
  0
VERTEX
  8
FOREGROUND
  6
CONTINUOUS
 10
0.000000
 20
0.219560
  0
VERTEX
  8
FOREGROUND
  6
CONTINUOUS
 10
0.000000
 20
11.219560
  0
SEQEND
  8
0
  0
POLYLINE
  8
0
  6
CONTINUOUS
 66
     1
 40
0.014080
 41
0.014080
  0
VERTEX
  8
0
  6
CONTINUOUS
 10
6.196960
 20
1.438800
  0
VERTEX
  8
0
  6
CONTINUOUS
 10
7.148240
 20
0.487520
  0
VERTEX
  8
0
  6
CONTINUOUS
 10
7.711880
 20
1.024760
  0
VERTEX
  8
0
  6
CONTINUOUS
 10
6.998640
 20
1.801800
  0
VERTEX
  8
0
  6
CONTINUOUS
 10
7.106880
 20
1.902120
  0
VERTEX
  8
0
  6
CONTINUOUS
 10
7.207200
 20
2.002000
  0
VERTEX
  8
0
  6
CONTINUOUS
 10
7.299160
 20
2.101000
  0
VERTEX
  8
0
  6
CONTINUOUS
 10
7.384080
 20
2.200000
  0
VERTEX
  8
0
  6
CONTINUOUS
 10
7.461080
 20
2.298560
  0
VERTEX
  8
0
  6
CONTINUOUS
 10
7.531040
 20
2.397120
  0
VERTEX
  8
0
  6
CONTINUOUS
 10
7.593520
 20
2.495680
  0
VERTEX
  8
0
  6
CONTINUOUS
 10
7.649400
 20
2.594680
  0
VERTEX
  8
0
  6
CONTINUOUS
 10
7.698240
 20
2.694120
  0
VERTEX
  8
0
  6
CONTINUOUS
 10
7.740920
 20
2.793560
  0
VERTEX
  8
0
  6
CONTINUOUS
 10
7.776560
 20
2.894320
  0
VERTEX
  8
0
  6
CONTINUOUS
 10
7.792400
 20
2.944480
  0
VERTEX
  8
0
  6
CONTINUOUS
 10
7.819240
 20
3.046120
  0
VERTEX
  8
0
  6
CONTINUOUS
 10
7.839920
 20
3.149080
  0
VERTEX
  8
0
  6
CONTINUOUS
 10
7.855320
 20
3.252920
  0
VERTEX
  8
0
  6
CONTINUOUS
 10
7.864560
 20
3.358080
  0
VERTEX
  8
0
  6
CONTINUOUS
 10
7.868960
 20
3.465000
  0
VERTEX
  8
0
  6
CONTINUOUS
 10
7.867640
 20
3.573240
  0
VERTEX
  8
0
  6
CONTINUOUS
 10
7.865440
 20
3.627800
  0
VERTEX
  8
0
  6
CONTINUOUS
 10
7.856640
 20
3.739120
  0
VERTEX
  8
0
  6
CONTINUOUS
 10
7.843440
 20
3.851760
  0
VERTEX
  8
0
  6
CONTINUOUS
 10
7.825400
 20
3.967040
  0
VERTEX
  8
0
  6
CONTINUOUS
 10
7.803400
 20
4.084080
  0
VERTEX
  8
0
  6
CONTINUOUS
 10
7.777000
 20
4.204200
  0
VERTEX
  8
0
  6
CONTINUOUS
 10
7.729920
 20
4.388560
  0
VERTEX
  8
0
  6
CONTINUOUS
 10
7.693400
 20
4.514840
  0
VERTEX
  8
0
  6
CONTINUOUS
 10
7.632680
 20
4.710200
  0
VERTEX
  8
0
  6
CONTINUOUS
 10
7.564480
 20
4.912160
  0
VERTEX
  8
0
  6
CONTINUOUS
 10
7.463280
 20
5.193760
  0
VERTEX
  8
0
  6
CONTINUOUS
 10
7.326000
 20
5.561600
  0
VERTEX
  8
0
  6
CONTINUOUS
 10
7.278480
 20
5.704600
  0
VERTEX
  8
0
  6
CONTINUOUS
 10
7.237120
 20
5.843200
  0
VERTEX
  8
0
  6
CONTINUOUS
 10
7.201920
 20
5.977400
  0
VERTEX
  8
0
  6
CONTINUOUS
 10
7.172000
 20
6.107200
  0
VERTEX
  8
0
  6
CONTINUOUS
 10
7.147800
 20
6.232600
  0
VERTEX
  8
0
  6
CONTINUOUS
 10
7.129320
 20
6.354040
  0
VERTEX
  8
0
  6
CONTINUOUS
 10
7.115240
 20
6.471520
  0
VERTEX
  8
0
  6
CONTINUOUS
 10
7.106440
 20
6.585040
  0
VERTEX
  8
0
  6
CONTINUOUS
 10
7.102480
 20
6.694600
  0
VERTEX
  8
0
  6
CONTINUOUS
 10
7.102480
 20
6.800640
  0
VERTEX
  8
0
  6
CONTINUOUS
 10
7.106880
 20
6.902720
  0
VERTEX
  8
0
  6
CONTINUOUS
 10
7.115680
 20
7.001280
  0
VERTEX
  8
0
  6
CONTINUOUS
 10
7.127560
 20
7.096320
  0
VERTEX
  8
0
  6
CONTINUOUS
 10
7.143400
 20
7.187840
  0
VERTEX
  8
0
  6
CONTINUOUS
 10
7.162760
 20
7.275840
  0
VERTEX
  8
0
  6
CONTINUOUS
 10
7.185200
 20
7.361200
  0
VERTEX
  8
0
  6
CONTINUOUS
 10
7.210280
 20
7.443040
  0
VERTEX
  8
0
  6
CONTINUOUS
 10
7.238000
 20
7.521800
  0
VERTEX
  8
0
  6
CONTINUOUS
 10
7.268360
 20
7.597920
  0
VERTEX
  8
0
  6
CONTINUOUS
 10
7.318080
 20
7.706160
  0
VERTEX
  8
0
  6
CONTINUOUS
 10
7.372200
 20
7.808680
  0
VERTEX
  8
0
  6
CONTINUOUS
 10
7.429840
 20
7.905040
  0
VERTEX
  8
0
  6
CONTINUOUS
 10
7.511240
 20
8.025160
  0
VERTEX
  8
0
  6
CONTINUOUS
 10
7.574600
 20
8.109200
  0
VERTEX
  8
0
  6
CONTINUOUS
 10
7.660400
 20
8.213480
  0
VERTEX
  8
0
  6
CONTINUOUS
 10
7.761160
 20
8.326120
  0
VERTEX
  8
0
  6
CONTINUOUS
 10
7.165840
 20
8.921440
  0
VERTEX
  8
0
  6
CONTINUOUS
 10
6.200040
 20
7.956080
  0
VERTEX
  8
0
  6
CONTINUOUS
 10
6.200040
 20
1.742400
  0
VERTEX
  8
0
  6
CONTINUOUS
 10
6.196960
 20
1.438800
  0
SEQEND
  8
0
  0
SOLID
  8
0
 62
    15
 10
4.534200
 20
8.101720
 11
5.174840
 21
7.719360
 12
4.279880
 22
7.550840
 13
4.920520
 23
7.168480
  0
POLYLINE
  8
0
  6
CONTINUOUS
 66
     1
 40
0.000000
 41
0.000000
  0
VERTEX
  8
0
  6
CONTINUOUS
 10
4.534200
 20
8.101720
  0
VERTEX
  8
0
  6
CONTINUOUS
 10
5.174840
 20
7.719360
  0
VERTEX
  8
0
  6
CONTINUOUS
 10
4.920520
 20
7.168480
  0
VERTEX
  8
0
  6
CONTINUOUS
 10
4.279880
 20
7.550840
  0
VERTEX
  8
0
  6
CONTINUOUS
 10
4.534200
 20
8.101720
  0
SEQEND
  8
0
  0
SOLID
  8
0
 62
    15
 10
6.856520
 20
9.899120
 11
7.497160
 21
9.516760
 12
6.834960
 22
9.898680
 13
7.475600
 23
9.515880
  0
POLYLINE
  8
0
  6
CONTINUOUS
 66
     1
 40
0.000000
 41
0.000000
  0
VERTEX
  8
0
  6
CONTINUOUS
 10
6.856520
 20
9.899120
  0
VERTEX
  8
0
  6
CONTINUOUS
 10
7.497160
 20
9.516760
  0
VERTEX
  8
0
  6
CONTINUOUS
 10
7.475600
 20
9.515880
  0
VERTEX
  8
0
  6
CONTINUOUS
 10
6.834960
 20
9.898680
  0
VERTEX
  8
0
  6
CONTINUOUS
 10
6.856520
 20
9.899120
  0
SEQEND
  8
0
  0
SOLID
  8
0
 62
    15
 10
6.834960
 20
9.898680
 11
7.475600
 21
9.515880
 12
6.570960
 22
9.877120
 13
7.211600
 23
9.494760
  0
POLYLINE
  8
0
  6
CONTINUOUS
 66
     1
 40
0.000000
 41
0.000000
  0
VERTEX
  8
0
  6
CONTINUOUS
 10
6.834960
 20
9.898680
  0
VERTEX
  8
0
  6
CONTINUOUS
 10
7.475600
 20
9.515880
  0
VERTEX
  8
0
  6
CONTINUOUS
 10
7.211600
 20
9.494760
  0
VERTEX
  8
0
  6
CONTINUOUS
 10
6.570960
 20
9.877120
  0
VERTEX
  8
0
  6
CONTINUOUS
 10
6.834960
 20
9.898680
  0
SEQEND
  8
0
  0
SOLID
  8
0
 62
    15
 10
6.570960
 20
9.877120
 11
7.211600
 21
9.494760
 12
6.288920
 22
9.825640
 13
6.929120
 23
9.442840
  0
POLYLINE
  8
0
  6
CONTINUOUS
 66
     1
 40
0.000000
 41
0.000000
  0
VERTEX
  8
0
  6
CONTINUOUS
 10
6.570960
 20
9.877120
  0
VERTEX
  8
0
  6
CONTINUOUS
 10
7.211600
 20
9.494760
  0
VERTEX
  8
0
  6
CONTINUOUS
 10
6.929120
 20
9.442840
  0
VERTEX
  8
0
  6
CONTINUOUS
 10
6.288920
 20
9.825640
  0
VERTEX
  8
0
  6
CONTINUOUS
 10
6.570960
 20
9.877120
  0
SEQEND
  8
0
  0
SOLID
  8
0
 62
    15
 10
6.288920
 20
9.825640
 11
6.929120
 21
9.442840
 12
5.993680
 22
9.729720
 13
6.634320
 23
9.347360
  0
POLYLINE
  8
0
  6
CONTINUOUS
 66
     1
 40
0.000000
 41
0.000000
  0
VERTEX
  8
0
  6
CONTINUOUS
 10
6.288920
 20
9.825640
  0
VERTEX
  8
0
  6
CONTINUOUS
 10
6.929120
 20
9.442840
  0
VERTEX
  8
0
  6
CONTINUOUS
 10
6.634320
 20
9.347360
  0
VERTEX
  8
0
  6
CONTINUOUS
 10
5.993680
 20
9.729720
  0
VERTEX
  8
0
  6
CONTINUOUS
 10
6.288920
 20
9.825640
  0
SEQEND
  8
0
  0
SOLID
  8
0
 62
    15
 10
5.993680
 20
9.729720
 11
6.634320
 21
9.347360
 12
5.691840
 22
9.576160
 13
6.332480
 23
9.193360
  0
POLYLINE
  8
0
  6
CONTINUOUS
 66
     1
 40
0.000000
 41
0.000000
  0
VERTEX
  8
0
  6
CONTINUOUS
 10
5.993680
 20
9.729720
  0
VERTEX
  8
0
  6
CONTINUOUS
 10
6.634320
 20
9.347360
  0
VERTEX
  8
0
  6
CONTINUOUS
 10
6.332480
 20
9.193360
  0
VERTEX
  8
0
  6
CONTINUOUS
 10
5.691840
 20
9.576160
  0
VERTEX
  8
0
  6
CONTINUOUS
 10
5.993680
 20
9.729720
  0
SEQEND
  8
0
  0
SOLID
  8
0
 62
    15
 10
5.691840
 20
9.576160
 11
6.332480
 21
9.193360
 12
5.389120
 22
9.350440
 13
6.029760
 23
8.967640
  0
POLYLINE
  8
0
  6
CONTINUOUS
 66
     1
 40
0.000000
 41
0.000000
  0
VERTEX
  8
0
  6
CONTINUOUS
 10
5.691840
 20
9.576160
  0
VERTEX
  8
0
  6
CONTINUOUS
 10
6.332480
 20
9.193360
  0
VERTEX
  8
0
  6
CONTINUOUS
 10
6.029760
 20
8.967640
  0
VERTEX
  8
0
  6
CONTINUOUS
 10
5.389120
 20
9.350440
  0
VERTEX
  8
0
  6
CONTINUOUS
 10
5.691840
 20
9.576160
  0
SEQEND
  8
0
  0
SOLID
  8
0
 62
    15
 10
5.389120
 20
9.350440
 11
6.029760
 21
8.967640
 12
5.091240
 22
9.038480
 13
5.731880
 23
8.656120
  0
POLYLINE
  8
0
  6
CONTINUOUS
 66
     1
 40
0.000000
 41
0.000000
  0
VERTEX
  8
0
  6
CONTINUOUS
 10
5.389120
 20
9.350440
  0
VERTEX
  8
0
  6
CONTINUOUS
 10
6.029760
 20
8.967640
  0
VERTEX
  8
0
  6
CONTINUOUS
 10
5.731880
 20
8.656120
  0
VERTEX
  8
0
  6
CONTINUOUS
 10
5.091240
 20
9.038480
  0
VERTEX
  8
0
  6
CONTINUOUS
 10
5.389120
 20
9.350440
  0
SEQEND
  8
0
  0
SOLID
  8
0
 62
    15
 10
5.091240
 20
9.038480
 11
5.731880
 21
8.656120
 12
4.804360
 22
8.627080
 13
5.445000
 23
8.244720
  0
POLYLINE
  8
0
  6
CONTINUOUS
 66
     1
 40
0.000000
 41
0.000000
  0
VERTEX
  8
0
  6
CONTINUOUS
 10
5.091240
 20
9.038480
  0
VERTEX
  8
0
  6
CONTINUOUS
 10
5.731880
 20
8.656120
  0
VERTEX
  8
0
  6
CONTINUOUS
 10
5.445000
 20
8.244720
  0
VERTEX
  8
0
  6
CONTINUOUS
 10
4.804360
 20
8.627080
  0
VERTEX
  8
0
  6
CONTINUOUS
 10
5.091240
 20
9.038480
  0
SEQEND
  8
0
  0
SOLID
  8
0
 62
    15
 10
4.804360
 20
8.627080
 11
5.445000
 21
8.244720
 12
4.666640
 22
8.379800
 13
5.307280
 23
7.997000
  0
POLYLINE
  8
0
  6
CONTINUOUS
 66
     1
 40
0.000000
 41
0.000000
  0
VERTEX
  8
0
  6
CONTINUOUS
 10
4.804360
 20
8.627080
  0
VERTEX
  8
0
  6
CONTINUOUS
 10
5.445000
 20
8.244720
  0
VERTEX
  8
0
  6
CONTINUOUS
 10
5.307280
 20
7.997000
  0
VERTEX
  8
0
  6
CONTINUOUS
 10
4.666640
 20
8.379800
  0
VERTEX
  8
0
  6
CONTINUOUS
 10
4.804360
 20
8.627080
  0
SEQEND
  8
0
  0
SOLID
  8
0
 62
    15
 10
4.666640
 20
8.379800
 11
5.307280
 21
7.997000
 12
4.534200
 22
8.101720
 13
5.174840
 23
7.719360
  0
POLYLINE
  8
0
  6
CONTINUOUS
 66
     1
 40
0.000000
 41
0.000000
  0
VERTEX
  8
0
  6
CONTINUOUS
 10
4.666640
 20
8.379800
  0
VERTEX
  8
0
  6
CONTINUOUS
 10
5.307280
 20
7.997000
  0
VERTEX
  8
0
  6
CONTINUOUS
 10
5.174840
 20
7.719360
  0
VERTEX
  8
0
  6
CONTINUOUS
 10
4.534200
 20
8.101720
  0
VERTEX
  8
0
  6
CONTINUOUS
 10
4.666640
 20
8.379800
  0
SEQEND
  8
0
  0
SOLID
  8
0
 62
    15
 10
6.853440
 20
10.741280
 11
7.494080
 21
10.358920
 12
6.856520
 22
9.899120
 13
7.497160
 23
9.516760
  0
POLYLINE
  8
0
  6
CONTINUOUS
 66
     1
 40
0.000000
 41
0.000000
  0
VERTEX
  8
0
  6
CONTINUOUS
 10
6.853440
 20
10.741280
  0
VERTEX
  8
0
  6
CONTINUOUS
 10
7.494080
 20
10.358920
  0
VERTEX
  8
0
  6
CONTINUOUS
 10
7.497160
 20
9.516760
  0
VERTEX
  8
0
  6
CONTINUOUS
 10
6.856520
 20
9.899120
  0
VERTEX
  8
0
  6
CONTINUOUS
 10
6.853440
 20
10.741280
  0
SEQEND
  8
0
  0
SOLID
  8
0
 62
    15
 10
4.279880
 20
7.550840
 11
4.920520
 21
7.168480
 12
4.027760
 22
7.071680
 13
4.667960
 23
6.689320
  0
POLYLINE
  8
0
  6
CONTINUOUS
 66
     1
 40
0.000000
 41
0.000000
  0
VERTEX
  8
0
  6
CONTINUOUS
 10
4.279880
 20
7.550840
  0
VERTEX
  8
0
  6
CONTINUOUS
 10
4.920520
 20
7.168480
  0
VERTEX
  8
0
  6
CONTINUOUS
 10
4.667960
 20
6.689320
  0
VERTEX
  8
0
  6
CONTINUOUS
 10
4.027760
 20
7.071680
  0
VERTEX
  8
0
  6
CONTINUOUS
 10
4.279880
 20
7.550840
  0
SEQEND
  8
0
  0
SOLID
  8
0
 62
    15
 10
4.027760
 20
7.071680
 11
4.667960
 21
6.689320
 12
3.762000
 22
6.666880
 13
4.402640
 23
6.284520
  0
POLYLINE
  8
0
  6
CONTINUOUS
 66
     1
 40
0.000000
 41
0.000000
  0
VERTEX
  8
0
  6
CONTINUOUS
 10
4.027760
 20
7.071680
  0
VERTEX
  8
0
  6
CONTINUOUS
 10
4.667960
 20
6.689320
  0
VERTEX
  8
0
  6
CONTINUOUS
 10
4.402640
 20
6.284520
  0
VERTEX
  8
0
  6
CONTINUOUS
 10
3.762000
 20
6.666880
  0
VERTEX
  8
0
  6
CONTINUOUS
 10
4.027760
 20
7.071680
  0
SEQEND
  8
0
  0
SOLID
  8
0
 62
    15
 10
3.762000
 20
6.666880
 11
4.402640
 21
6.284520
 12
3.468520
 22
6.337320
 13
4.109160
 23
5.954960
  0
POLYLINE
  8
0
  6
CONTINUOUS
 66
     1
 40
0.000000
 41
0.000000
  0
VERTEX
  8
0
  6
CONTINUOUS
 10
3.762000
 20
6.666880
  0
VERTEX
  8
0
  6
CONTINUOUS
 10
4.402640
 20
6.284520
  0
VERTEX
  8
0
  6
CONTINUOUS
 10
4.109160
 20
5.954960
  0
VERTEX
  8
0
  6
CONTINUOUS
 10
3.468520
 20
6.337320
  0
VERTEX
  8
0
  6
CONTINUOUS
 10
3.762000
 20
6.666880
  0
SEQEND
  8
0
  0
SOLID
  8
0
 62
    15
 10
3.468520
 20
6.337320
 11
4.109160
 21
5.954960
 12
3.132360
 22
6.085200
 13
3.773000
 23
5.702400
  0
POLYLINE
  8
0
  6
CONTINUOUS
 66
     1
 40
0.000000
 41
0.000000
  0
VERTEX
  8
0
  6
CONTINUOUS
 10
3.468520
 20
6.337320
  0
VERTEX
  8
0
  6
CONTINUOUS
 10
4.109160
 20
5.954960
  0
VERTEX
  8
0
  6
CONTINUOUS
 10
3.773000
 20
5.702400
  0
VERTEX
  8
0
  6
CONTINUOUS
 10
3.132360
 20
6.085200
  0
VERTEX
  8
0
  6
CONTINUOUS
 10
3.468520
 20
6.337320
  0
SEQEND
  8
0
  0
SOLID
  8
0
 62
    15
 10
3.132360
 20
6.085200
 11
3.773000
 21
5.702400
 12
2.738560
 22
5.911400
 13
3.379200
 23
5.529040
  0
POLYLINE
  8
0
  6
CONTINUOUS
 66
     1
 40
0.000000
 41
0.000000
  0
VERTEX
  8
0
  6
CONTINUOUS
 10
3.132360
 20
6.085200
  0
VERTEX
  8
0
  6
CONTINUOUS
 10
3.773000
 20
5.702400
  0
VERTEX
  8
0
  6
CONTINUOUS
 10
3.379200
 20
5.529040
  0
VERTEX
  8
0
  6
CONTINUOUS
 10
2.738560
 20
5.911400
  0
VERTEX
  8
0
  6
CONTINUOUS
 10
3.132360
 20
6.085200
  0
SEQEND
  8
0
  0
SOLID
  8
0
 62
    15
 10
2.738560
 20
5.911400
 11
3.379200
 21
5.529040
 12
2.272160
 22
5.818560
 13
2.912360
 23
5.435760
  0
POLYLINE
  8
0
  6
CONTINUOUS
 66
     1
 40
0.000000
 41
0.000000
  0
VERTEX
  8
0
  6
CONTINUOUS
 10
2.738560
 20
5.911400
  0
VERTEX
  8
0
  6
CONTINUOUS
 10
3.379200
 20
5.529040
  0
VERTEX
  8
0
  6
CONTINUOUS
 10
2.912360
 20
5.435760
  0
VERTEX
  8
0
  6
CONTINUOUS
 10
2.272160
 20
5.818560
  0
VERTEX
  8
0
  6
CONTINUOUS
 10
2.738560
 20
5.911400
  0
SEQEND
  8
0
  0
SOLID
  8
0
 62
    15
 10
1.718200
 20
5.807560
 11
2.358840
 21
5.424760
 12
1.716880
 22
5.785120
 13
2.357080
 23
5.402320
  0
POLYLINE
  8
0
  6
CONTINUOUS
 66
     1
 40
0.000000
 41
0.000000
  0
VERTEX
  8
0
  6
CONTINUOUS
 10
1.718200
 20
5.807560
  0
VERTEX
  8
0
  6
CONTINUOUS
 10
2.358840
 20
5.424760
  0
VERTEX
  8
0
  6
CONTINUOUS
 10
2.357080
 20
5.402320
  0
VERTEX
  8
0
  6
CONTINUOUS
 10
1.716880
 20
5.785120
  0
VERTEX
  8
0
  6
CONTINUOUS
 10
1.718200
 20
5.807560
  0
SEQEND
  8
0
  0
SOLID
  8
0
 62
    15
 10
2.006840
 20
5.802720
 11
2.647480
 21
5.419920
 12
1.718200
 22
5.807560
 13
2.358840
 23
5.424760
  0
POLYLINE
  8
0
  6
CONTINUOUS
 66
     1
 40
0.000000
 41
0.000000
  0
VERTEX
  8
0
  6
CONTINUOUS
 10
2.006840
 20
5.802720
  0
VERTEX
  8
0
  6
CONTINUOUS
 10
2.647480
 20
5.419920
  0
VERTEX
  8
0
  6
CONTINUOUS
 10
2.358840
 20
5.424760
  0
VERTEX
  8
0
  6
CONTINUOUS
 10
1.718200
 20
5.807560
  0
VERTEX
  8
0
  6
CONTINUOUS
 10
2.006840
 20
5.802720
  0
SEQEND
  8
0
  0
SOLID
  8
0
 62
    15
 10
2.272160
 20
5.818560
 11
2.912360
 21
5.435760
 12
2.006840
 22
5.802720
 13
2.647480
 23
5.419920
  0
POLYLINE
  8
0
  6
CONTINUOUS
 66
     1
 40
0.000000
 41
0.000000
  0
VERTEX
  8
0
  6
CONTINUOUS
 10
2.272160
 20
5.818560
  0
VERTEX
  8
0
  6
CONTINUOUS
 10
2.912360
 20
5.435760
  0
VERTEX
  8
0
  6
CONTINUOUS
 10
2.647480
 20
5.419920
  0
VERTEX
  8
0
  6
CONTINUOUS
 10
2.006840
 20
5.802720
  0
VERTEX
  8
0
  6
CONTINUOUS
 10
2.272160
 20
5.818560
  0
SEQEND
  8
0
  0
SOLID
  8
0
 62
    15
 10
1.676840
 20
4.753320
 11
2.317040
 21
4.370960
 12
0.898040
 22
4.769160
 13
1.538680
 23
4.386800
  0
POLYLINE
  8
0
  6
CONTINUOUS
 66
     1
 40
0.000000
 41
0.000000
  0
VERTEX
  8
0
  6
CONTINUOUS
 10
1.676840
 20
4.753320
  0
VERTEX
  8
0
  6
CONTINUOUS
 10
2.317040
 20
4.370960
  0
VERTEX
  8
0
  6
CONTINUOUS
 10
1.538680
 20
4.386800
  0
VERTEX
  8
0
  6
CONTINUOUS
 10
0.898040
 20
4.769160
  0
VERTEX
  8
0
  6
CONTINUOUS
 10
1.676840
 20
4.753320
  0
SEQEND
  8
0
  0
SOLID
  8
0
 62
    15
 10
1.716880
 20
5.785120
 11
2.357080
 21
5.402320
 12
1.676840
 22
4.753320
 13
2.317040
 23
4.370960
  0
POLYLINE
  8
0
  6
CONTINUOUS
 66
     1
 40
0.000000
 41
0.000000
  0
VERTEX
  8
0
  6
CONTINUOUS
 10
1.716880
 20
5.785120
  0
VERTEX
  8
0
  6
CONTINUOUS
 10
2.357080
 20
5.402320
  0
VERTEX
  8
0
  6
CONTINUOUS
 10
2.317040
 20
4.370960
  0
VERTEX
  8
0
  6
CONTINUOUS
 10
1.676840
 20
4.753320
  0
VERTEX
  8
0
  6
CONTINUOUS
 10
1.716880
 20
5.785120
  0
SEQEND
  8
0
  0
POLYLINE
  8
0
  6
CONTINUOUS
 66
     1
 40
0.000000
 41
0.000000
  0
VERTEX
  8
0
  6
CONTINUOUS
 10
1.109680
 20
6.327640
  0
VERTEX
  8
0
  6
CONTINUOUS
 10
5.488120
 20
10.736880
  0
VERTEX
  8
0
  6
CONTINUOUS
 10
6.853440
 20
10.741280
  0
VERTEX
  8
0
  6
CONTINUOUS
 10
6.856520
 20
9.899120
  0
VERTEX
  8
0
  6
CONTINUOUS
 10
6.834960
 20
9.898680
  0
VERTEX
  8
0
  6
CONTINUOUS
 10
6.570960
 20
9.877120
  0
VERTEX
  8
0
  6
CONTINUOUS
 10
6.288920
 20
9.825640
  0
VERTEX
  8
0
  6
CONTINUOUS
 10
5.993680
 20
9.729720
  0
VERTEX
  8
0
  6
CONTINUOUS
 10
5.691840
 20
9.576160
  0
VERTEX
  8
0
  6
CONTINUOUS
 10
5.389120
 20
9.350440
  0
VERTEX
  8
0
  6
CONTINUOUS
 10
5.091240
 20
9.038480
  0
VERTEX
  8
0
  6
CONTINUOUS
 10
4.804360
 20
8.627080
  0
VERTEX
  8
0
  6
CONTINUOUS
 10
4.666640
 20
8.379800
  0
VERTEX
  8
0
  6
CONTINUOUS
 10
4.534200
 20
8.101720
  0
VERTEX
  8
0
  6
CONTINUOUS
 10
4.279880
 20
7.550840
  0
VERTEX
  8
0
  6
CONTINUOUS
 10
4.027760
 20
7.071680
  0
VERTEX
  8
0
  6
CONTINUOUS
 10
3.762000
 20
6.666880
  0
VERTEX
  8
0
  6
CONTINUOUS
 10
3.468520
 20
6.337320
  0
VERTEX
  8
0
  6
CONTINUOUS
 10
3.132360
 20
6.085200
  0
VERTEX
  8
0
  6
CONTINUOUS
 10
2.738560
 20
5.911400
  0
VERTEX
  8
0
  6
CONTINUOUS
 10
2.272160
 20
5.818560
  0
VERTEX
  8
0
  6
CONTINUOUS
 10
2.006840
 20
5.802720
  0
VERTEX
  8
0
  6
CONTINUOUS
 10
1.718200
 20
5.807560
  0
VERTEX
  8
0
  6
CONTINUOUS
 10
1.716880
 20
5.785120
  0
VERTEX
  8
0
  6
CONTINUOUS
 10
1.676840
 20
4.753320
  0
VERTEX
  8
0
  6
CONTINUOUS
 10
0.898040
 20
4.769160
  0
VERTEX
  8
0
  6
CONTINUOUS
 10
0.893640
 20
6.114240
  0
VERTEX
  8
0
  6
CONTINUOUS
 10
1.109680
 20
6.327640
  0
SEQEND
  8
0
  0
TEXT
  8
0
 10
2.806320
 20
4.036120
 40
0.137852
  1
BA  642
 41
1.000000
  7
SN0
 71
     0
 72
     5
 11
3.397570
 21
4.036120
  0
TEXT
  8
0
 10
2.530880
 20
3.844720
 40
0.137852
  1
1-5/8" x 8-7/16"
 41
1.000000
  7
SN0
 71
     0
 72
     5
 11
3.674374
 21
3.844720
  0
ENDSEC
  0
EOF
