  0
SECTION
  2
HEADER
  9
$ACADVER
  1
AC1006
  9
$EXTMIN
 10
3.341360
 20
0.820600
  9
$EXTMAX
 10
7.144720
 20
3.974960
  9
$LTSCALE
 40
0.044000
  9
$PDMODE
 70
    35
  9
$PDSIZE
 40
0.035200
  0
ENDSEC
  0
SECTION
  2
TABLES
  0
TABLE
  2
LTYPE
 70
     9
  0
LTYPE
  2
CONTINUOUS
 70
    64
  3
Solid line
 72
    65
 73
     0
 40
0.000000
  0
LTYPE
  2
DASHED
 70
    64
  3
__ __ __ __ __ __ __ __ __ __ __ __ __ __ __
 72
    65
 73
     2
 40
0.000330
 49
0.000220
 49
-0.000110
  0
LTYPE
  2
HIDDEN
 70
    64
  3
 _ _ _ _ _ _ _ _ _ _ _ _ _ _ _ _ _ _ _ _ _ _
 72
    65
 73
     2
 40
0.000165
 49
0.000110
 49
-0.000055
  0
LTYPE
  2
CENTER
 70
    64
  3
____ _ ____ _ ____ _ ____ _ ____ _ ____ _ ____
 72
    65
 73
     4
 40
0.000880
 49
0.000550
 49
-0.000110
 49
0.000110
 49
-0.000110
  0
LTYPE
  2
PHANTOM
 70
    64
  3
_____ _ _ _____ _ _ _____ _ _ _____ _ _ ____
 72
    65
 73
     6
 40
0.001100
 49
0.000550
 49
-0.000110
 49
0.000110
 49
-0.000110
 49
0.000110
 49
-0.000110
  0
LTYPE
  2
DOT
 70
    64
  3
...............................................
 72
    65
 73
     2
 40
0.000110
 49
0.000000
 49
-0.000110
  0
LTYPE
  2
DASHDOT
 70
    64
  3
__ . __ . __ . __ . __ . __ . __ . __ . __ . __
 72
    65
 73
     4
 40
0.000440
 49
0.000220
 49
-0.000110
 49
0.000000
 49
-0.000110
  0
LTYPE
  2
BORDER
 70
    64
  3
__ __ . __ __ . __ __ . __ __ . __ __ . __ __
 72
    65
 73
     6
 40
0.000770
 49
0.000220
 49
-0.000110
 49
0.000220
 49
-0.000110
 49
0.000000
 49
-0.000110
  0
LTYPE
  2
DIVIDE
 70
    64
  3
__ . . __ . . __ . . __ . . __ . . __ . . __
 72
    65
 73
     6
 40
0.000550
 49
0.000220
 49
-0.000110
 49
0.000000
 49
-0.000110
 49
0.000000
 49
-0.000110
  0
LTYPE
  2
DOTDOT
 70
    64
  3
 . .  . .  . .  . .  . .  . . 
 72
    65
 73
     5
 40
0.000242
 49
-0.000110
 49
0.000000
 49
-0.000110
 49
0.000000
 49
-0.000110
  0
ENDTAB
  0
TABLE
  2
STYLE
 70
     2
  0
STYLE
 70
     0
  2
SN0
 40
0.000000
 41
0.000440
 50
0.000000
 71
     0
 42
0.000000
  3
ROMAND
  0
STYLE
 70
    68
  2
SV0
 40
0.000000
 41
0.000440
 50
0.000000
 71
     0
 42
0.000000
  3
ROMAND
  0
ENDTAB
  0
TABLE
  2
LAYER
 70
     3
  0
LAYER
  2
FOREGROUND
 70
    64
 62
     7
  6
CONTINUOUS
  0
LAYER
  2
BACKGROUND
 70
    65
 62
    -7
  6
CONTINUOUS
  0
LAYER
  2
0
 70
    64
 62
     7
  6
CONTINUOUS
  0
ENDTAB
  0
ENDSEC
  0
SECTION
  2
ENTITIES
  0
POLYLINE
  8
FOREGROUND
  6
CONTINUOUS
 66
     1
 40
0.000000
 41
0.000000
  0
VERTEX
  8
FOREGROUND
  6
CONTINUOUS
 10
0.000000
 20
4.795560
  0
VERTEX
  8
FOREGROUND
  6
CONTINUOUS
 10
8.499920
 20
4.795560
  0
VERTEX
  8
FOREGROUND
  6
CONTINUOUS
 10
8.499920
 20
-6.204440
  0
VERTEX
  8
FOREGROUND
  6
CONTINUOUS
 10
0.000000
 20
-6.204440
  0
VERTEX
  8
FOREGROUND
  6
CONTINUOUS
 10
0.000000
 20
4.795560
  0
SEQEND
  8
0
  0
POLYLINE
  8
FOREGROUND
  6
CONTINUOUS
 66
     1
 40
0.000000
 41
0.000000
  0
VERTEX
  8
FOREGROUND
  6
CONTINUOUS
 10
0.000000
 20
4.795560
  0
VERTEX
  8
FOREGROUND
  6
CONTINUOUS
 10
8.499920
 20
4.795560
  0
VERTEX
  8
FOREGROUND
  6
CONTINUOUS
 10
8.499920
 20
-6.204440
  0
VERTEX
  8
FOREGROUND
  6
CONTINUOUS
 10
0.000000
 20
-6.204440
  0
VERTEX
  8
FOREGROUND
  6
CONTINUOUS
 10
0.000000
 20
4.795560
  0
SEQEND
  8
0
  0
POLYLINE
  8
0
  6
CONTINUOUS
 66
     1
 40
0.014080
 41
0.014080
  0
VERTEX
  8
0
  6
CONTINUOUS
 10
6.842880
 20
3.239280
  0
VERTEX
  8
0
  6
CONTINUOUS
 10
3.450480
 20
3.238400
  0
VERTEX
  8
0
  6
CONTINUOUS
 10
3.450480
 20
3.449160
  0
VERTEX
  8
0
  6
CONTINUOUS
 10
3.453120
 20
3.453120
  0
VERTEX
  8
0
  6
CONTINUOUS
 10
3.695560
 20
3.494480
  0
VERTEX
  8
0
  6
CONTINUOUS
 10
3.706560
 20
3.510760
  0
VERTEX
  8
0
  6
CONTINUOUS
 10
3.713600
 20
3.533640
  0
VERTEX
  8
0
  6
CONTINUOUS
 10
3.717560
 20
3.560920
  0
VERTEX
  8
0
  6
CONTINUOUS
 10
3.718000
 20
3.590840
  0
VERTEX
  8
0
  6
CONTINUOUS
 10
3.714920
 20
3.621640
  0
VERTEX
  8
0
  6
CONTINUOUS
 10
3.708760
 20
3.650680
  0
VERTEX
  8
0
  6
CONTINUOUS
 10
3.699080
 20
3.676640
  0
VERTEX
  8
0
  6
CONTINUOUS
 10
3.686320
 20
3.697320
  0
VERTEX
  8
0
  6
CONTINUOUS
 10
3.450480
 20
3.717120
  0
VERTEX
  8
0
  6
CONTINUOUS
 10
3.450480
 20
3.966600
  0
VERTEX
  8
0
  6
CONTINUOUS
 10
3.449600
 20
3.967040
  0
VERTEX
  8
0
  6
CONTINUOUS
 10
6.530920
 20
3.967040
  0
VERTEX
  8
0
  6
CONTINUOUS
 10
6.578000
 20
3.867600
  0
VERTEX
  8
0
  6
CONTINUOUS
 10
6.592080
 20
3.846040
  0
VERTEX
  8
0
  6
CONTINUOUS
 10
6.607040
 20
3.835480
  0
VERTEX
  8
0
  6
CONTINUOUS
 10
6.618920
 20
3.833720
  0
VERTEX
  8
0
  6
CONTINUOUS
 10
6.625520
 20
3.834160
  0
VERTEX
  8
0
  6
CONTINUOUS
 10
6.631680
 20
3.865400
  0
VERTEX
  8
0
  6
CONTINUOUS
 10
6.645760
 20
3.904560
  0
VERTEX
  8
0
  6
CONTINUOUS
 10
6.663800
 20
3.933600
  0
VERTEX
  8
0
  6
CONTINUOUS
 10
6.684920
 20
3.953400
  0
VERTEX
  8
0
  6
CONTINUOUS
 10
6.699880
 20
3.960880
  0
VERTEX
  8
0
  6
CONTINUOUS
 10
6.707360
 20
3.963520
  0
VERTEX
  8
0
  6
CONTINUOUS
 10
6.722760
 20
3.964400
  0
VERTEX
  8
0
  6
CONTINUOUS
 10
6.737720
 20
3.961760
  0
VERTEX
  8
0
  6
CONTINUOUS
 10
6.751800
 20
3.954280
  0
VERTEX
  8
0
  6
CONTINUOUS
 10
6.765000
 20
3.942400
  0
VERTEX
  8
0
  6
CONTINUOUS
 10
6.776440
 20
3.926560
  0
VERTEX
  8
0
  6
CONTINUOUS
 10
6.786560
 20
3.906320
  0
VERTEX
  8
0
  6
CONTINUOUS
 10
6.793600
 20
3.881680
  0
VERTEX
  8
0
  6
CONTINUOUS
 10
6.798440
 20
3.852640
  0
VERTEX
  8
0
  6
CONTINUOUS
 10
6.800200
 20
3.819200
  0
VERTEX
  8
0
  6
CONTINUOUS
 10
6.871040
 20
3.819200
  0
VERTEX
  8
0
  6
CONTINUOUS
 10
6.871040
 20
3.718000
  0
VERTEX
  8
0
  6
CONTINUOUS
 10
6.872360
 20
3.716680
  0
VERTEX
  8
0
  6
CONTINUOUS
 10
7.106000
 20
3.696440
  0
VERTEX
  8
0
  6
CONTINUOUS
 10
7.113040
 20
3.686760
  0
VERTEX
  8
0
  6
CONTINUOUS
 10
7.124040
 20
3.663440
  0
VERTEX
  8
0
  6
CONTINUOUS
 10
7.131960
 20
3.635280
  0
VERTEX
  8
0
  6
CONTINUOUS
 10
7.136800
 20
3.605360
  0
VERTEX
  8
0
  6
CONTINUOUS
 10
7.137680
 20
3.575000
  0
VERTEX
  8
0
  6
CONTINUOUS
 10
7.135920
 20
3.546400
  0
VERTEX
  8
0
  6
CONTINUOUS
 10
7.130200
 20
3.520880
  0
VERTEX
  8
0
  6
CONTINUOUS
 10
7.126240
 20
3.510320
  0
VERTEX
  8
0
  6
CONTINUOUS
 10
7.115240
 20
3.494040
  0
VERTEX
  8
0
  6
CONTINUOUS
 10
6.870600
 20
3.449600
  0
VERTEX
  8
0
  6
CONTINUOUS
 10
6.872360
 20
3.452680
  0
VERTEX
  8
0
  6
CONTINUOUS
 10
6.870600
 20
3.449600
  0
VERTEX
  8
0
  6
CONTINUOUS
 10
6.845960
 20
3.243240
  0
VERTEX
  8
0
  6
CONTINUOUS
 10
6.842880
 20
3.239280
  0
SEQEND
  8
0
  0
SOLID
  8
0
 62
    15
 10
6.570080
 20
1.999800
 11
6.570080
 21
2.768040
 12
6.584600
 22
2.009480
 13
6.584600
 23
2.778160
  0
POLYLINE
  8
0
  6
CONTINUOUS
 66
     1
 40
0.000000
 41
0.000000
  0
VERTEX
  8
0
  6
CONTINUOUS
 10
6.570080
 20
1.999800
  0
VERTEX
  8
0
  6
CONTINUOUS
 10
6.570080
 20
2.768040
  0
VERTEX
  8
0
  6
CONTINUOUS
 10
6.584600
 20
2.778160
  0
VERTEX
  8
0
  6
CONTINUOUS
 10
6.584600
 20
2.009480
  0
VERTEX
  8
0
  6
CONTINUOUS
 10
6.570080
 20
1.999800
  0
SEQEND
  8
0
  0
SOLID
  8
0
 62
    15
 10
3.345320
 20
1.504800
 11
3.345320
 21
2.273480
 12
3.585560
 22
1.546160
 13
3.585560
 23
2.314840
  0
POLYLINE
  8
0
  6
CONTINUOUS
 66
     1
 40
0.000000
 41
0.000000
  0
VERTEX
  8
0
  6
CONTINUOUS
 10
3.345320
 20
1.504800
  0
VERTEX
  8
0
  6
CONTINUOUS
 10
3.345320
 20
2.273480
  0
VERTEX
  8
0
  6
CONTINUOUS
 10
3.585560
 20
2.314840
  0
VERTEX
  8
0
  6
CONTINUOUS
 10
3.585560
 20
1.546160
  0
VERTEX
  8
0
  6
CONTINUOUS
 10
3.345320
 20
1.504800
  0
SEQEND
  8
0
  0
SOLID
  8
0
 62
    15
 10
3.585560
 20
1.546160
 11
3.585560
 21
2.314840
 12
3.588200
 22
1.546160
 13
3.588200
 23
2.314840
  0
POLYLINE
  8
0
  6
CONTINUOUS
 66
     1
 40
0.000000
 41
0.000000
  0
VERTEX
  8
0
  6
CONTINUOUS
 10
3.585560
 20
1.546160
  0
VERTEX
  8
0
  6
CONTINUOUS
 10
3.585560
 20
2.314840
  0
VERTEX
  8
0
  6
CONTINUOUS
 10
3.588200
 20
2.314840
  0
VERTEX
  8
0
  6
CONTINUOUS
 10
3.588200
 20
1.546160
  0
VERTEX
  8
0
  6
CONTINUOUS
 10
3.585560
 20
1.546160
  0
SEQEND
  8
0
  0
SOLID
  8
0
 62
    15
 10
3.588200
 20
1.546160
 11
3.588200
 21
2.314840
 12
3.598760
 22
1.562440
 13
3.598760
 23
2.331120
  0
POLYLINE
  8
0
  6
CONTINUOUS
 66
     1
 40
0.000000
 41
0.000000
  0
VERTEX
  8
0
  6
CONTINUOUS
 10
3.588200
 20
1.546160
  0
VERTEX
  8
0
  6
CONTINUOUS
 10
3.588200
 20
2.314840
  0
VERTEX
  8
0
  6
CONTINUOUS
 10
3.598760
 20
2.331120
  0
VERTEX
  8
0
  6
CONTINUOUS
 10
3.598760
 20
1.562440
  0
VERTEX
  8
0
  6
CONTINUOUS
 10
3.588200
 20
1.546160
  0
SEQEND
  8
0
  0
SOLID
  8
0
 62
    15
 10
3.598760
 20
1.562440
 11
3.598760
 21
2.331120
 12
3.606240
 22
1.585320
 13
3.606240
 23
2.354000
  0
POLYLINE
  8
0
  6
CONTINUOUS
 66
     1
 40
0.000000
 41
0.000000
  0
VERTEX
  8
0
  6
CONTINUOUS
 10
3.598760
 20
1.562440
  0
VERTEX
  8
0
  6
CONTINUOUS
 10
3.598760
 20
2.331120
  0
VERTEX
  8
0
  6
CONTINUOUS
 10
3.606240
 20
2.354000
  0
VERTEX
  8
0
  6
CONTINUOUS
 10
3.606240
 20
1.585320
  0
VERTEX
  8
0
  6
CONTINUOUS
 10
3.598760
 20
1.562440
  0
SEQEND
  8
0
  0
SOLID
  8
0
 62
    15
 10
3.606240
 20
1.585320
 11
3.606240
 21
2.354000
 12
3.609760
 22
1.612600
 13
3.609760
 23
2.381280
  0
POLYLINE
  8
0
  6
CONTINUOUS
 66
     1
 40
0.000000
 41
0.000000
  0
VERTEX
  8
0
  6
CONTINUOUS
 10
3.606240
 20
1.585320
  0
VERTEX
  8
0
  6
CONTINUOUS
 10
3.606240
 20
2.354000
  0
VERTEX
  8
0
  6
CONTINUOUS
 10
3.609760
 20
2.381280
  0
VERTEX
  8
0
  6
CONTINUOUS
 10
3.609760
 20
1.612600
  0
VERTEX
  8
0
  6
CONTINUOUS
 10
3.606240
 20
1.585320
  0
SEQEND
  8
0
  0
SOLID
  8
0
 62
    15
 10
3.609760
 20
1.612600
 11
3.609760
 21
2.381280
 12
3.610200
 22
1.642520
 13
3.610640
 23
2.411200
  0
POLYLINE
  8
0
  6
CONTINUOUS
 66
     1
 40
0.000000
 41
0.000000
  0
VERTEX
  8
0
  6
CONTINUOUS
 10
3.609760
 20
1.612600
  0
VERTEX
  8
0
  6
CONTINUOUS
 10
3.609760
 20
2.381280
  0
VERTEX
  8
0
  6
CONTINUOUS
 10
3.610640
 20
2.411200
  0
VERTEX
  8
0
  6
CONTINUOUS
 10
3.610200
 20
1.642520
  0
VERTEX
  8
0
  6
CONTINUOUS
 10
3.609760
 20
1.612600
  0
SEQEND
  8
0
  0
SOLID
  8
0
 62
    15
 10
3.342680
 20
1.500840
 11
3.342680
 21
2.269520
 12
3.345320
 22
1.504800
 13
3.345320
 23
2.273480
  0
POLYLINE
  8
0
  6
CONTINUOUS
 66
     1
 40
0.000000
 41
0.000000
  0
VERTEX
  8
0
  6
CONTINUOUS
 10
3.342680
 20
1.500840
  0
VERTEX
  8
0
  6
CONTINUOUS
 10
3.342680
 20
2.269520
  0
VERTEX
  8
0
  6
CONTINUOUS
 10
3.345320
 20
2.273480
  0
VERTEX
  8
0
  6
CONTINUOUS
 10
3.345320
 20
1.504800
  0
VERTEX
  8
0
  6
CONTINUOUS
 10
3.342680
 20
1.500840
  0
SEQEND
  8
0
  0
SOLID
  8
0
 62
    15
 10
6.423560
 20
2.018720
 11
6.423560
 21
2.787400
 12
6.440280
 22
1.982640
 13
6.440280
 23
2.751320
  0
POLYLINE
  8
0
  6
CONTINUOUS
 66
     1
 40
0.000000
 41
0.000000
  0
VERTEX
  8
0
  6
CONTINUOUS
 10
6.423560
 20
2.018720
  0
VERTEX
  8
0
  6
CONTINUOUS
 10
6.423560
 20
2.787400
  0
VERTEX
  8
0
  6
CONTINUOUS
 10
6.440280
 20
2.751320
  0
VERTEX
  8
0
  6
CONTINUOUS
 10
6.440280
 20
1.982640
  0
VERTEX
  8
0
  6
CONTINUOUS
 10
6.423560
 20
2.018720
  0
SEQEND
  8
0
  0
SOLID
  8
0
 62
    15
 10
6.440280
 20
1.982640
 11
6.440280
 21
2.751320
 12
6.453920
 22
1.952720
 13
6.453920
 23
2.721400
  0
POLYLINE
  8
0
  6
CONTINUOUS
 66
     1
 40
0.000000
 41
0.000000
  0
VERTEX
  8
0
  6
CONTINUOUS
 10
6.440280
 20
1.982640
  0
VERTEX
  8
0
  6
CONTINUOUS
 10
6.440280
 20
2.751320
  0
VERTEX
  8
0
  6
CONTINUOUS
 10
6.453920
 20
2.721400
  0
VERTEX
  8
0
  6
CONTINUOUS
 10
6.453920
 20
1.952720
  0
VERTEX
  8
0
  6
CONTINUOUS
 10
6.440280
 20
1.982640
  0
SEQEND
  8
0
  0
SOLID
  8
0
 62
    15
 10
6.453920
 20
1.952720
 11
6.453920
 21
2.721400
 12
6.465360
 22
1.928960
 13
6.465360
 23
2.697640
  0
POLYLINE
  8
0
  6
CONTINUOUS
 66
     1
 40
0.000000
 41
0.000000
  0
VERTEX
  8
0
  6
CONTINUOUS
 10
6.453920
 20
1.952720
  0
VERTEX
  8
0
  6
CONTINUOUS
 10
6.453920
 20
2.721400
  0
VERTEX
  8
0
  6
CONTINUOUS
 10
6.465360
 20
2.697640
  0
VERTEX
  8
0
  6
CONTINUOUS
 10
6.465360
 20
1.928960
  0
VERTEX
  8
0
  6
CONTINUOUS
 10
6.453920
 20
1.952720
  0
SEQEND
  8
0
  0
SOLID
  8
0
 62
    15
 10
6.465360
 20
1.928960
 11
6.465360
 21
2.697640
 12
6.475040
 22
1.910920
 13
6.475040
 23
2.679160
  0
POLYLINE
  8
0
  6
CONTINUOUS
 66
     1
 40
0.000000
 41
0.000000
  0
VERTEX
  8
0
  6
CONTINUOUS
 10
6.465360
 20
1.928960
  0
VERTEX
  8
0
  6
CONTINUOUS
 10
6.465360
 20
2.697640
  0
VERTEX
  8
0
  6
CONTINUOUS
 10
6.475040
 20
2.679160
  0
VERTEX
  8
0
  6
CONTINUOUS
 10
6.475040
 20
1.910920
  0
VERTEX
  8
0
  6
CONTINUOUS
 10
6.465360
 20
1.928960
  0
SEQEND
  8
0
  0
SOLID
  8
0
 62
    15
 10
6.475040
 20
1.910920
 11
6.475040
 21
2.679160
 12
6.484280
 22
1.897720
 13
6.484720
 23
2.666400
  0
POLYLINE
  8
0
  6
CONTINUOUS
 66
     1
 40
0.000000
 41
0.000000
  0
VERTEX
  8
0
  6
CONTINUOUS
 10
6.475040
 20
1.910920
  0
VERTEX
  8
0
  6
CONTINUOUS
 10
6.475040
 20
2.679160
  0
VERTEX
  8
0
  6
CONTINUOUS
 10
6.484720
 20
2.666400
  0
VERTEX
  8
0
  6
CONTINUOUS
 10
6.484280
 20
1.897720
  0
VERTEX
  8
0
  6
CONTINUOUS
 10
6.475040
 20
1.910920
  0
SEQEND
  8
0
  0
SOLID
  8
0
 62
    15
 10
6.484280
 20
1.897720
 11
6.484720
 21
2.666400
 12
6.493960
 22
1.889360
 13
6.493960
 23
2.658040
  0
POLYLINE
  8
0
  6
CONTINUOUS
 66
     1
 40
0.000000
 41
0.000000
  0
VERTEX
  8
0
  6
CONTINUOUS
 10
6.484280
 20
1.897720
  0
VERTEX
  8
0
  6
CONTINUOUS
 10
6.484720
 20
2.666400
  0
VERTEX
  8
0
  6
CONTINUOUS
 10
6.493960
 20
2.658040
  0
VERTEX
  8
0
  6
CONTINUOUS
 10
6.493960
 20
1.889360
  0
VERTEX
  8
0
  6
CONTINUOUS
 10
6.484280
 20
1.897720
  0
SEQEND
  8
0
  0
SOLID
  8
0
 62
    15
 10
6.493960
 20
1.889360
 11
6.493960
 21
2.658040
 12
6.504960
 22
1.885840
 13
6.504960
 23
2.654080
  0
POLYLINE
  8
0
  6
CONTINUOUS
 66
     1
 40
0.000000
 41
0.000000
  0
VERTEX
  8
0
  6
CONTINUOUS
 10
6.493960
 20
1.889360
  0
VERTEX
  8
0
  6
CONTINUOUS
 10
6.493960
 20
2.658040
  0
VERTEX
  8
0
  6
CONTINUOUS
 10
6.504960
 20
2.654080
  0
VERTEX
  8
0
  6
CONTINUOUS
 10
6.504960
 20
1.885840
  0
VERTEX
  8
0
  6
CONTINUOUS
 10
6.493960
 20
1.889360
  0
SEQEND
  8
0
  0
SOLID
  8
0
 62
    15
 10
6.504960
 20
1.885840
 11
6.504960
 21
2.654080
 12
6.517720
 22
1.885840
 13
6.517720
 23
2.654080
  0
POLYLINE
  8
0
  6
CONTINUOUS
 66
     1
 40
0.000000
 41
0.000000
  0
VERTEX
  8
0
  6
CONTINUOUS
 10
6.504960
 20
1.885840
  0
VERTEX
  8
0
  6
CONTINUOUS
 10
6.504960
 20
2.654080
  0
VERTEX
  8
0
  6
CONTINUOUS
 10
6.517720
 20
2.654080
  0
VERTEX
  8
0
  6
CONTINUOUS
 10
6.517720
 20
1.885840
  0
VERTEX
  8
0
  6
CONTINUOUS
 10
6.504960
 20
1.885840
  0
SEQEND
  8
0
  0
SOLID
  8
0
 62
    15
 10
6.517720
 20
1.885840
 11
6.517720
 21
2.654080
 12
6.524320
 22
1.917080
 13
6.524320
 23
2.685760
  0
POLYLINE
  8
0
  6
CONTINUOUS
 66
     1
 40
0.000000
 41
0.000000
  0
VERTEX
  8
0
  6
CONTINUOUS
 10
6.517720
 20
1.885840
  0
VERTEX
  8
0
  6
CONTINUOUS
 10
6.517720
 20
2.654080
  0
VERTEX
  8
0
  6
CONTINUOUS
 10
6.524320
 20
2.685760
  0
VERTEX
  8
0
  6
CONTINUOUS
 10
6.524320
 20
1.917080
  0
VERTEX
  8
0
  6
CONTINUOUS
 10
6.517720
 20
1.885840
  0
SEQEND
  8
0
  0
SOLID
  8
0
 62
    15
 10
6.524320
 20
1.917080
 11
6.524320
 21
2.685760
 12
6.533120
 22
1.944360
 13
6.533120
 23
2.712600
  0
POLYLINE
  8
0
  6
CONTINUOUS
 66
     1
 40
0.000000
 41
0.000000
  0
VERTEX
  8
0
  6
CONTINUOUS
 10
6.524320
 20
1.917080
  0
VERTEX
  8
0
  6
CONTINUOUS
 10
6.524320
 20
2.685760
  0
VERTEX
  8
0
  6
CONTINUOUS
 10
6.533120
 20
2.712600
  0
VERTEX
  8
0
  6
CONTINUOUS
 10
6.533120
 20
1.944360
  0
VERTEX
  8
0
  6
CONTINUOUS
 10
6.524320
 20
1.917080
  0
SEQEND
  8
0
  0
SOLID
  8
0
 62
    15
 10
6.533120
 20
1.944360
 11
6.533120
 21
2.712600
 12
6.543680
 22
1.966800
 13
6.543680
 23
2.735480
  0
POLYLINE
  8
0
  6
CONTINUOUS
 66
     1
 40
0.000000
 41
0.000000
  0
VERTEX
  8
0
  6
CONTINUOUS
 10
6.533120
 20
1.944360
  0
VERTEX
  8
0
  6
CONTINUOUS
 10
6.533120
 20
2.712600
  0
VERTEX
  8
0
  6
CONTINUOUS
 10
6.543680
 20
2.735480
  0
VERTEX
  8
0
  6
CONTINUOUS
 10
6.543680
 20
1.966800
  0
VERTEX
  8
0
  6
CONTINUOUS
 10
6.533120
 20
1.944360
  0
SEQEND
  8
0
  0
SOLID
  8
0
 62
    15
 10
6.543680
 20
1.966800
 11
6.543680
 21
2.735480
 12
6.556440
 22
1.985280
 13
6.556440
 23
2.753960
  0
POLYLINE
  8
0
  6
CONTINUOUS
 66
     1
 40
0.000000
 41
0.000000
  0
VERTEX
  8
0
  6
CONTINUOUS
 10
6.543680
 20
1.966800
  0
VERTEX
  8
0
  6
CONTINUOUS
 10
6.543680
 20
2.735480
  0
VERTEX
  8
0
  6
CONTINUOUS
 10
6.556440
 20
2.753960
  0
VERTEX
  8
0
  6
CONTINUOUS
 10
6.556440
 20
1.985280
  0
VERTEX
  8
0
  6
CONTINUOUS
 10
6.543680
 20
1.966800
  0
SEQEND
  8
0
  0
SOLID
  8
0
 62
    15
 10
6.556440
 20
1.985280
 11
6.556440
 21
2.753960
 12
6.570080
 22
1.999800
 13
6.570080
 23
2.768040
  0
POLYLINE
  8
0
  6
CONTINUOUS
 66
     1
 40
0.000000
 41
0.000000
  0
VERTEX
  8
0
  6
CONTINUOUS
 10
6.556440
 20
1.985280
  0
VERTEX
  8
0
  6
CONTINUOUS
 10
6.556440
 20
2.753960
  0
VERTEX
  8
0
  6
CONTINUOUS
 10
6.570080
 20
2.768040
  0
VERTEX
  8
0
  6
CONTINUOUS
 10
6.570080
 20
1.999800
  0
VERTEX
  8
0
  6
CONTINUOUS
 10
6.556440
 20
1.985280
  0
SEQEND
  8
0
  0
SOLID
  8
0
 62
    15
 10
3.341800
 20
2.018720
 11
3.341800
 21
2.787400
 12
6.423560
 22
2.018720
 13
6.423560
 23
2.787400
  0
POLYLINE
  8
0
  6
CONTINUOUS
 66
     1
 40
0.000000
 41
0.000000
  0
VERTEX
  8
0
  6
CONTINUOUS
 10
3.341800
 20
2.018720
  0
VERTEX
  8
0
  6
CONTINUOUS
 10
3.341800
 20
2.787400
  0
VERTEX
  8
0
  6
CONTINUOUS
 10
6.423560
 20
2.787400
  0
VERTEX
  8
0
  6
CONTINUOUS
 10
6.423560
 20
2.018720
  0
VERTEX
  8
0
  6
CONTINUOUS
 10
3.341800
 20
2.018720
  0
SEQEND
  8
0
  0
SOLID
  8
0
 62
    15
 10
6.584600
 20
2.009480
 11
6.584600
 21
2.778160
 12
6.600000
 22
2.015200
 13
6.600000
 23
2.783880
  0
POLYLINE
  8
0
  6
CONTINUOUS
 66
     1
 40
0.000000
 41
0.000000
  0
VERTEX
  8
0
  6
CONTINUOUS
 10
6.584600
 20
2.009480
  0
VERTEX
  8
0
  6
CONTINUOUS
 10
6.584600
 20
2.778160
  0
VERTEX
  8
0
  6
CONTINUOUS
 10
6.600000
 20
2.783880
  0
VERTEX
  8
0
  6
CONTINUOUS
 10
6.600000
 20
2.015200
  0
VERTEX
  8
0
  6
CONTINUOUS
 10
6.584600
 20
2.009480
  0
SEQEND
  8
0
  0
SOLID
  8
0
 62
    15
 10
6.600000
 20
2.015200
 11
6.600000
 21
2.783880
 12
6.615400
 22
2.016520
 13
6.615400
 23
2.785200
  0
POLYLINE
  8
0
  6
CONTINUOUS
 66
     1
 40
0.000000
 41
0.000000
  0
VERTEX
  8
0
  6
CONTINUOUS
 10
6.600000
 20
2.015200
  0
VERTEX
  8
0
  6
CONTINUOUS
 10
6.600000
 20
2.783880
  0
VERTEX
  8
0
  6
CONTINUOUS
 10
6.615400
 20
2.785200
  0
VERTEX
  8
0
  6
CONTINUOUS
 10
6.615400
 20
2.016520
  0
VERTEX
  8
0
  6
CONTINUOUS
 10
6.600000
 20
2.015200
  0
SEQEND
  8
0
  0
SOLID
  8
0
 62
    15
 10
6.615400
 20
2.016520
 11
6.615400
 21
2.785200
 12
6.629920
 22
2.013440
 13
6.630360
 23
2.782120
  0
POLYLINE
  8
0
  6
CONTINUOUS
 66
     1
 40
0.000000
 41
0.000000
  0
VERTEX
  8
0
  6
CONTINUOUS
 10
6.615400
 20
2.016520
  0
VERTEX
  8
0
  6
CONTINUOUS
 10
6.615400
 20
2.785200
  0
VERTEX
  8
0
  6
CONTINUOUS
 10
6.630360
 20
2.782120
  0
VERTEX
  8
0
  6
CONTINUOUS
 10
6.629920
 20
2.013440
  0
VERTEX
  8
0
  6
CONTINUOUS
 10
6.615400
 20
2.016520
  0
SEQEND
  8
0
  0
SOLID
  8
0
 62
    15
 10
6.629920
 20
2.013440
 11
6.630360
 21
2.782120
 12
6.644440
 22
2.005960
 13
6.644440
 23
2.774640
  0
POLYLINE
  8
0
  6
CONTINUOUS
 66
     1
 40
0.000000
 41
0.000000
  0
VERTEX
  8
0
  6
CONTINUOUS
 10
6.629920
 20
2.013440
  0
VERTEX
  8
0
  6
CONTINUOUS
 10
6.630360
 20
2.782120
  0
VERTEX
  8
0
  6
CONTINUOUS
 10
6.644440
 20
2.774640
  0
VERTEX
  8
0
  6
CONTINUOUS
 10
6.644440
 20
2.005960
  0
VERTEX
  8
0
  6
CONTINUOUS
 10
6.629920
 20
2.013440
  0
SEQEND
  8
0
  0
SOLID
  8
0
 62
    15
 10
6.644440
 20
2.005960
 11
6.644440
 21
2.774640
 12
6.657640
 22
1.994520
 13
6.657640
 23
2.763200
  0
POLYLINE
  8
0
  6
CONTINUOUS
 66
     1
 40
0.000000
 41
0.000000
  0
VERTEX
  8
0
  6
CONTINUOUS
 10
6.644440
 20
2.005960
  0
VERTEX
  8
0
  6
CONTINUOUS
 10
6.644440
 20
2.774640
  0
VERTEX
  8
0
  6
CONTINUOUS
 10
6.657640
 20
2.763200
  0
VERTEX
  8
0
  6
CONTINUOUS
 10
6.657640
 20
1.994520
  0
VERTEX
  8
0
  6
CONTINUOUS
 10
6.644440
 20
2.005960
  0
SEQEND
  8
0
  0
SOLID
  8
0
 62
    15
 10
6.657640
 20
1.994520
 11
6.657640
 21
2.763200
 12
6.669080
 22
1.978240
 13
6.669080
 23
2.746920
  0
POLYLINE
  8
0
  6
CONTINUOUS
 66
     1
 40
0.000000
 41
0.000000
  0
VERTEX
  8
0
  6
CONTINUOUS
 10
6.657640
 20
1.994520
  0
VERTEX
  8
0
  6
CONTINUOUS
 10
6.657640
 20
2.763200
  0
VERTEX
  8
0
  6
CONTINUOUS
 10
6.669080
 20
2.746920
  0
VERTEX
  8
0
  6
CONTINUOUS
 10
6.669080
 20
1.978240
  0
VERTEX
  8
0
  6
CONTINUOUS
 10
6.657640
 20
1.994520
  0
SEQEND
  8
0
  0
SOLID
  8
0
 62
    15
 10
6.669080
 20
1.978240
 11
6.669080
 21
2.746920
 12
6.678760
 22
1.958000
 13
6.678760
 23
2.726680
  0
POLYLINE
  8
0
  6
CONTINUOUS
 66
     1
 40
0.000000
 41
0.000000
  0
VERTEX
  8
0
  6
CONTINUOUS
 10
6.669080
 20
1.978240
  0
VERTEX
  8
0
  6
CONTINUOUS
 10
6.669080
 20
2.746920
  0
VERTEX
  8
0
  6
CONTINUOUS
 10
6.678760
 20
2.726680
  0
VERTEX
  8
0
  6
CONTINUOUS
 10
6.678760
 20
1.958000
  0
VERTEX
  8
0
  6
CONTINUOUS
 10
6.669080
 20
1.978240
  0
SEQEND
  8
0
  0
SOLID
  8
0
 62
    15
 10
6.686240
 20
1.933360
 11
6.686240
 21
2.702040
 12
6.691080
 22
1.904320
 13
6.691080
 23
2.673000
  0
POLYLINE
  8
0
  6
CONTINUOUS
 66
     1
 40
0.000000
 41
0.000000
  0
VERTEX
  8
0
  6
CONTINUOUS
 10
6.686240
 20
1.933360
  0
VERTEX
  8
0
  6
CONTINUOUS
 10
6.686240
 20
2.702040
  0
VERTEX
  8
0
  6
CONTINUOUS
 10
6.691080
 20
2.673000
  0
VERTEX
  8
0
  6
CONTINUOUS
 10
6.691080
 20
1.904320
  0
VERTEX
  8
0
  6
CONTINUOUS
 10
6.686240
 20
1.933360
  0
SEQEND
  8
0
  0
SOLID
  8
0
 62
    15
 10
6.678760
 20
1.958000
 11
6.678760
 21
2.726680
 12
6.686240
 22
1.933360
 13
6.686240
 23
2.702040
  0
POLYLINE
  8
0
  6
CONTINUOUS
 66
     1
 40
0.000000
 41
0.000000
  0
VERTEX
  8
0
  6
CONTINUOUS
 10
6.678760
 20
1.958000
  0
VERTEX
  8
0
  6
CONTINUOUS
 10
6.678760
 20
2.726680
  0
VERTEX
  8
0
  6
CONTINUOUS
 10
6.686240
 20
2.702040
  0
VERTEX
  8
0
  6
CONTINUOUS
 10
6.686240
 20
1.933360
  0
VERTEX
  8
0
  6
CONTINUOUS
 10
6.678760
 20
1.958000
  0
SEQEND
  8
0
  0
SOLID
  8
0
 62
    15
 10
6.763240
 20
1.501280
 11
6.763240
 21
2.269960
 12
6.765000
 22
1.504360
 13
6.765000
 23
2.273040
  0
POLYLINE
  8
0
  6
CONTINUOUS
 66
     1
 40
0.000000
 41
0.000000
  0
VERTEX
  8
0
  6
CONTINUOUS
 10
6.763240
 20
1.501280
  0
VERTEX
  8
0
  6
CONTINUOUS
 10
6.763240
 20
2.269960
  0
VERTEX
  8
0
  6
CONTINUOUS
 10
6.765000
 20
2.273040
  0
VERTEX
  8
0
  6
CONTINUOUS
 10
6.765000
 20
1.504360
  0
VERTEX
  8
0
  6
CONTINUOUS
 10
6.763240
 20
1.501280
  0
SEQEND
  8
0
  0
SOLID
  8
0
 62
    15
 10
6.763680
 20
1.769680
 11
6.763680
 21
2.538360
 12
6.765000
 22
1.768360
 13
6.765000
 23
2.536600
  0
POLYLINE
  8
0
  6
CONTINUOUS
 66
     1
 40
0.000000
 41
0.000000
  0
VERTEX
  8
0
  6
CONTINUOUS
 10
6.763680
 20
1.769680
  0
VERTEX
  8
0
  6
CONTINUOUS
 10
6.763680
 20
2.538360
  0
VERTEX
  8
0
  6
CONTINUOUS
 10
6.765000
 20
2.536600
  0
VERTEX
  8
0
  6
CONTINUOUS
 10
6.765000
 20
1.768360
  0
VERTEX
  8
0
  6
CONTINUOUS
 10
6.763680
 20
1.769680
  0
SEQEND
  8
0
  0
SOLID
  8
0
 62
    15
 10
6.763680
 20
1.870880
 11
6.763680
 21
2.639120
 12
6.763680
 22
1.769680
 13
6.763680
 23
2.538360
  0
POLYLINE
  8
0
  6
CONTINUOUS
 66
     1
 40
0.000000
 41
0.000000
  0
VERTEX
  8
0
  6
CONTINUOUS
 10
6.763680
 20
1.870880
  0
VERTEX
  8
0
  6
CONTINUOUS
 10
6.763680
 20
2.639120
  0
VERTEX
  8
0
  6
CONTINUOUS
 10
6.763680
 20
2.538360
  0
VERTEX
  8
0
  6
CONTINUOUS
 10
6.763680
 20
1.769680
  0
VERTEX
  8
0
  6
CONTINUOUS
 10
6.763680
 20
1.870880
  0
SEQEND
  8
0
  0
SOLID
  8
0
 62
    15
 10
6.692840
 20
1.870880
 11
6.692840
 21
2.639120
 12
6.763680
 22
1.870880
 13
6.763680
 23
2.639120
  0
POLYLINE
  8
0
  6
CONTINUOUS
 66
     1
 40
0.000000
 41
0.000000
  0
VERTEX
  8
0
  6
CONTINUOUS
 10
6.692840
 20
1.870880
  0
VERTEX
  8
0
  6
CONTINUOUS
 10
6.692840
 20
2.639120
  0
VERTEX
  8
0
  6
CONTINUOUS
 10
6.763680
 20
2.639120
  0
VERTEX
  8
0
  6
CONTINUOUS
 10
6.763680
 20
1.870880
  0
VERTEX
  8
0
  6
CONTINUOUS
 10
6.692840
 20
1.870880
  0
SEQEND
  8
0
  0
SOLID
  8
0
 62
    15
 10
6.765000
 20
1.768360
 11
6.765000
 21
2.536600
 12
6.995560
 22
1.748120
 13
6.995560
 23
2.516800
  0
POLYLINE
  8
0
  6
CONTINUOUS
 66
     1
 40
0.000000
 41
0.000000
  0
VERTEX
  8
0
  6
CONTINUOUS
 10
6.765000
 20
1.768360
  0
VERTEX
  8
0
  6
CONTINUOUS
 10
6.765000
 20
2.536600
  0
VERTEX
  8
0
  6
CONTINUOUS
 10
6.995560
 20
2.516800
  0
VERTEX
  8
0
  6
CONTINUOUS
 10
6.995560
 20
1.748120
  0
VERTEX
  8
0
  6
CONTINUOUS
 10
6.765000
 20
1.768360
  0
SEQEND
  8
0
  0
SOLID
  8
0
 62
    15
 10
6.995560
 20
1.748120
 11
6.995560
 21
2.516800
 12
6.998200
 22
1.748120
 13
6.998200
 23
2.516800
  0
POLYLINE
  8
0
  6
CONTINUOUS
 66
     1
 40
0.000000
 41
0.000000
  0
VERTEX
  8
0
  6
CONTINUOUS
 10
6.995560
 20
1.748120
  0
VERTEX
  8
0
  6
CONTINUOUS
 10
6.995560
 20
2.516800
  0
VERTEX
  8
0
  6
CONTINUOUS
 10
6.998200
 20
2.516800
  0
VERTEX
  8
0
  6
CONTINUOUS
 10
6.998200
 20
1.748120
  0
VERTEX
  8
0
  6
CONTINUOUS
 10
6.995560
 20
1.748120
  0
SEQEND
  8
0
  0
SOLID
  8
0
 62
    15
 10
6.998200
 20
1.748120
 11
6.998200
 21
2.516800
 12
7.011400
 22
1.727440
 13
7.011400
 23
2.496120
  0
POLYLINE
  8
0
  6
CONTINUOUS
 66
     1
 40
0.000000
 41
0.000000
  0
VERTEX
  8
0
  6
CONTINUOUS
 10
6.998200
 20
1.748120
  0
VERTEX
  8
0
  6
CONTINUOUS
 10
6.998200
 20
2.516800
  0
VERTEX
  8
0
  6
CONTINUOUS
 10
7.011400
 20
2.496120
  0
VERTEX
  8
0
  6
CONTINUOUS
 10
7.011400
 20
1.727440
  0
VERTEX
  8
0
  6
CONTINUOUS
 10
6.998200
 20
1.748120
  0
SEQEND
  8
0
  0
SOLID
  8
0
 62
    15
 10
7.020640
 20
1.701480
 11
7.020640
 21
2.470160
 12
7.026800
 22
1.672440
 13
7.027240
 23
2.441120
  0
POLYLINE
  8
0
  6
CONTINUOUS
 66
     1
 40
0.000000
 41
0.000000
  0
VERTEX
  8
0
  6
CONTINUOUS
 10
7.020640
 20
1.701480
  0
VERTEX
  8
0
  6
CONTINUOUS
 10
7.020640
 20
2.470160
  0
VERTEX
  8
0
  6
CONTINUOUS
 10
7.027240
 20
2.441120
  0
VERTEX
  8
0
  6
CONTINUOUS
 10
7.026800
 20
1.672440
  0
VERTEX
  8
0
  6
CONTINUOUS
 10
7.020640
 20
1.701480
  0
SEQEND
  8
0
  0
SOLID
  8
0
 62
    15
 10
7.011400
 20
1.727440
 11
7.011400
 21
2.496120
 12
7.020640
 22
1.701480
 13
7.020640
 23
2.470160
  0
POLYLINE
  8
0
  6
CONTINUOUS
 66
     1
 40
0.000000
 41
0.000000
  0
VERTEX
  8
0
  6
CONTINUOUS
 10
7.011400
 20
1.727440
  0
VERTEX
  8
0
  6
CONTINUOUS
 10
7.011400
 20
2.496120
  0
VERTEX
  8
0
  6
CONTINUOUS
 10
7.020640
 20
2.470160
  0
VERTEX
  8
0
  6
CONTINUOUS
 10
7.020640
 20
1.701480
  0
VERTEX
  8
0
  6
CONTINUOUS
 10
7.011400
 20
1.727440
  0
SEQEND
  8
0
  0
SOLID
  8
0
 62
    15
 10
7.026800
 20
1.672440
 11
7.027240
 21
2.441120
 12
7.029880
 22
1.642080
 13
7.029880
 23
2.410320
  0
POLYLINE
  8
0
  6
CONTINUOUS
 66
     1
 40
0.000000
 41
0.000000
  0
VERTEX
  8
0
  6
CONTINUOUS
 10
7.026800
 20
1.672440
  0
VERTEX
  8
0
  6
CONTINUOUS
 10
7.027240
 20
2.441120
  0
VERTEX
  8
0
  6
CONTINUOUS
 10
7.029880
 20
2.410320
  0
VERTEX
  8
0
  6
CONTINUOUS
 10
7.029880
 20
1.642080
  0
VERTEX
  8
0
  6
CONTINUOUS
 10
7.026800
 20
1.672440
  0
SEQEND
  8
0
  0
SOLID
  8
0
 62
    15
 10
6.691080
 20
1.904320
 11
6.691080
 21
2.673000
 12
6.692840
 22
1.870880
 13
6.692840
 23
2.639120
  0
POLYLINE
  8
0
  6
CONTINUOUS
 66
     1
 40
0.000000
 41
0.000000
  0
VERTEX
  8
0
  6
CONTINUOUS
 10
6.691080
 20
1.904320
  0
VERTEX
  8
0
  6
CONTINUOUS
 10
6.691080
 20
2.673000
  0
VERTEX
  8
0
  6
CONTINUOUS
 10
6.692840
 20
2.639120
  0
VERTEX
  8
0
  6
CONTINUOUS
 10
6.692840
 20
1.870880
  0
VERTEX
  8
0
  6
CONTINUOUS
 10
6.691080
 20
1.904320
  0
SEQEND
  8
0
  0
POLYLINE
  8
0
  6
CONTINUOUS
 66
     1
 40
0.000000
 41
0.000000
  0
VERTEX
  8
0
  6
CONTINUOUS
 10
6.735520
 20
1.290960
  0
VERTEX
  8
0
  6
CONTINUOUS
 10
3.342680
 20
1.290080
  0
VERTEX
  8
0
  6
CONTINUOUS
 10
3.342680
 20
1.500840
  0
VERTEX
  8
0
  6
CONTINUOUS
 10
3.345320
 20
1.504800
  0
VERTEX
  8
0
  6
CONTINUOUS
 10
3.588200
 20
1.546160
  0
VERTEX
  8
0
  6
CONTINUOUS
 10
3.598760
 20
1.562440
  0
VERTEX
  8
0
  6
CONTINUOUS
 10
3.606240
 20
1.585320
  0
VERTEX
  8
0
  6
CONTINUOUS
 10
3.609760
 20
1.612600
  0
VERTEX
  8
0
  6
CONTINUOUS
 10
3.610200
 20
1.642520
  0
VERTEX
  8
0
  6
CONTINUOUS
 10
3.607560
 20
1.672880
  0
VERTEX
  8
0
  6
CONTINUOUS
 10
3.601400
 20
1.702360
  0
VERTEX
  8
0
  6
CONTINUOUS
 10
3.591720
 20
1.728320
  0
VERTEX
  8
0
  6
CONTINUOUS
 10
3.578960
 20
1.749000
  0
VERTEX
  8
0
  6
CONTINUOUS
 10
3.342680
 20
1.768800
  0
VERTEX
  8
0
  6
CONTINUOUS
 10
3.342680
 20
2.018280
  0
VERTEX
  8
0
  6
CONTINUOUS
 10
3.341800
 20
2.018720
  0
VERTEX
  8
0
  6
CONTINUOUS
 10
6.423560
 20
2.018720
  0
VERTEX
  8
0
  6
CONTINUOUS
 10
6.465360
 20
1.928960
  0
VERTEX
  8
0
  6
CONTINUOUS
 10
6.475040
 20
1.910920
  0
VERTEX
  8
0
  6
CONTINUOUS
 10
6.484280
 20
1.897720
  0
VERTEX
  8
0
  6
CONTINUOUS
 10
6.493960
 20
1.889360
  0
VERTEX
  8
0
  6
CONTINUOUS
 10
6.504960
 20
1.885840
  0
VERTEX
  8
0
  6
CONTINUOUS
 10
6.517720
 20
1.885840
  0
VERTEX
  8
0
  6
CONTINUOUS
 10
6.524320
 20
1.917080
  0
VERTEX
  8
0
  6
CONTINUOUS
 10
6.533120
 20
1.944360
  0
VERTEX
  8
0
  6
CONTINUOUS
 10
6.543680
 20
1.966800
  0
VERTEX
  8
0
  6
CONTINUOUS
 10
6.556440
 20
1.985280
  0
VERTEX
  8
0
  6
CONTINUOUS
 10
6.570080
 20
1.999800
  0
VERTEX
  8
0
  6
CONTINUOUS
 10
6.584600
 20
2.009480
  0
VERTEX
  8
0
  6
CONTINUOUS
 10
6.600000
 20
2.015200
  0
VERTEX
  8
0
  6
CONTINUOUS
 10
6.615400
 20
2.016520
  0
VERTEX
  8
0
  6
CONTINUOUS
 10
6.629920
 20
2.013440
  0
VERTEX
  8
0
  6
CONTINUOUS
 10
6.644440
 20
2.005960
  0
VERTEX
  8
0
  6
CONTINUOUS
 10
6.657640
 20
1.994520
  0
VERTEX
  8
0
  6
CONTINUOUS
 10
6.669080
 20
1.978240
  0
VERTEX
  8
0
  6
CONTINUOUS
 10
6.678760
 20
1.958000
  0
VERTEX
  8
0
  6
CONTINUOUS
 10
6.686240
 20
1.933360
  0
VERTEX
  8
0
  6
CONTINUOUS
 10
6.691080
 20
1.904320
  0
VERTEX
  8
0
  6
CONTINUOUS
 10
6.692840
 20
1.870880
  0
VERTEX
  8
0
  6
CONTINUOUS
 10
6.763680
 20
1.870880
  0
VERTEX
  8
0
  6
CONTINUOUS
 10
6.763680
 20
1.769680
  0
VERTEX
  8
0
  6
CONTINUOUS
 10
6.765000
 20
1.768360
  0
VERTEX
  8
0
  6
CONTINUOUS
 10
6.998200
 20
1.748120
  0
VERTEX
  8
0
  6
CONTINUOUS
 10
7.011400
 20
1.727440
  0
VERTEX
  8
0
  6
CONTINUOUS
 10
7.020640
 20
1.701480
  0
VERTEX
  8
0
  6
CONTINUOUS
 10
7.026800
 20
1.672440
  0
VERTEX
  8
0
  6
CONTINUOUS
 10
7.029880
 20
1.642080
  0
VERTEX
  8
0
  6
CONTINUOUS
 10
7.029440
 20
1.612160
  0
VERTEX
  8
0
  6
CONTINUOUS
 10
7.025480
 20
1.584880
  0
VERTEX
  8
0
  6
CONTINUOUS
 10
7.018440
 20
1.562000
  0
VERTEX
  8
0
  6
CONTINUOUS
 10
7.007880
 20
1.545720
  0
VERTEX
  8
0
  6
CONTINUOUS
 10
6.763240
 20
1.501280
  0
VERTEX
  8
0
  6
CONTINUOUS
 10
6.765000
 20
1.504360
  0
VERTEX
  8
0
  6
CONTINUOUS
 10
6.763240
 20
1.501280
  0
VERTEX
  8
0
  6
CONTINUOUS
 10
6.738600
 20
1.294920
  0
VERTEX
  8
0
  6
CONTINUOUS
 10
6.735520
 20
1.290960
  0
SEQEND
  8
0
  0
TEXT
  8
0
 10
4.891480
 20
1.055120
 40
0.138067
  1
BA  641
 41
1.000000
  7
SN0
 71
     0
 72
     5
 11
5.481571
 21
1.055120
  0
TEXT
  8
0
 10
4.735280
 20
0.863720
 40
0.138067
  1
3/4" x 3-3/4"
 41
1.000000
  7
SN0
 71
     0
 72
     5
 11
5.635535
 21
0.863720
  0
ENDSEC
  0
EOF
