  0
SECTION
  2
HEADER
  9
$ACADVER
  1
AC1006
  9
$EXTMIN
 10
0.627440
 20
0.711920
  9
$EXTMAX
 10
8.053760
 20
5.441920
  9
$LTSCALE
 40
0.044000
  9
$PDMODE
 70
    35
  9
$PDSIZE
 40
0.035200
  0
ENDSEC
  0
SECTION
  2
TABLES
  0
TABLE
  2
LTYPE
 70
     9
  0
LTYPE
  2
CONTINUOUS
 70
    64
  3
Solid line
 72
    65
 73
     0
 40
0.000000
  0
LTYPE
  2
DASHED
 70
    64
  3
__ __ __ __ __ __ __ __ __ __ __ __ __ __ __
 72
    65
 73
     2
 40
0.000330
 49
0.000220
 49
-0.000110
  0
LTYPE
  2
HIDDEN
 70
    64
  3
 _ _ _ _ _ _ _ _ _ _ _ _ _ _ _ _ _ _ _ _ _ _
 72
    65
 73
     2
 40
0.000165
 49
0.000110
 49
-0.000055
  0
LTYPE
  2
CENTER
 70
    64
  3
____ _ ____ _ ____ _ ____ _ ____ _ ____ _ ____
 72
    65
 73
     4
 40
0.000880
 49
0.000550
 49
-0.000110
 49
0.000110
 49
-0.000110
  0
LTYPE
  2
PHANTOM
 70
    64
  3
_____ _ _ _____ _ _ _____ _ _ _____ _ _ ____
 72
    65
 73
     6
 40
0.001100
 49
0.000550
 49
-0.000110
 49
0.000110
 49
-0.000110
 49
0.000110
 49
-0.000110
  0
LTYPE
  2
DOT
 70
    64
  3
...............................................
 72
    65
 73
     2
 40
0.000110
 49
0.000000
 49
-0.000110
  0
LTYPE
  2
DASHDOT
 70
    64
  3
__ . __ . __ . __ . __ . __ . __ . __ . __ . __
 72
    65
 73
     4
 40
0.000440
 49
0.000220
 49
-0.000110
 49
0.000000
 49
-0.000110
  0
LTYPE
  2
BORDER
 70
    64
  3
__ __ . __ __ . __ __ . __ __ . __ __ . __ __
 72
    65
 73
     6
 40
0.000770
 49
0.000220
 49
-0.000110
 49
0.000220
 49
-0.000110
 49
0.000000
 49
-0.000110
  0
LTYPE
  2
DIVIDE
 70
    64
  3
__ . . __ . . __ . . __ . . __ . . __ . . __
 72
    65
 73
     6
 40
0.000550
 49
0.000220
 49
-0.000110
 49
0.000000
 49
-0.000110
 49
0.000000
 49
-0.000110
  0
LTYPE
  2
DOTDOT
 70
    64
  3
 . .  . .  . .  . .  . .  . . 
 72
    65
 73
     5
 40
0.000242
 49
-0.000110
 49
0.000000
 49
-0.000110
 49
0.000000
 49
-0.000110
  0
ENDTAB
  0
TABLE
  2
STYLE
 70
     2
  0
STYLE
 70
     0
  2
SN0
 40
0.000000
 41
0.000440
 50
0.000000
 71
     0
 42
0.000000
  3
ROMAND
  0
STYLE
 70
    68
  2
SV0
 40
0.000000
 41
0.000440
 50
0.000000
 71
     0
 42
0.000000
  3
ROMAND
  0
ENDTAB
  0
TABLE
  2
LAYER
 70
     3
  0
LAYER
  2
FOREGROUND
 70
    64
 62
     7
  6
CONTINUOUS
  0
LAYER
  2
BACKGROUND
 70
    65
 62
    -7
  6
CONTINUOUS
  0
LAYER
  2
0
 70
    64
 62
     7
  6
CONTINUOUS
  0
ENDTAB
  0
ENDSEC
  0
SECTION
  2
ENTITIES
  0
POLYLINE
  8
FOREGROUND
  6
CONTINUOUS
 66
     1
 40
0.000000
 41
0.000000
  0
VERTEX
  8
FOREGROUND
  6
CONTINUOUS
 10
0.000000
 20
6.153840
  0
VERTEX
  8
FOREGROUND
  6
CONTINUOUS
 10
8.499920
 20
6.153840
  0
VERTEX
  8
FOREGROUND
  6
CONTINUOUS
 10
8.499920
 20
-4.846160
  0
VERTEX
  8
FOREGROUND
  6
CONTINUOUS
 10
0.000000
 20
-4.846160
  0
VERTEX
  8
FOREGROUND
  6
CONTINUOUS
 10
0.000000
 20
6.153840
  0
SEQEND
  8
0
  0
POLYLINE
  8
FOREGROUND
  6
CONTINUOUS
 66
     1
 40
0.000000
 41
0.000000
  0
VERTEX
  8
FOREGROUND
  6
CONTINUOUS
 10
0.000000
 20
6.153840
  0
VERTEX
  8
FOREGROUND
  6
CONTINUOUS
 10
8.499920
 20
6.153840
  0
VERTEX
  8
FOREGROUND
  6
CONTINUOUS
 10
8.499920
 20
-4.846160
  0
VERTEX
  8
FOREGROUND
  6
CONTINUOUS
 10
0.000000
 20
-4.846160
  0
VERTEX
  8
FOREGROUND
  6
CONTINUOUS
 10
0.000000
 20
6.153840
  0
SEQEND
  8
0
  0
POLYLINE
  8
0
  6
CONTINUOUS
 66
     1
 40
0.014080
 41
0.014080
  0
VERTEX
  8
0
  6
CONTINUOUS
 10
0.632720
 20
4.438720
  0
VERTEX
  8
0
  6
CONTINUOUS
 10
0.737000
 20
4.523200
  0
VERTEX
  8
0
  6
CONTINUOUS
 10
0.840400
 20
4.601960
  0
VERTEX
  8
0
  6
CONTINUOUS
 10
0.942920
 20
4.674120
  0
VERTEX
  8
0
  6
CONTINUOUS
 10
1.044560
 20
4.740560
  0
VERTEX
  8
0
  6
CONTINUOUS
 10
1.145760
 20
4.801720
  0
VERTEX
  8
0
  6
CONTINUOUS
 10
1.245640
 20
4.857160
  0
VERTEX
  8
0
  6
CONTINUOUS
 10
1.344640
 20
4.907320
  0
VERTEX
  8
0
  6
CONTINUOUS
 10
1.442760
 20
4.952640
  0
VERTEX
  8
0
  6
CONTINUOUS
 10
1.540000
 20
4.993120
  0
VERTEX
  8
0
  6
CONTINUOUS
 10
1.635920
 20
5.028760
  0
VERTEX
  8
0
  6
CONTINUOUS
 10
1.730520
 20
5.060000
  0
VERTEX
  8
0
  6
CONTINUOUS
 10
1.777160
 20
5.074520
  0
VERTEX
  8
0
  6
CONTINUOUS
 10
1.870000
 20
5.099600
  0
VERTEX
  8
0
  6
CONTINUOUS
 10
1.961960
 20
5.121160
  0
VERTEX
  8
0
  6
CONTINUOUS
 10
2.052160
 20
5.138760
  0
VERTEX
  8
0
  6
CONTINUOUS
 10
2.140600
 20
5.153280
  0
VERTEX
  8
0
  6
CONTINUOUS
 10
2.271280
 20
5.168680
  0
VERTEX
  8
0
  6
CONTINUOUS
 10
2.356200
 20
5.175280
  0
VERTEX
  8
0
  6
CONTINUOUS
 10
2.439800
 20
5.179240
  0
VERTEX
  8
0
  6
CONTINUOUS
 10
2.562120
 20
5.180560
  0
VERTEX
  8
0
  6
CONTINUOUS
 10
2.680480
 20
5.177040
  0
VERTEX
  8
0
  6
CONTINUOUS
 10
2.757040
 20
5.172200
  0
VERTEX
  8
0
  6
CONTINUOUS
 10
2.831840
 20
5.165600
  0
VERTEX
  8
0
  6
CONTINUOUS
 10
2.975720
 20
5.148880
  0
VERTEX
  8
0
  6
CONTINUOUS
 10
3.111680
 20
5.127760
  0
VERTEX
  8
0
  6
CONTINUOUS
 10
3.300000
 20
5.092120
  0
VERTEX
  8
0
  6
CONTINUOUS
 10
3.414840
 20
5.067480
  0
VERTEX
  8
0
  6
CONTINUOUS
 10
3.526160
 20
5.039760
  0
VERTEX
  8
0
  6
CONTINUOUS
 10
3.896200
 20
4.935040
  0
VERTEX
  8
0
  6
CONTINUOUS
 10
3.997840
 20
4.909520
  0
VERTEX
  8
0
  6
CONTINUOUS
 10
4.048440
 20
4.898080
  0
VERTEX
  8
0
  6
CONTINUOUS
 10
4.148760
 20
4.880040
  0
VERTEX
  8
0
  6
CONTINUOUS
 10
4.198480
 20
4.873440
  0
VERTEX
  8
0
  6
CONTINUOUS
 10
4.248200
 20
4.869040
  0
VERTEX
  8
0
  6
CONTINUOUS
 10
4.297920
 20
4.866400
  0
VERTEX
  8
0
  6
CONTINUOUS
 10
4.347640
 20
4.865960
  0
VERTEX
  8
0
  6
CONTINUOUS
 10
4.397360
 20
4.868160
  0
VERTEX
  8
0
  6
CONTINUOUS
 10
4.471720
 20
4.876960
  0
VERTEX
  8
0
  6
CONTINUOUS
 10
4.546520
 20
4.891920
  0
VERTEX
  8
0
  6
CONTINUOUS
 10
4.596680
 20
4.906440
  0
VERTEX
  8
0
  6
CONTINUOUS
 10
4.672360
 20
4.934160
  0
VERTEX
  8
0
  6
CONTINUOUS
 10
4.722960
 20
4.957040
  0
VERTEX
  8
0
  6
CONTINUOUS
 10
4.799520
 20
4.999280
  0
VERTEX
  8
0
  6
CONTINUOUS
 10
4.851440
 20
5.032720
  0
VERTEX
  8
0
  6
CONTINUOUS
 10
4.929760
 20
5.090800
  0
VERTEX
  8
0
  6
CONTINUOUS
 10
5.008960
 20
5.159880
  0
VERTEX
  8
0
  6
CONTINUOUS
 10
5.980920
 20
4.607240
  0
VERTEX
  8
0
  6
CONTINUOUS
 10
5.676000
 20
4.230160
  0
VERTEX
  8
0
  6
CONTINUOUS
 10
1.090760
 20
4.230160
  0
VERTEX
  8
0
  6
CONTINUOUS
 10
0.632720
 20
4.438720
  0
SEQEND
  8
0
  0
SOLID
  8
0
 62
    15
 10
6.262080
 20
2.763200
 11
6.899200
 21
2.395800
 12
6.138880
 22
2.509320
 13
6.776000
 23
2.141920
  0
POLYLINE
  8
0
  6
CONTINUOUS
 66
     1
 40
0.000000
 41
0.000000
  0
VERTEX
  8
0
  6
CONTINUOUS
 10
6.262080
 20
2.763200
  0
VERTEX
  8
0
  6
CONTINUOUS
 10
6.899200
 20
2.395800
  0
VERTEX
  8
0
  6
CONTINUOUS
 10
6.776000
 20
2.141920
  0
VERTEX
  8
0
  6
CONTINUOUS
 10
6.138880
 20
2.509320
  0
VERTEX
  8
0
  6
CONTINUOUS
 10
6.262080
 20
2.763200
  0
SEQEND
  8
0
  0
SOLID
  8
0
 62
    15
 10
7.338760
 20
4.325640
 11
7.976320
 21
3.958240
 12
7.205880
 22
4.287360
 13
7.843000
 23
3.919960
  0
POLYLINE
  8
0
  6
CONTINUOUS
 66
     1
 40
0.000000
 41
0.000000
  0
VERTEX
  8
0
  6
CONTINUOUS
 10
7.338760
 20
4.325640
  0
VERTEX
  8
0
  6
CONTINUOUS
 10
7.976320
 20
3.958240
  0
VERTEX
  8
0
  6
CONTINUOUS
 10
7.843000
 20
3.919960
  0
VERTEX
  8
0
  6
CONTINUOUS
 10
7.205880
 20
4.287360
  0
VERTEX
  8
0
  6
CONTINUOUS
 10
7.338760
 20
4.325640
  0
SEQEND
  8
0
  0
SOLID
  8
0
 62
    15
 10
7.205880
 20
4.287360
 11
7.843000
 21
3.919960
 12
7.089280
 22
4.240280
 13
7.726400
 23
3.872880
  0
POLYLINE
  8
0
  6
CONTINUOUS
 66
     1
 40
0.000000
 41
0.000000
  0
VERTEX
  8
0
  6
CONTINUOUS
 10
7.205880
 20
4.287360
  0
VERTEX
  8
0
  6
CONTINUOUS
 10
7.843000
 20
3.919960
  0
VERTEX
  8
0
  6
CONTINUOUS
 10
7.726400
 20
3.872880
  0
VERTEX
  8
0
  6
CONTINUOUS
 10
7.089280
 20
4.240280
  0
VERTEX
  8
0
  6
CONTINUOUS
 10
7.205880
 20
4.287360
  0
SEQEND
  8
0
  0
SOLID
  8
0
 62
    15
 10
7.089280
 20
4.240280
 11
7.726400
 21
3.872880
 12
6.987640
 22
4.185280
 13
7.624760
 23
3.817880
  0
POLYLINE
  8
0
  6
CONTINUOUS
 66
     1
 40
0.000000
 41
0.000000
  0
VERTEX
  8
0
  6
CONTINUOUS
 10
7.089280
 20
4.240280
  0
VERTEX
  8
0
  6
CONTINUOUS
 10
7.726400
 20
3.872880
  0
VERTEX
  8
0
  6
CONTINUOUS
 10
7.624760
 20
3.817880
  0
VERTEX
  8
0
  6
CONTINUOUS
 10
6.987640
 20
4.185280
  0
VERTEX
  8
0
  6
CONTINUOUS
 10
7.089280
 20
4.240280
  0
SEQEND
  8
0
  0
SOLID
  8
0
 62
    15
 10
6.987640
 20
4.185280
 11
7.624760
 21
3.817880
 12
6.899200
 22
4.122800
 13
7.536760
 23
3.755400
  0
POLYLINE
  8
0
  6
CONTINUOUS
 66
     1
 40
0.000000
 41
0.000000
  0
VERTEX
  8
0
  6
CONTINUOUS
 10
6.987640
 20
4.185280
  0
VERTEX
  8
0
  6
CONTINUOUS
 10
7.624760
 20
3.817880
  0
VERTEX
  8
0
  6
CONTINUOUS
 10
7.536760
 20
3.755400
  0
VERTEX
  8
0
  6
CONTINUOUS
 10
6.899200
 20
4.122800
  0
VERTEX
  8
0
  6
CONTINUOUS
 10
6.987640
 20
4.185280
  0
SEQEND
  8
0
  0
SOLID
  8
0
 62
    15
 10
6.899200
 20
4.122800
 11
7.536760
 21
3.755400
 12
6.757520
 22
3.977600
 13
7.394640
 23
3.610200
  0
POLYLINE
  8
0
  6
CONTINUOUS
 66
     1
 40
0.000000
 41
0.000000
  0
VERTEX
  8
0
  6
CONTINUOUS
 10
6.899200
 20
4.122800
  0
VERTEX
  8
0
  6
CONTINUOUS
 10
7.536760
 20
3.755400
  0
VERTEX
  8
0
  6
CONTINUOUS
 10
7.394640
 20
3.610200
  0
VERTEX
  8
0
  6
CONTINUOUS
 10
6.757520
 20
3.977600
  0
VERTEX
  8
0
  6
CONTINUOUS
 10
6.899200
 20
4.122800
  0
SEQEND
  8
0
  0
SOLID
  8
0
 62
    15
 10
6.757520
 20
3.977600
 11
7.394640
 21
3.610200
 12
6.651920
 22
3.809080
 13
7.289040
 23
3.441680
  0
POLYLINE
  8
0
  6
CONTINUOUS
 66
     1
 40
0.000000
 41
0.000000
  0
VERTEX
  8
0
  6
CONTINUOUS
 10
6.757520
 20
3.977600
  0
VERTEX
  8
0
  6
CONTINUOUS
 10
7.394640
 20
3.610200
  0
VERTEX
  8
0
  6
CONTINUOUS
 10
7.289040
 20
3.441680
  0
VERTEX
  8
0
  6
CONTINUOUS
 10
6.651920
 20
3.809080
  0
VERTEX
  8
0
  6
CONTINUOUS
 10
6.757520
 20
3.977600
  0
SEQEND
  8
0
  0
SOLID
  8
0
 62
    15
 10
6.651920
 20
3.809080
 11
7.289040
 21
3.441680
 12
6.570520
 22
3.622520
 13
7.208080
 23
3.255120
  0
POLYLINE
  8
0
  6
CONTINUOUS
 66
     1
 40
0.000000
 41
0.000000
  0
VERTEX
  8
0
  6
CONTINUOUS
 10
6.651920
 20
3.809080
  0
VERTEX
  8
0
  6
CONTINUOUS
 10
7.289040
 20
3.441680
  0
VERTEX
  8
0
  6
CONTINUOUS
 10
7.208080
 20
3.255120
  0
VERTEX
  8
0
  6
CONTINUOUS
 10
6.570520
 20
3.622520
  0
VERTEX
  8
0
  6
CONTINUOUS
 10
6.651920
 20
3.809080
  0
SEQEND
  8
0
  0
SOLID
  8
0
 62
    15
 10
6.570520
 20
3.622520
 11
7.208080
 21
3.255120
 12
6.502760
 22
3.421440
 13
7.139880
 23
3.054040
  0
POLYLINE
  8
0
  6
CONTINUOUS
 66
     1
 40
0.000000
 41
0.000000
  0
VERTEX
  8
0
  6
CONTINUOUS
 10
6.570520
 20
3.622520
  0
VERTEX
  8
0
  6
CONTINUOUS
 10
7.208080
 20
3.255120
  0
VERTEX
  8
0
  6
CONTINUOUS
 10
7.139880
 20
3.054040
  0
VERTEX
  8
0
  6
CONTINUOUS
 10
6.502760
 20
3.421440
  0
VERTEX
  8
0
  6
CONTINUOUS
 10
6.570520
 20
3.622520
  0
SEQEND
  8
0
  0
SOLID
  8
0
 62
    15
 10
6.502760
 20
3.421440
 11
7.139880
 21
3.054040
 12
6.358440
 22
2.995080
 13
6.995560
 23
2.627240
  0
POLYLINE
  8
0
  6
CONTINUOUS
 66
     1
 40
0.000000
 41
0.000000
  0
VERTEX
  8
0
  6
CONTINUOUS
 10
6.502760
 20
3.421440
  0
VERTEX
  8
0
  6
CONTINUOUS
 10
7.139880
 20
3.054040
  0
VERTEX
  8
0
  6
CONTINUOUS
 10
6.995560
 20
2.627240
  0
VERTEX
  8
0
  6
CONTINUOUS
 10
6.358440
 20
2.995080
  0
VERTEX
  8
0
  6
CONTINUOUS
 10
6.502760
 20
3.421440
  0
SEQEND
  8
0
  0
SOLID
  8
0
 62
    15
 10
6.358440
 20
2.995080
 11
6.995560
 21
2.627240
 12
6.262080
 22
2.763200
 13
6.899200
 23
2.395800
  0
POLYLINE
  8
0
  6
CONTINUOUS
 66
     1
 40
0.000000
 41
0.000000
  0
VERTEX
  8
0
  6
CONTINUOUS
 10
6.358440
 20
2.995080
  0
VERTEX
  8
0
  6
CONTINUOUS
 10
6.995560
 20
2.627240
  0
VERTEX
  8
0
  6
CONTINUOUS
 10
6.899200
 20
2.395800
  0
VERTEX
  8
0
  6
CONTINUOUS
 10
6.262080
 20
2.763200
  0
VERTEX
  8
0
  6
CONTINUOUS
 10
6.358440
 20
2.995080
  0
SEQEND
  8
0
  0
SOLID
  8
0
 62
    15
 10
7.416200
 20
5.441040
 11
8.053320
 21
5.073640
 12
7.338760
 22
4.325640
 13
7.976320
 23
3.958240
  0
POLYLINE
  8
0
  6
CONTINUOUS
 66
     1
 40
0.000000
 41
0.000000
  0
VERTEX
  8
0
  6
CONTINUOUS
 10
7.416200
 20
5.441040
  0
VERTEX
  8
0
  6
CONTINUOUS
 10
8.053320
 20
5.073640
  0
VERTEX
  8
0
  6
CONTINUOUS
 10
7.976320
 20
3.958240
  0
VERTEX
  8
0
  6
CONTINUOUS
 10
7.338760
 20
4.325640
  0
VERTEX
  8
0
  6
CONTINUOUS
 10
7.416200
 20
5.441040
  0
SEQEND
  8
0
  0
SOLID
  8
0
 62
    15
 10
6.138880
 20
2.509320
 11
6.776000
 21
2.141920
 12
5.979600
 22
2.242680
 13
6.616720
 23
1.875280
  0
POLYLINE
  8
0
  6
CONTINUOUS
 66
     1
 40
0.000000
 41
0.000000
  0
VERTEX
  8
0
  6
CONTINUOUS
 10
6.138880
 20
2.509320
  0
VERTEX
  8
0
  6
CONTINUOUS
 10
6.776000
 20
2.141920
  0
VERTEX
  8
0
  6
CONTINUOUS
 10
6.616720
 20
1.875280
  0
VERTEX
  8
0
  6
CONTINUOUS
 10
5.979600
 20
2.242680
  0
VERTEX
  8
0
  6
CONTINUOUS
 10
6.138880
 20
2.509320
  0
SEQEND
  8
0
  0
SOLID
  8
0
 62
    15
 10
5.979600
 20
2.242680
 11
6.616720
 21
1.875280
 12
5.775000
 22
1.973840
 13
6.412560
 23
1.606440
  0
POLYLINE
  8
0
  6
CONTINUOUS
 66
     1
 40
0.000000
 41
0.000000
  0
VERTEX
  8
0
  6
CONTINUOUS
 10
5.979600
 20
2.242680
  0
VERTEX
  8
0
  6
CONTINUOUS
 10
6.616720
 20
1.875280
  0
VERTEX
  8
0
  6
CONTINUOUS
 10
6.412560
 20
1.606440
  0
VERTEX
  8
0
  6
CONTINUOUS
 10
5.775000
 20
1.973840
  0
VERTEX
  8
0
  6
CONTINUOUS
 10
5.979600
 20
2.242680
  0
SEQEND
  8
0
  0
SOLID
  8
0
 62
    15
 10
5.775000
 20
1.973840
 11
6.412560
 21
1.606440
 12
5.653120
 22
1.841840
 13
6.290240
 23
1.474440
  0
POLYLINE
  8
0
  6
CONTINUOUS
 66
     1
 40
0.000000
 41
0.000000
  0
VERTEX
  8
0
  6
CONTINUOUS
 10
5.775000
 20
1.973840
  0
VERTEX
  8
0
  6
CONTINUOUS
 10
6.412560
 20
1.606440
  0
VERTEX
  8
0
  6
CONTINUOUS
 10
6.290240
 20
1.474440
  0
VERTEX
  8
0
  6
CONTINUOUS
 10
5.653120
 20
1.841840
  0
VERTEX
  8
0
  6
CONTINUOUS
 10
5.775000
 20
1.973840
  0
SEQEND
  8
0
  0
SOLID
  8
0
 62
    15
 10
5.653120
 20
1.841840
 11
6.290240
 21
1.474440
 12
5.515840
 22
1.712920
 13
6.152960
 23
1.345520
  0
POLYLINE
  8
0
  6
CONTINUOUS
 66
     1
 40
0.000000
 41
0.000000
  0
VERTEX
  8
0
  6
CONTINUOUS
 10
5.653120
 20
1.841840
  0
VERTEX
  8
0
  6
CONTINUOUS
 10
6.290240
 20
1.474440
  0
VERTEX
  8
0
  6
CONTINUOUS
 10
6.152960
 20
1.345520
  0
VERTEX
  8
0
  6
CONTINUOUS
 10
5.515840
 20
1.712920
  0
VERTEX
  8
0
  6
CONTINUOUS
 10
5.653120
 20
1.841840
  0
SEQEND
  8
0
  0
SOLID
  8
0
 62
    15
 10
5.515840
 20
1.712920
 11
6.152960
 21
1.345520
 12
5.362720
 22
1.588840
 13
6.000280
 23
1.221440
  0
POLYLINE
  8
0
  6
CONTINUOUS
 66
     1
 40
0.000000
 41
0.000000
  0
VERTEX
  8
0
  6
CONTINUOUS
 10
5.515840
 20
1.712920
  0
VERTEX
  8
0
  6
CONTINUOUS
 10
6.152960
 20
1.345520
  0
VERTEX
  8
0
  6
CONTINUOUS
 10
6.000280
 20
1.221440
  0
VERTEX
  8
0
  6
CONTINUOUS
 10
5.362720
 20
1.588840
  0
VERTEX
  8
0
  6
CONTINUOUS
 10
5.515840
 20
1.712920
  0
SEQEND
  8
0
  0
SOLID
  8
0
 62
    15
 10
5.362720
 20
1.588840
 11
6.000280
 21
1.221440
 12
5.192440
 22
1.470480
 13
5.830000
 23
1.103080
  0
POLYLINE
  8
0
  6
CONTINUOUS
 66
     1
 40
0.000000
 41
0.000000
  0
VERTEX
  8
0
  6
CONTINUOUS
 10
5.362720
 20
1.588840
  0
VERTEX
  8
0
  6
CONTINUOUS
 10
6.000280
 20
1.221440
  0
VERTEX
  8
0
  6
CONTINUOUS
 10
5.830000
 20
1.103080
  0
VERTEX
  8
0
  6
CONTINUOUS
 10
5.192440
 20
1.470480
  0
VERTEX
  8
0
  6
CONTINUOUS
 10
5.362720
 20
1.588840
  0
SEQEND
  8
0
  0
SOLID
  8
0
 62
    15
 10
5.192440
 20
1.470480
 11
5.830000
 21
1.103080
 12
5.004120
 22
1.359160
 13
5.641240
 23
0.991760
  0
POLYLINE
  8
0
  6
CONTINUOUS
 66
     1
 40
0.000000
 41
0.000000
  0
VERTEX
  8
0
  6
CONTINUOUS
 10
5.192440
 20
1.470480
  0
VERTEX
  8
0
  6
CONTINUOUS
 10
5.830000
 20
1.103080
  0
VERTEX
  8
0
  6
CONTINUOUS
 10
5.641240
 20
0.991760
  0
VERTEX
  8
0
  6
CONTINUOUS
 10
5.004120
 20
1.359160
  0
VERTEX
  8
0
  6
CONTINUOUS
 10
5.192440
 20
1.470480
  0
SEQEND
  8
0
  0
SOLID
  8
0
 62
    15
 10
5.004120
 20
1.359160
 11
5.641240
 21
0.991760
 12
4.796000
 22
1.255760
 13
5.433120
 23
0.888360
  0
POLYLINE
  8
0
  6
CONTINUOUS
 66
     1
 40
0.000000
 41
0.000000
  0
VERTEX
  8
0
  6
CONTINUOUS
 10
5.004120
 20
1.359160
  0
VERTEX
  8
0
  6
CONTINUOUS
 10
5.641240
 20
0.991760
  0
VERTEX
  8
0
  6
CONTINUOUS
 10
5.433120
 20
0.888360
  0
VERTEX
  8
0
  6
CONTINUOUS
 10
4.796000
 20
1.255760
  0
VERTEX
  8
0
  6
CONTINUOUS
 10
5.004120
 20
1.359160
  0
SEQEND
  8
0
  0
SOLID
  8
0
 62
    15
 10
4.796000
 20
1.255760
 11
5.433120
 21
0.888360
 12
4.567200
 22
1.162480
 13
5.204320
 23
0.795080
  0
POLYLINE
  8
0
  6
CONTINUOUS
 66
     1
 40
0.000000
 41
0.000000
  0
VERTEX
  8
0
  6
CONTINUOUS
 10
4.796000
 20
1.255760
  0
VERTEX
  8
0
  6
CONTINUOUS
 10
5.433120
 20
0.888360
  0
VERTEX
  8
0
  6
CONTINUOUS
 10
5.204320
 20
0.795080
  0
VERTEX
  8
0
  6
CONTINUOUS
 10
4.567200
 20
1.162480
  0
VERTEX
  8
0
  6
CONTINUOUS
 10
4.796000
 20
1.255760
  0
SEQEND
  8
0
  0
SOLID
  8
0
 62
    15
 10
4.567200
 20
1.162480
 11
5.204320
 21
0.795080
 12
4.316400
 22
1.079760
 13
4.953520
 23
0.712360
  0
POLYLINE
  8
0
  6
CONTINUOUS
 66
     1
 40
0.000000
 41
0.000000
  0
VERTEX
  8
0
  6
CONTINUOUS
 10
4.567200
 20
1.162480
  0
VERTEX
  8
0
  6
CONTINUOUS
 10
5.204320
 20
0.795080
  0
VERTEX
  8
0
  6
CONTINUOUS
 10
4.953520
 20
0.712360
  0
VERTEX
  8
0
  6
CONTINUOUS
 10
4.316400
 20
1.079760
  0
VERTEX
  8
0
  6
CONTINUOUS
 10
4.567200
 20
1.162480
  0
SEQEND
  8
0
  0
POLYLINE
  8
0
  6
CONTINUOUS
 66
     1
 40
0.000000
 41
0.000000
  0
VERTEX
  8
0
  6
CONTINUOUS
 10
4.396040
 20
1.576520
  0
VERTEX
  8
0
  6
CONTINUOUS
 10
6.933960
 20
5.396160
  0
VERTEX
  8
0
  6
CONTINUOUS
 10
7.416200
 20
5.441040
  0
VERTEX
  8
0
  6
CONTINUOUS
 10
7.338760
 20
4.325640
  0
VERTEX
  8
0
  6
CONTINUOUS
 10
7.205880
 20
4.287360
  0
VERTEX
  8
0
  6
CONTINUOUS
 10
7.089280
 20
4.240280
  0
VERTEX
  8
0
  6
CONTINUOUS
 10
6.987640
 20
4.185280
  0
VERTEX
  8
0
  6
CONTINUOUS
 10
6.899200
 20
4.122800
  0
VERTEX
  8
0
  6
CONTINUOUS
 10
6.757520
 20
3.977600
  0
VERTEX
  8
0
  6
CONTINUOUS
 10
6.651920
 20
3.809080
  0
VERTEX
  8
0
  6
CONTINUOUS
 10
6.570520
 20
3.622520
  0
VERTEX
  8
0
  6
CONTINUOUS
 10
6.502760
 20
3.421440
  0
VERTEX
  8
0
  6
CONTINUOUS
 10
6.358440
 20
2.995080
  0
VERTEX
  8
0
  6
CONTINUOUS
 10
6.262080
 20
2.763200
  0
VERTEX
  8
0
  6
CONTINUOUS
 10
6.138880
 20
2.509320
  0
VERTEX
  8
0
  6
CONTINUOUS
 10
5.979600
 20
2.242680
  0
VERTEX
  8
0
  6
CONTINUOUS
 10
5.775000
 20
1.973840
  0
VERTEX
  8
0
  6
CONTINUOUS
 10
5.653120
 20
1.841840
  0
VERTEX
  8
0
  6
CONTINUOUS
 10
5.515840
 20
1.712920
  0
VERTEX
  8
0
  6
CONTINUOUS
 10
5.362720
 20
1.588840
  0
VERTEX
  8
0
  6
CONTINUOUS
 10
5.192440
 20
1.470480
  0
VERTEX
  8
0
  6
CONTINUOUS
 10
5.004120
 20
1.359160
  0
VERTEX
  8
0
  6
CONTINUOUS
 10
4.796000
 20
1.255760
  0
VERTEX
  8
0
  6
CONTINUOUS
 10
4.567200
 20
1.162480
  0
VERTEX
  8
0
  6
CONTINUOUS
 10
4.316400
 20
1.079760
  0
VERTEX
  8
0
  6
CONTINUOUS
 10
4.396040
 20
1.576520
  0
SEQEND
  8
0
  0
TEXT
  8
0
 10
6.378680
 20
0.947320
 40
0.138196
  1
BA  640
 41
1.000000
  7
SN0
 71
     0
 72
     5
 11
6.967958
 21
0.947320
  0
TEXT
  8
0
 10
6.130520
 20
0.755920
 40
0.138196
  1
15/16" x 5-3/8"
 41
1.000000
  7
SN0
 71
     0
 72
     5
 11
7.213277
 21
0.755920
  0
ENDSEC
  0
EOF
