  0
SECTION
  2
HEADER
  9
$ACADVER
  1
AC1006
  9
$EXTMIN
 10
3.313200
 20
0.877360
  9
$EXTMAX
 10
7.574160
 20
3.903240
  9
$LTSCALE
 40
0.044000
  9
$PDMODE
 70
    35
  9
$PDSIZE
 40
0.035200
  0
ENDSEC
  0
SECTION
  2
TABLES
  0
TABLE
  2
LTYPE
 70
     9
  0
LTYPE
  2
CONTINUOUS
 70
    64
  3
Solid line
 72
    65
 73
     0
 40
0.000000
  0
LTYPE
  2
DASHED
 70
    64
  3
__ __ __ __ __ __ __ __ __ __ __ __ __ __ __
 72
    65
 73
     2
 40
0.000330
 49
0.000220
 49
-0.000110
  0
LTYPE
  2
HIDDEN
 70
    64
  3
 _ _ _ _ _ _ _ _ _ _ _ _ _ _ _ _ _ _ _ _ _ _
 72
    65
 73
     2
 40
0.000165
 49
0.000110
 49
-0.000055
  0
LTYPE
  2
CENTER
 70
    64
  3
____ _ ____ _ ____ _ ____ _ ____ _ ____ _ ____
 72
    65
 73
     4
 40
0.000880
 49
0.000550
 49
-0.000110
 49
0.000110
 49
-0.000110
  0
LTYPE
  2
PHANTOM
 70
    64
  3
_____ _ _ _____ _ _ _____ _ _ _____ _ _ ____
 72
    65
 73
     6
 40
0.001100
 49
0.000550
 49
-0.000110
 49
0.000110
 49
-0.000110
 49
0.000110
 49
-0.000110
  0
LTYPE
  2
DOT
 70
    64
  3
...............................................
 72
    65
 73
     2
 40
0.000110
 49
0.000000
 49
-0.000110
  0
LTYPE
  2
DASHDOT
 70
    64
  3
__ . __ . __ . __ . __ . __ . __ . __ . __ . __
 72
    65
 73
     4
 40
0.000440
 49
0.000220
 49
-0.000110
 49
0.000000
 49
-0.000110
  0
LTYPE
  2
BORDER
 70
    64
  3
__ __ . __ __ . __ __ . __ __ . __ __ . __ __
 72
    65
 73
     6
 40
0.000770
 49
0.000220
 49
-0.000110
 49
0.000220
 49
-0.000110
 49
0.000000
 49
-0.000110
  0
LTYPE
  2
DIVIDE
 70
    64
  3
__ . . __ . . __ . . __ . . __ . . __ . . __
 72
    65
 73
     6
 40
0.000550
 49
0.000220
 49
-0.000110
 49
0.000000
 49
-0.000110
 49
0.000000
 49
-0.000110
  0
LTYPE
  2
DOTDOT
 70
    64
  3
 . .  . .  . .  . .  . .  . . 
 72
    65
 73
     5
 40
0.000242
 49
-0.000110
 49
0.000000
 49
-0.000110
 49
0.000000
 49
-0.000110
  0
ENDTAB
  0
TABLE
  2
STYLE
 70
     2
  0
STYLE
 70
     0
  2
SN0
 40
0.000000
 41
0.000440
 50
0.000000
 71
     0
 42
0.000000
  3
ROMAND
  0
STYLE
 70
    68
  2
SV0
 40
0.000000
 41
0.000440
 50
0.000000
 71
     0
 42
0.000000
  3
ROMAND
  0
ENDTAB
  0
TABLE
  2
LAYER
 70
     3
  0
LAYER
  2
FOREGROUND
 70
    64
 62
     7
  6
CONTINUOUS
  0
LAYER
  2
BACKGROUND
 70
    65
 62
    -7
  6
CONTINUOUS
  0
LAYER
  2
0
 70
    64
 62
     7
  6
CONTINUOUS
  0
ENDTAB
  0
ENDSEC
  0
SECTION
  2
ENTITIES
  0
POLYLINE
  8
FOREGROUND
  6
CONTINUOUS
 66
     1
 40
0.000000
 41
0.000000
  0
VERTEX
  8
FOREGROUND
  6
CONTINUOUS
 10
0.000000
 20
4.780600
  0
VERTEX
  8
FOREGROUND
  6
CONTINUOUS
 10
8.499920
 20
4.780600
  0
VERTEX
  8
FOREGROUND
  6
CONTINUOUS
 10
8.499920
 20
-6.219400
  0
VERTEX
  8
FOREGROUND
  6
CONTINUOUS
 10
0.000000
 20
-6.219400
  0
VERTEX
  8
FOREGROUND
  6
CONTINUOUS
 10
0.000000
 20
4.780600
  0
SEQEND
  8
0
  0
POLYLINE
  8
FOREGROUND
  6
CONTINUOUS
 66
     1
 40
0.000000
 41
0.000000
  0
VERTEX
  8
FOREGROUND
  6
CONTINUOUS
 10
0.000000
 20
4.780600
  0
VERTEX
  8
FOREGROUND
  6
CONTINUOUS
 10
8.499920
 20
4.780600
  0
VERTEX
  8
FOREGROUND
  6
CONTINUOUS
 10
8.499920
 20
-6.219400
  0
VERTEX
  8
FOREGROUND
  6
CONTINUOUS
 10
0.000000
 20
-6.219400
  0
VERTEX
  8
FOREGROUND
  6
CONTINUOUS
 10
0.000000
 20
4.780600
  0
SEQEND
  8
0
  0
POLYLINE
  8
0
  6
CONTINUOUS
 66
     1
 40
0.014080
 41
0.014080
  0
VERTEX
  8
0
  6
CONTINUOUS
 10
3.574120
 20
3.509880
  0
VERTEX
  8
0
  6
CONTINUOUS
 10
3.574120
 20
3.615040
  0
VERTEX
  8
0
  6
CONTINUOUS
 10
3.329480
 20
3.639240
  0
VERTEX
  8
0
  6
CONTINUOUS
 10
3.328600
 20
3.640560
  0
VERTEX
  8
0
  6
CONTINUOUS
 10
3.328600
 20
3.705240
  0
VERTEX
  8
0
  6
CONTINUOUS
 10
3.518680
 20
3.895320
  0
VERTEX
  8
0
  6
CONTINUOUS
 10
3.587320
 20
3.895320
  0
VERTEX
  8
0
  6
CONTINUOUS
 10
7.075200
 20
3.895320
  0
VERTEX
  8
0
  6
CONTINUOUS
 10
7.128440
 20
3.895320
  0
VERTEX
  8
0
  6
CONTINUOUS
 10
7.322040
 20
3.701720
  0
VERTEX
  8
0
  6
CONTINUOUS
 10
7.322040
 20
3.640560
  0
VERTEX
  8
0
  6
CONTINUOUS
 10
7.567120
 20
3.616800
  0
VERTEX
  8
0
  6
CONTINUOUS
 10
7.567120
 20
3.511200
  0
VERTEX
  8
0
  6
CONTINUOUS
 10
7.566240
 20
3.533200
  0
VERTEX
  8
0
  6
CONTINUOUS
 10
7.566240
 20
3.427600
  0
VERTEX
  8
0
  6
CONTINUOUS
 10
7.321160
 20
3.403840
  0
VERTEX
  8
0
  6
CONTINUOUS
 10
7.321160
 20
3.342680
  0
VERTEX
  8
0
  6
CONTINUOUS
 10
7.127560
 20
3.149080
  0
VERTEX
  8
0
  6
CONTINUOUS
 10
7.074320
 20
3.149080
  0
VERTEX
  8
0
  6
CONTINUOUS
 10
3.586440
 20
3.149080
  0
VERTEX
  8
0
  6
CONTINUOUS
 10
3.517800
 20
3.149080
  0
VERTEX
  8
0
  6
CONTINUOUS
 10
3.327280
 20
3.339160
  0
VERTEX
  8
0
  6
CONTINUOUS
 10
3.328600
 20
3.399440
  0
VERTEX
  8
0
  6
CONTINUOUS
 10
3.328600
 20
3.402520
  0
VERTEX
  8
0
  6
CONTINUOUS
 10
3.573240
 20
3.426280
  0
VERTEX
  8
0
  6
CONTINUOUS
 10
3.573240
 20
3.531440
  0
VERTEX
  8
0
  6
CONTINUOUS
 10
3.574120
 20
3.509880
  0
SEQEND
  8
0
  0
SOLID
  8
0
 62
    15
 10
7.310600
 20
1.807520
 11
7.308840
 21
2.537920
 12
7.555240
 22
1.783760
 13
7.553480
 23
2.514160
  0
POLYLINE
  8
0
  6
CONTINUOUS
 66
     1
 40
0.000000
 41
0.000000
  0
VERTEX
  8
0
  6
CONTINUOUS
 10
7.310600
 20
1.807520
  0
VERTEX
  8
0
  6
CONTINUOUS
 10
7.308840
 20
2.537920
  0
VERTEX
  8
0
  6
CONTINUOUS
 10
7.553480
 20
2.514160
  0
VERTEX
  8
0
  6
CONTINUOUS
 10
7.555240
 20
1.783760
  0
VERTEX
  8
0
  6
CONTINUOUS
 10
7.310600
 20
1.807520
  0
SEQEND
  8
0
  0
SOLID
  8
0
 62
    15
 10
3.316720
 20
1.807520
 11
3.314960
 21
2.537920
 12
3.316720
 22
1.872200
 13
3.314960
 23
2.602160
  0
POLYLINE
  8
0
  6
CONTINUOUS
 66
     1
 40
0.000000
 41
0.000000
  0
VERTEX
  8
0
  6
CONTINUOUS
 10
3.316720
 20
1.807520
  0
VERTEX
  8
0
  6
CONTINUOUS
 10
3.314960
 20
2.537920
  0
VERTEX
  8
0
  6
CONTINUOUS
 10
3.314960
 20
2.602160
  0
VERTEX
  8
0
  6
CONTINUOUS
 10
3.316720
 20
1.872200
  0
VERTEX
  8
0
  6
CONTINUOUS
 10
3.316720
 20
1.807520
  0
SEQEND
  8
0
  0
SOLID
  8
0
 62
    15
 10
3.315840
 20
1.506560
 11
3.314080
 21
2.236520
 12
3.316720
 22
1.569480
 13
3.314960
 23
2.299880
  0
POLYLINE
  8
0
  6
CONTINUOUS
 66
     1
 40
0.000000
 41
0.000000
  0
VERTEX
  8
0
  6
CONTINUOUS
 10
3.315840
 20
1.506560
  0
VERTEX
  8
0
  6
CONTINUOUS
 10
3.314080
 20
2.236520
  0
VERTEX
  8
0
  6
CONTINUOUS
 10
3.314960
 20
2.299880
  0
VERTEX
  8
0
  6
CONTINUOUS
 10
3.316720
 20
1.569480
  0
VERTEX
  8
0
  6
CONTINUOUS
 10
3.315840
 20
1.506560
  0
SEQEND
  8
0
  0
SOLID
  8
0
 62
    15
 10
3.316720
 20
1.569480
 11
3.314960
 21
2.299880
 12
3.561800
 22
1.593240
 13
3.560040
 23
2.323640
  0
POLYLINE
  8
0
  6
CONTINUOUS
 66
     1
 40
0.000000
 41
0.000000
  0
VERTEX
  8
0
  6
CONTINUOUS
 10
3.316720
 20
1.569480
  0
VERTEX
  8
0
  6
CONTINUOUS
 10
3.314960
 20
2.299880
  0
VERTEX
  8
0
  6
CONTINUOUS
 10
3.560040
 20
2.323640
  0
VERTEX
  8
0
  6
CONTINUOUS
 10
3.561800
 20
1.593240
  0
VERTEX
  8
0
  6
CONTINUOUS
 10
3.316720
 20
1.569480
  0
SEQEND
  8
0
  0
SOLID
  8
0
 62
    15
 10
7.116560
 20
2.062720
 11
7.114800
 21
2.792680
 12
7.310600
 22
1.868680
 13
7.308840
 23
2.599080
  0
POLYLINE
  8
0
  6
CONTINUOUS
 66
     1
 40
0.000000
 41
0.000000
  0
VERTEX
  8
0
  6
CONTINUOUS
 10
7.116560
 20
2.062720
  0
VERTEX
  8
0
  6
CONTINUOUS
 10
7.114800
 20
2.792680
  0
VERTEX
  8
0
  6
CONTINUOUS
 10
7.308840
 20
2.599080
  0
VERTEX
  8
0
  6
CONTINUOUS
 10
7.310600
 20
1.868680
  0
VERTEX
  8
0
  6
CONTINUOUS
 10
7.116560
 20
2.062720
  0
SEQEND
  8
0
  0
SOLID
  8
0
 62
    15
 10
3.561800
 20
1.593240
 11
3.560040
 21
2.323640
 12
3.561800
 22
1.698840
 13
3.560040
 23
2.428800
  0
POLYLINE
  8
0
  6
CONTINUOUS
 66
     1
 40
0.000000
 41
0.000000
  0
VERTEX
  8
0
  6
CONTINUOUS
 10
3.561800
 20
1.593240
  0
VERTEX
  8
0
  6
CONTINUOUS
 10
3.560040
 20
2.323640
  0
VERTEX
  8
0
  6
CONTINUOUS
 10
3.560040
 20
2.428800
  0
VERTEX
  8
0
  6
CONTINUOUS
 10
3.561800
 20
1.698840
  0
VERTEX
  8
0
  6
CONTINUOUS
 10
3.561800
 20
1.593240
  0
SEQEND
  8
0
  0
SOLID
  8
0
 62
    15
 10
3.561800
 20
1.698840
 11
3.560040
 21
2.428800
 12
3.562680
 22
1.676840
 13
3.560920
 23
2.407240
  0
POLYLINE
  8
0
  6
CONTINUOUS
 66
     1
 40
0.000000
 41
0.000000
  0
VERTEX
  8
0
  6
CONTINUOUS
 10
3.561800
 20
1.698840
  0
VERTEX
  8
0
  6
CONTINUOUS
 10
3.560040
 20
2.428800
  0
VERTEX
  8
0
  6
CONTINUOUS
 10
3.560920
 20
2.407240
  0
VERTEX
  8
0
  6
CONTINUOUS
 10
3.562680
 20
1.676840
  0
VERTEX
  8
0
  6
CONTINUOUS
 10
3.561800
 20
1.698840
  0
SEQEND
  8
0
  0
SOLID
  8
0
 62
    15
 10
3.316720
 20
1.872200
 11
3.314960
 21
2.602160
 12
3.507240
 22
2.062720
 13
3.505480
 23
2.792680
  0
POLYLINE
  8
0
  6
CONTINUOUS
 66
     1
 40
0.000000
 41
0.000000
  0
VERTEX
  8
0
  6
CONTINUOUS
 10
3.316720
 20
1.872200
  0
VERTEX
  8
0
  6
CONTINUOUS
 10
3.314960
 20
2.602160
  0
VERTEX
  8
0
  6
CONTINUOUS
 10
3.505480
 20
2.792680
  0
VERTEX
  8
0
  6
CONTINUOUS
 10
3.507240
 20
2.062720
  0
VERTEX
  8
0
  6
CONTINUOUS
 10
3.316720
 20
1.872200
  0
SEQEND
  8
0
  0
SOLID
  8
0
 62
    15
 10
3.562680
 20
1.676840
 11
3.560920
 21
2.407240
 12
3.562680
 22
1.782440
 13
3.560920
 23
2.512400
  0
POLYLINE
  8
0
  6
CONTINUOUS
 66
     1
 40
0.000000
 41
0.000000
  0
VERTEX
  8
0
  6
CONTINUOUS
 10
3.562680
 20
1.676840
  0
VERTEX
  8
0
  6
CONTINUOUS
 10
3.560920
 20
2.407240
  0
VERTEX
  8
0
  6
CONTINUOUS
 10
3.560920
 20
2.512400
  0
VERTEX
  8
0
  6
CONTINUOUS
 10
3.562680
 20
1.782440
  0
VERTEX
  8
0
  6
CONTINUOUS
 10
3.562680
 20
1.676840
  0
SEQEND
  8
0
  0
SOLID
  8
0
 62
    15
 10
3.507240
 20
2.062720
 11
3.505480
 21
2.792680
 12
7.116560
 22
2.062720
 13
7.114800
 23
2.792680
  0
POLYLINE
  8
0
  6
CONTINUOUS
 66
     1
 40
0.000000
 41
0.000000
  0
VERTEX
  8
0
  6
CONTINUOUS
 10
3.507240
 20
2.062720
  0
VERTEX
  8
0
  6
CONTINUOUS
 10
3.505480
 20
2.792680
  0
VERTEX
  8
0
  6
CONTINUOUS
 10
7.114800
 20
2.792680
  0
VERTEX
  8
0
  6
CONTINUOUS
 10
7.116560
 20
2.062720
  0
VERTEX
  8
0
  6
CONTINUOUS
 10
3.507240
 20
2.062720
  0
SEQEND
  8
0
  0
POLYLINE
  8
0
  6
CONTINUOUS
 66
     1
 40
0.000000
 41
0.000000
  0
VERTEX
  8
0
  6
CONTINUOUS
 10
3.562680
 20
1.676840
  0
VERTEX
  8
0
  6
CONTINUOUS
 10
3.562680
 20
1.782440
  0
VERTEX
  8
0
  6
CONTINUOUS
 10
3.318040
 20
1.806200
  0
VERTEX
  8
0
  6
CONTINUOUS
 10
3.316720
 20
1.807520
  0
VERTEX
  8
0
  6
CONTINUOUS
 10
3.316720
 20
1.872200
  0
VERTEX
  8
0
  6
CONTINUOUS
 10
3.507240
 20
2.062720
  0
VERTEX
  8
0
  6
CONTINUOUS
 10
7.116560
 20
2.062720
  0
VERTEX
  8
0
  6
CONTINUOUS
 10
7.310600
 20
1.868680
  0
VERTEX
  8
0
  6
CONTINUOUS
 10
7.310600
 20
1.807520
  0
VERTEX
  8
0
  6
CONTINUOUS
 10
7.555240
 20
1.783760
  0
VERTEX
  8
0
  6
CONTINUOUS
 10
7.555240
 20
1.678600
  0
VERTEX
  8
0
  6
CONTINUOUS
 10
7.554360
 20
1.700160
  0
VERTEX
  8
0
  6
CONTINUOUS
 10
7.554360
 20
1.595000
  0
VERTEX
  8
0
  6
CONTINUOUS
 10
7.309720
 20
1.571240
  0
VERTEX
  8
0
  6
CONTINUOUS
 10
7.309720
 20
1.510080
  0
VERTEX
  8
0
  6
CONTINUOUS
 10
7.115680
 20
1.316040
  0
VERTEX
  8
0
  6
CONTINUOUS
 10
3.506360
 20
1.316040
  0
VERTEX
  8
0
  6
CONTINUOUS
 10
3.315840
 20
1.506560
  0
VERTEX
  8
0
  6
CONTINUOUS
 10
3.316720
 20
1.569480
  0
VERTEX
  8
0
  6
CONTINUOUS
 10
3.561800
 20
1.593240
  0
VERTEX
  8
0
  6
CONTINUOUS
 10
3.561800
 20
1.698840
  0
VERTEX
  8
0
  6
CONTINUOUS
 10
3.562680
 20
1.676840
  0
SEQEND
  8
0
  0
TEXT
  8
0
 10
5.139200
 20
1.112320
 40
0.138078
  1
BA  638
 41
1.000000
  7
SN0
 71
     0
 72
     5
 11
5.728491
 21
1.112320
  0
TEXT
  8
0
 10
4.983440
 20
0.920920
 40
0.138078
  1
3/4" x 4-1/4"
 41
1.000000
  7
SN0
 71
     0
 72
     5
 11
5.882290
 21
0.920920
  0
ENDSEC
  0
EOF
