  0
SECTION
  2
HEADER
  9
$ACADVER
  1
AC1006
  9
$EXTMIN
 10
1.531640
 20
0.510840
  9
$EXTMAX
 10
6.138880
 20
2.344760
  9
$LTSCALE
 40
0.044000
  9
$PDMODE
 70
    35
  9
$PDSIZE
 40
0.035200
  0
ENDSEC
  0
SECTION
  2
TABLES
  0
TABLE
  2
LTYPE
 70
     9
  0
LTYPE
  2
CONTINUOUS
 70
    64
  3
Solid line
 72
    65
 73
     0
 40
0.000000
  0
LTYPE
  2
DASHED
 70
    64
  3
__ __ __ __ __ __ __ __ __ __ __ __ __ __ __
 72
    65
 73
     2
 40
0.000330
 49
0.000220
 49
-0.000110
  0
LTYPE
  2
HIDDEN
 70
    64
  3
 _ _ _ _ _ _ _ _ _ _ _ _ _ _ _ _ _ _ _ _ _ _
 72
    65
 73
     2
 40
0.000165
 49
0.000110
 49
-0.000055
  0
LTYPE
  2
CENTER
 70
    64
  3
____ _ ____ _ ____ _ ____ _ ____ _ ____ _ ____
 72
    65
 73
     4
 40
0.000880
 49
0.000550
 49
-0.000110
 49
0.000110
 49
-0.000110
  0
LTYPE
  2
PHANTOM
 70
    64
  3
_____ _ _ _____ _ _ _____ _ _ _____ _ _ ____
 72
    65
 73
     6
 40
0.001100
 49
0.000550
 49
-0.000110
 49
0.000110
 49
-0.000110
 49
0.000110
 49
-0.000110
  0
LTYPE
  2
DOT
 70
    64
  3
...............................................
 72
    65
 73
     2
 40
0.000110
 49
0.000000
 49
-0.000110
  0
LTYPE
  2
DASHDOT
 70
    64
  3
__ . __ . __ . __ . __ . __ . __ . __ . __ . __
 72
    65
 73
     4
 40
0.000440
 49
0.000220
 49
-0.000110
 49
0.000000
 49
-0.000110
  0
LTYPE
  2
BORDER
 70
    64
  3
__ __ . __ __ . __ __ . __ __ . __ __ . __ __
 72
    65
 73
     6
 40
0.000770
 49
0.000220
 49
-0.000110
 49
0.000220
 49
-0.000110
 49
0.000000
 49
-0.000110
  0
LTYPE
  2
DIVIDE
 70
    64
  3
__ . . __ . . __ . . __ . . __ . . __ . . __
 72
    65
 73
     6
 40
0.000550
 49
0.000220
 49
-0.000110
 49
0.000000
 49
-0.000110
 49
0.000000
 49
-0.000110
  0
LTYPE
  2
DOTDOT
 70
    64
  3
 . .  . .  . .  . .  . .  . . 
 72
    65
 73
     5
 40
0.000242
 49
-0.000110
 49
0.000000
 49
-0.000110
 49
0.000000
 49
-0.000110
  0
ENDTAB
  0
TABLE
  2
STYLE
 70
     2
  0
STYLE
 70
     0
  2
SN0
 40
0.000000
 41
0.000440
 50
0.000000
 71
     0
 42
0.000000
  3
ROMAND
  0
STYLE
 70
    68
  2
SV0
 40
0.000000
 41
0.000440
 50
0.000000
 71
     0
 42
0.000000
  3
ROMAND
  0
ENDTAB
  0
TABLE
  2
LAYER
 70
     3
  0
LAYER
  2
FOREGROUND
 70
    64
 62
     7
  6
CONTINUOUS
  0
LAYER
  2
BACKGROUND
 70
    65
 62
    -7
  6
CONTINUOUS
  0
LAYER
  2
0
 70
    64
 62
     7
  6
CONTINUOUS
  0
ENDTAB
  0
ENDSEC
  0
SECTION
  2
ENTITIES
  0
POLYLINE
  8
FOREGROUND
  6
CONTINUOUS
 66
     1
 40
0.000000
 41
0.000000
  0
VERTEX
  8
FOREGROUND
  6
CONTINUOUS
 10
0.000000
 20
2.855600
  0
VERTEX
  8
FOREGROUND
  6
CONTINUOUS
 10
8.499920
 20
2.855600
  0
VERTEX
  8
FOREGROUND
  6
CONTINUOUS
 10
8.499920
 20
-8.144400
  0
VERTEX
  8
FOREGROUND
  6
CONTINUOUS
 10
0.000000
 20
-8.144400
  0
VERTEX
  8
FOREGROUND
  6
CONTINUOUS
 10
0.000000
 20
2.855600
  0
SEQEND
  8
0
  0
POLYLINE
  8
FOREGROUND
  6
CONTINUOUS
 66
     1
 40
0.000000
 41
0.000000
  0
VERTEX
  8
FOREGROUND
  6
CONTINUOUS
 10
0.000000
 20
2.855600
  0
VERTEX
  8
FOREGROUND
  6
CONTINUOUS
 10
8.499920
 20
2.855600
  0
VERTEX
  8
FOREGROUND
  6
CONTINUOUS
 10
8.499920
 20
-8.144400
  0
VERTEX
  8
FOREGROUND
  6
CONTINUOUS
 10
0.000000
 20
-8.144400
  0
VERTEX
  8
FOREGROUND
  6
CONTINUOUS
 10
0.000000
 20
2.855600
  0
SEQEND
  8
0
  0
SOLID
  8
0
 62
    15
 10
3.137200
 20
1.612160
 11
3.793240
 21
1.983960
 12
3.145120
 22
1.534280
 13
3.801160
 23
1.906080
  0
POLYLINE
  8
0
  6
CONTINUOUS
 66
     1
 40
0.000000
 41
0.000000
  0
VERTEX
  8
0
  6
CONTINUOUS
 10
3.137200
 20
1.612160
  0
VERTEX
  8
0
  6
CONTINUOUS
 10
3.793240
 20
1.983960
  0
VERTEX
  8
0
  6
CONTINUOUS
 10
3.801160
 20
1.906080
  0
VERTEX
  8
0
  6
CONTINUOUS
 10
3.145120
 20
1.534280
  0
VERTEX
  8
0
  6
CONTINUOUS
 10
3.137200
 20
1.612160
  0
SEQEND
  8
0
  0
SOLID
  8
0
 62
    15
 10
2.320560
 20
1.954480
 11
2.976600
 21
2.326280
 12
2.320560
 22
1.652640
 13
2.976600
 23
2.024880
  0
POLYLINE
  8
0
  6
CONTINUOUS
 66
     1
 40
0.000000
 41
0.000000
  0
VERTEX
  8
0
  6
CONTINUOUS
 10
2.320560
 20
1.954480
  0
VERTEX
  8
0
  6
CONTINUOUS
 10
2.976600
 20
2.326280
  0
VERTEX
  8
0
  6
CONTINUOUS
 10
2.976600
 20
2.024880
  0
VERTEX
  8
0
  6
CONTINUOUS
 10
2.320560
 20
1.652640
  0
VERTEX
  8
0
  6
CONTINUOUS
 10
2.320560
 20
1.954480
  0
SEQEND
  8
0
  0
SOLID
  8
0
 62
    15
 10
2.696320
 20
1.915760
 11
3.352360
 21
2.288000
 12
2.758360
 22
1.921040
 13
3.414400
 23
2.292840
  0
POLYLINE
  8
0
  6
CONTINUOUS
 66
     1
 40
0.000000
 41
0.000000
  0
VERTEX
  8
0
  6
CONTINUOUS
 10
2.696320
 20
1.915760
  0
VERTEX
  8
0
  6
CONTINUOUS
 10
3.352360
 20
2.288000
  0
VERTEX
  8
0
  6
CONTINUOUS
 10
3.414400
 20
2.292840
  0
VERTEX
  8
0
  6
CONTINUOUS
 10
2.758360
 20
1.921040
  0
VERTEX
  8
0
  6
CONTINUOUS
 10
2.696320
 20
1.915760
  0
SEQEND
  8
0
  0
SOLID
  8
0
 62
    15
 10
2.320560
 20
1.652640
 11
2.976600
 21
2.024880
 12
2.390080
 22
1.652640
 13
3.046120
 23
2.024880
  0
POLYLINE
  8
0
  6
CONTINUOUS
 66
     1
 40
0.000000
 41
0.000000
  0
VERTEX
  8
0
  6
CONTINUOUS
 10
2.320560
 20
1.652640
  0
VERTEX
  8
0
  6
CONTINUOUS
 10
2.976600
 20
2.024880
  0
VERTEX
  8
0
  6
CONTINUOUS
 10
3.046120
 20
2.024880
  0
VERTEX
  8
0
  6
CONTINUOUS
 10
2.390080
 20
1.652640
  0
VERTEX
  8
0
  6
CONTINUOUS
 10
2.320560
 20
1.652640
  0
SEQEND
  8
0
  0
SOLID
  8
0
 62
    15
 10
2.836240
 20
1.913120
 11
3.492280
 21
2.284920
 12
2.908840
 22
1.890680
 13
3.564880
 23
2.262480
  0
POLYLINE
  8
0
  6
CONTINUOUS
 66
     1
 40
0.000000
 41
0.000000
  0
VERTEX
  8
0
  6
CONTINUOUS
 10
2.836240
 20
1.913120
  0
VERTEX
  8
0
  6
CONTINUOUS
 10
3.492280
 20
2.284920
  0
VERTEX
  8
0
  6
CONTINUOUS
 10
3.564880
 20
2.262480
  0
VERTEX
  8
0
  6
CONTINUOUS
 10
2.908840
 20
1.890680
  0
VERTEX
  8
0
  6
CONTINUOUS
 10
2.836240
 20
1.913120
  0
SEQEND
  8
0
  0
SOLID
  8
0
 62
    15
 10
2.908840
 20
1.890680
 11
3.564880
 21
2.262480
 12
2.974400
 22
1.854600
 13
3.630440
 23
2.226840
  0
POLYLINE
  8
0
  6
CONTINUOUS
 66
     1
 40
0.000000
 41
0.000000
  0
VERTEX
  8
0
  6
CONTINUOUS
 10
2.908840
 20
1.890680
  0
VERTEX
  8
0
  6
CONTINUOUS
 10
3.564880
 20
2.262480
  0
VERTEX
  8
0
  6
CONTINUOUS
 10
3.630440
 20
2.226840
  0
VERTEX
  8
0
  6
CONTINUOUS
 10
2.974400
 20
1.854600
  0
VERTEX
  8
0
  6
CONTINUOUS
 10
2.908840
 20
1.890680
  0
SEQEND
  8
0
  0
SOLID
  8
0
 62
    15
 10
2.974400
 20
1.854600
 11
3.630440
 21
2.226840
 12
3.031600
 22
1.807520
 13
3.687640
 23
2.179760
  0
POLYLINE
  8
0
  6
CONTINUOUS
 66
     1
 40
0.000000
 41
0.000000
  0
VERTEX
  8
0
  6
CONTINUOUS
 10
2.974400
 20
1.854600
  0
VERTEX
  8
0
  6
CONTINUOUS
 10
3.630440
 20
2.226840
  0
VERTEX
  8
0
  6
CONTINUOUS
 10
3.687640
 20
2.179760
  0
VERTEX
  8
0
  6
CONTINUOUS
 10
3.031600
 20
1.807520
  0
VERTEX
  8
0
  6
CONTINUOUS
 10
2.974400
 20
1.854600
  0
SEQEND
  8
0
  0
SOLID
  8
0
 62
    15
 10
3.031600
 20
1.807520
 11
3.687640
 21
2.179760
 12
3.079120
 22
1.750320
 13
3.734720
 23
2.122560
  0
POLYLINE
  8
0
  6
CONTINUOUS
 66
     1
 40
0.000000
 41
0.000000
  0
VERTEX
  8
0
  6
CONTINUOUS
 10
3.031600
 20
1.807520
  0
VERTEX
  8
0
  6
CONTINUOUS
 10
3.687640
 20
2.179760
  0
VERTEX
  8
0
  6
CONTINUOUS
 10
3.734720
 20
2.122560
  0
VERTEX
  8
0
  6
CONTINUOUS
 10
3.079120
 20
1.750320
  0
VERTEX
  8
0
  6
CONTINUOUS
 10
3.031600
 20
1.807520
  0
SEQEND
  8
0
  0
SOLID
  8
0
 62
    15
 10
3.079120
 20
1.750320
 11
3.734720
 21
2.122560
 12
3.114760
 22
1.684760
 13
3.770800
 23
2.056560
  0
POLYLINE
  8
0
  6
CONTINUOUS
 66
     1
 40
0.000000
 41
0.000000
  0
VERTEX
  8
0
  6
CONTINUOUS
 10
3.079120
 20
1.750320
  0
VERTEX
  8
0
  6
CONTINUOUS
 10
3.734720
 20
2.122560
  0
VERTEX
  8
0
  6
CONTINUOUS
 10
3.770800
 20
2.056560
  0
VERTEX
  8
0
  6
CONTINUOUS
 10
3.114760
 20
1.684760
  0
VERTEX
  8
0
  6
CONTINUOUS
 10
3.079120
 20
1.750320
  0
SEQEND
  8
0
  0
SOLID
  8
0
 62
    15
 10
3.114760
 20
1.684760
 11
3.770800
 21
2.056560
 12
3.137200
 22
1.612160
 13
3.793240
 23
1.983960
  0
POLYLINE
  8
0
  6
CONTINUOUS
 66
     1
 40
0.000000
 41
0.000000
  0
VERTEX
  8
0
  6
CONTINUOUS
 10
3.114760
 20
1.684760
  0
VERTEX
  8
0
  6
CONTINUOUS
 10
3.770800
 20
2.056560
  0
VERTEX
  8
0
  6
CONTINUOUS
 10
3.793240
 20
1.983960
  0
VERTEX
  8
0
  6
CONTINUOUS
 10
3.137200
 20
1.612160
  0
VERTEX
  8
0
  6
CONTINUOUS
 10
3.114760
 20
1.684760
  0
SEQEND
  8
0
  0
SOLID
  8
0
 62
    15
 10
2.583240
 20
1.879240
 11
3.238840
 21
2.251040
 12
2.637800
 22
1.901680
 13
3.293840
 23
2.273920
  0
POLYLINE
  8
0
  6
CONTINUOUS
 66
     1
 40
0.000000
 41
0.000000
  0
VERTEX
  8
0
  6
CONTINUOUS
 10
2.583240
 20
1.879240
  0
VERTEX
  8
0
  6
CONTINUOUS
 10
3.238840
 20
2.251040
  0
VERTEX
  8
0
  6
CONTINUOUS
 10
3.293840
 20
2.273920
  0
VERTEX
  8
0
  6
CONTINUOUS
 10
2.637800
 20
1.901680
  0
VERTEX
  8
0
  6
CONTINUOUS
 10
2.583240
 20
1.879240
  0
SEQEND
  8
0
  0
SOLID
  8
0
 62
    15
 10
3.145120
 20
1.534280
 11
3.801160
 21
1.906080
 12
3.137200
 22
1.455960
 13
3.793240
 23
1.828200
  0
POLYLINE
  8
0
  6
CONTINUOUS
 66
     1
 40
0.000000
 41
0.000000
  0
VERTEX
  8
0
  6
CONTINUOUS
 10
3.145120
 20
1.534280
  0
VERTEX
  8
0
  6
CONTINUOUS
 10
3.801160
 20
1.906080
  0
VERTEX
  8
0
  6
CONTINUOUS
 10
3.793240
 20
1.828200
  0
VERTEX
  8
0
  6
CONTINUOUS
 10
3.137200
 20
1.455960
  0
VERTEX
  8
0
  6
CONTINUOUS
 10
3.145120
 20
1.534280
  0
SEQEND
  8
0
  0
SOLID
  8
0
 62
    15
 10
2.697200
 20
1.147520
 11
3.353240
 21
1.519320
 12
2.697200
 22
0.942040
 13
3.353240
 23
1.313840
  0
POLYLINE
  8
0
  6
CONTINUOUS
 66
     1
 40
0.000000
 41
0.000000
  0
VERTEX
  8
0
  6
CONTINUOUS
 10
2.697200
 20
1.147520
  0
VERTEX
  8
0
  6
CONTINUOUS
 10
3.353240
 20
1.519320
  0
VERTEX
  8
0
  6
CONTINUOUS
 10
3.353240
 20
1.313840
  0
VERTEX
  8
0
  6
CONTINUOUS
 10
2.697200
 20
0.942040
  0
VERTEX
  8
0
  6
CONTINUOUS
 10
2.697200
 20
1.147520
  0
SEQEND
  8
0
  0
SOLID
  8
0
 62
    15
 10
3.114760
 20
1.383360
 11
3.770800
 21
1.755600
 12
3.079120
 22
1.317800
 13
3.734720
 23
1.690040
  0
POLYLINE
  8
0
  6
CONTINUOUS
 66
     1
 40
0.000000
 41
0.000000
  0
VERTEX
  8
0
  6
CONTINUOUS
 10
3.114760
 20
1.383360
  0
VERTEX
  8
0
  6
CONTINUOUS
 10
3.770800
 20
1.755600
  0
VERTEX
  8
0
  6
CONTINUOUS
 10
3.734720
 20
1.690040
  0
VERTEX
  8
0
  6
CONTINUOUS
 10
3.079120
 20
1.317800
  0
VERTEX
  8
0
  6
CONTINUOUS
 10
3.114760
 20
1.383360
  0
SEQEND
  8
0
  0
SOLID
  8
0
 62
    15
 10
3.079120
 20
1.317800
 11
3.734720
 21
1.690040
 12
3.031600
 22
1.260600
 13
3.687640
 23
1.632840
  0
POLYLINE
  8
0
  6
CONTINUOUS
 66
     1
 40
0.000000
 41
0.000000
  0
VERTEX
  8
0
  6
CONTINUOUS
 10
3.079120
 20
1.317800
  0
VERTEX
  8
0
  6
CONTINUOUS
 10
3.734720
 20
1.690040
  0
VERTEX
  8
0
  6
CONTINUOUS
 10
3.687640
 20
1.632840
  0
VERTEX
  8
0
  6
CONTINUOUS
 10
3.031600
 20
1.260600
  0
VERTEX
  8
0
  6
CONTINUOUS
 10
3.079120
 20
1.317800
  0
SEQEND
  8
0
  0
SOLID
  8
0
 62
    15
 10
3.031600
 20
1.260600
 11
3.687640
 21
1.632840
 12
2.974400
 22
1.213520
 13
3.630440
 23
1.585320
  0
POLYLINE
  8
0
  6
CONTINUOUS
 66
     1
 40
0.000000
 41
0.000000
  0
VERTEX
  8
0
  6
CONTINUOUS
 10
3.031600
 20
1.260600
  0
VERTEX
  8
0
  6
CONTINUOUS
 10
3.687640
 20
1.632840
  0
VERTEX
  8
0
  6
CONTINUOUS
 10
3.630440
 20
1.585320
  0
VERTEX
  8
0
  6
CONTINUOUS
 10
2.974400
 20
1.213520
  0
VERTEX
  8
0
  6
CONTINUOUS
 10
3.031600
 20
1.260600
  0
SEQEND
  8
0
  0
SOLID
  8
0
 62
    15
 10
3.137200
 20
1.455960
 11
3.793240
 21
1.828200
 12
3.114760
 22
1.383360
 13
3.770800
 23
1.755600
  0
POLYLINE
  8
0
  6
CONTINUOUS
 66
     1
 40
0.000000
 41
0.000000
  0
VERTEX
  8
0
  6
CONTINUOUS
 10
3.137200
 20
1.455960
  0
VERTEX
  8
0
  6
CONTINUOUS
 10
3.793240
 20
1.828200
  0
VERTEX
  8
0
  6
CONTINUOUS
 10
3.770800
 20
1.755600
  0
VERTEX
  8
0
  6
CONTINUOUS
 10
3.114760
 20
1.383360
  0
VERTEX
  8
0
  6
CONTINUOUS
 10
3.137200
 20
1.455960
  0
SEQEND
  8
0
  0
SOLID
  8
0
 62
    15
 10
1.532520
 20
1.954480
 11
2.188120
 21
2.326280
 12
2.320560
 22
1.954480
 13
2.976600
 23
2.326280
  0
POLYLINE
  8
0
  6
CONTINUOUS
 66
     1
 40
0.000000
 41
0.000000
  0
VERTEX
  8
0
  6
CONTINUOUS
 10
1.532520
 20
1.954480
  0
VERTEX
  8
0
  6
CONTINUOUS
 10
2.188120
 20
2.326280
  0
VERTEX
  8
0
  6
CONTINUOUS
 10
2.976600
 20
2.326280
  0
VERTEX
  8
0
  6
CONTINUOUS
 10
2.320560
 20
1.954480
  0
VERTEX
  8
0
  6
CONTINUOUS
 10
1.532520
 20
1.954480
  0
SEQEND
  8
0
  0
SOLID
  8
0
 62
    15
 10
2.637800
 20
1.901680
 11
3.293840
 21
2.273920
 12
2.696320
 22
1.915760
 13
3.352360
 23
2.288000
  0
POLYLINE
  8
0
  6
CONTINUOUS
 66
     1
 40
0.000000
 41
0.000000
  0
VERTEX
  8
0
  6
CONTINUOUS
 10
2.637800
 20
1.901680
  0
VERTEX
  8
0
  6
CONTINUOUS
 10
3.293840
 20
2.273920
  0
VERTEX
  8
0
  6
CONTINUOUS
 10
3.352360
 20
2.288000
  0
VERTEX
  8
0
  6
CONTINUOUS
 10
2.696320
 20
1.915760
  0
VERTEX
  8
0
  6
CONTINUOUS
 10
2.637800
 20
1.901680
  0
SEQEND
  8
0
  0
SOLID
  8
0
 62
    15
 10
2.758360
 20
1.921040
 11
3.414400
 21
2.292840
 12
2.836240
 22
1.913120
 13
3.492280
 23
2.284920
  0
POLYLINE
  8
0
  6
CONTINUOUS
 66
     1
 40
0.000000
 41
0.000000
  0
VERTEX
  8
0
  6
CONTINUOUS
 10
2.758360
 20
1.921040
  0
VERTEX
  8
0
  6
CONTINUOUS
 10
3.414400
 20
2.292840
  0
VERTEX
  8
0
  6
CONTINUOUS
 10
3.492280
 20
2.284920
  0
VERTEX
  8
0
  6
CONTINUOUS
 10
2.836240
 20
1.913120
  0
VERTEX
  8
0
  6
CONTINUOUS
 10
2.758360
 20
1.921040
  0
SEQEND
  8
0
  0
POLYLINE
  8
0
  6
CONTINUOUS
 66
     1
 40
0.000000
 41
0.000000
  0
VERTEX
  8
0
  6
CONTINUOUS
 10
2.393600
 20
1.663640
  0
VERTEX
  8
0
  6
CONTINUOUS
 10
2.417800
 20
1.717760
  0
VERTEX
  8
0
  6
CONTINUOUS
 10
2.449480
 20
1.767040
  0
VERTEX
  8
0
  6
CONTINUOUS
 10
2.488200
 20
1.811040
  0
VERTEX
  8
0
  6
CONTINUOUS
 10
2.533080
 20
1.848440
  0
VERTEX
  8
0
  6
CONTINUOUS
 10
2.583240
 20
1.879240
  0
VERTEX
  8
0
  6
CONTINUOUS
 10
2.637800
 20
1.901680
  0
VERTEX
  8
0
  6
CONTINUOUS
 10
2.696320
 20
1.915760
  0
VERTEX
  8
0
  6
CONTINUOUS
 10
2.758360
 20
1.921040
  0
VERTEX
  8
0
  6
CONTINUOUS
 10
2.836240
 20
1.913120
  0
VERTEX
  8
0
  6
CONTINUOUS
 10
2.908840
 20
1.890680
  0
VERTEX
  8
0
  6
CONTINUOUS
 10
2.974400
 20
1.854600
  0
VERTEX
  8
0
  6
CONTINUOUS
 10
3.031600
 20
1.807520
  0
VERTEX
  8
0
  6
CONTINUOUS
 10
3.079120
 20
1.750320
  0
VERTEX
  8
0
  6
CONTINUOUS
 10
3.114760
 20
1.684760
  0
VERTEX
  8
0
  6
CONTINUOUS
 10
3.137200
 20
1.612160
  0
VERTEX
  8
0
  6
CONTINUOUS
 10
3.145120
 20
1.534280
  0
VERTEX
  8
0
  6
CONTINUOUS
 10
3.137200
 20
1.455960
  0
VERTEX
  8
0
  6
CONTINUOUS
 10
3.114760
 20
1.383360
  0
VERTEX
  8
0
  6
CONTINUOUS
 10
3.079120
 20
1.317800
  0
VERTEX
  8
0
  6
CONTINUOUS
 10
3.031600
 20
1.260600
  0
VERTEX
  8
0
  6
CONTINUOUS
 10
2.974400
 20
1.213520
  0
VERTEX
  8
0
  6
CONTINUOUS
 10
2.908840
 20
1.177880
  0
VERTEX
  8
0
  6
CONTINUOUS
 10
2.836240
 20
1.155000
  0
VERTEX
  8
0
  6
CONTINUOUS
 10
2.758360
 20
1.147520
  0
VERTEX
  8
0
  6
CONTINUOUS
 10
2.697200
 20
1.147520
  0
VERTEX
  8
0
  6
CONTINUOUS
 10
2.697200
 20
0.942040
  0
VERTEX
  8
0
  6
CONTINUOUS
 10
1.532520
 20
0.942040
  0
VERTEX
  8
0
  6
CONTINUOUS
 10
1.532520
 20
1.954480
  0
VERTEX
  8
0
  6
CONTINUOUS
 10
2.320560
 20
1.954480
  0
VERTEX
  8
0
  6
CONTINUOUS
 10
2.320560
 20
1.652640
  0
VERTEX
  8
0
  6
CONTINUOUS
 10
2.390080
 20
1.652640
  0
VERTEX
  8
0
  6
CONTINUOUS
 10
2.393600
 20
1.663640
  0
SEQEND
  8
0
  0
TEXT
  8
0
 10
2.370720
 20
0.746680
 40
0.138318
  1
BA  637
 41
1.000000
  7
SN0
 71
     0
 72
     5
 11
2.961829
 21
0.746680
  0
TEXT
  8
0
 10
2.284040
 20
0.555280
 40
0.138318
  1
1" x 1-5/8"
 41
1.000000
  7
SN0
 71
     0
 72
     5
 11
3.048381
 21
0.555280
  0
POLYLINE
  8
0
  6
CONTINUOUS
 66
     1
 40
0.014080
 41
0.014080
  0
VERTEX
  8
0
  6
CONTINUOUS
 10
5.376360
 20
2.035440
  0
VERTEX
  8
0
  6
CONTINUOUS
 10
5.307280
 20
2.035440
  0
VERTEX
  8
0
  6
CONTINUOUS
 10
5.307280
 20
2.336840
  0
VERTEX
  8
0
  6
CONTINUOUS
 10
4.518800
 20
2.336840
  0
VERTEX
  8
0
  6
CONTINUOUS
 10
4.518800
 20
1.324400
  0
VERTEX
  8
0
  6
CONTINUOUS
 10
5.683920
 20
1.324400
  0
VERTEX
  8
0
  6
CONTINUOUS
 10
5.683920
 20
1.529880
  0
VERTEX
  8
0
  6
CONTINUOUS
 10
5.764440
 20
1.530320
  0
VERTEX
  8
0
  6
CONTINUOUS
 10
5.803600
 20
1.534280
  0
VERTEX
  8
0
  6
CONTINUOUS
 10
5.841440
 20
1.542200
  0
VERTEX
  8
0
  6
CONTINUOUS
 10
5.877520
 20
1.553200
  0
VERTEX
  8
0
  6
CONTINUOUS
 10
5.929000
 20
1.576520
  0
VERTEX
  8
0
  6
CONTINUOUS
 10
5.961120
 20
1.595880
  0
VERTEX
  8
0
  6
CONTINUOUS
 10
6.004680
 20
1.630640
  0
VERTEX
  8
0
  6
CONTINUOUS
 10
6.031080
 20
1.656600
  0
VERTEX
  8
0
  6
CONTINUOUS
 10
6.054840
 20
1.685200
  0
VERTEX
  8
0
  6
CONTINUOUS
 10
6.075520
 20
1.716000
  0
VERTEX
  8
0
  6
CONTINUOUS
 10
6.101040
 20
1.766160
  0
VERTEX
  8
0
  6
CONTINUOUS
 10
6.114240
 20
1.801800
  0
VERTEX
  8
0
  6
CONTINUOUS
 10
6.127000
 20
1.857680
  0
VERTEX
  8
0
  6
CONTINUOUS
 10
6.130960
 20
1.896840
  0
VERTEX
  8
0
  6
CONTINUOUS
 10
6.130960
 20
1.936440
  0
VERTEX
  8
0
  6
CONTINUOUS
 10
6.127000
 20
1.975600
  0
VERTEX
  8
0
  6
CONTINUOUS
 10
6.114240
 20
2.031920
  0
VERTEX
  8
0
  6
CONTINUOUS
 10
6.101040
 20
2.067120
  0
VERTEX
  8
0
  6
CONTINUOUS
 10
6.075520
 20
2.117280
  0
VERTEX
  8
0
  6
CONTINUOUS
 10
6.054840
 20
2.148080
  0
VERTEX
  8
0
  6
CONTINUOUS
 10
6.018320
 20
2.190320
  0
VERTEX
  8
0
  6
CONTINUOUS
 10
5.976080
 20
2.226840
  0
VERTEX
  8
0
  6
CONTINUOUS
 10
5.945280
 20
2.247520
  0
VERTEX
  8
0
  6
CONTINUOUS
 10
5.895120
 20
2.273040
  0
VERTEX
  8
0
  6
CONTINUOUS
 10
5.859920
 20
2.286240
  0
VERTEX
  8
0
  6
CONTINUOUS
 10
5.803600
 20
2.299000
  0
VERTEX
  8
0
  6
CONTINUOUS
 10
5.764440
 20
2.302960
  0
VERTEX
  8
0
  6
CONTINUOUS
 10
5.728800
 20
2.302960
  0
VERTEX
  8
0
  6
CONTINUOUS
 10
5.698000
 20
2.300760
  0
VERTEX
  8
0
  6
CONTINUOUS
 10
5.653120
 20
2.292400
  0
VERTEX
  8
0
  6
CONTINUOUS
 10
5.624080
 20
2.284480
  0
VERTEX
  8
0
  6
CONTINUOUS
 10
5.596360
 20
2.273920
  0
VERTEX
  8
0
  6
CONTINUOUS
 10
5.569520
 20
2.261600
  0
VERTEX
  8
0
  6
CONTINUOUS
 10
5.544000
 20
2.247520
  0
VERTEX
  8
0
  6
CONTINUOUS
 10
5.519360
 20
2.231240
  0
VERTEX
  8
0
  6
CONTINUOUS
 10
5.474480
 20
2.193840
  0
VERTEX
  8
0
  6
CONTINUOUS
 10
5.454680
 20
2.172720
  0
VERTEX
  8
0
  6
CONTINUOUS
 10
5.436200
 20
2.149840
  0
VERTEX
  8
0
  6
CONTINUOUS
 10
5.419480
 20
2.126080
  0
VERTEX
  8
0
  6
CONTINUOUS
 10
5.404520
 20
2.100560
  0
VERTEX
  8
0
  6
CONTINUOUS
 10
5.391320
 20
2.074160
  0
VERTEX
  8
0
  6
CONTINUOUS
 10
5.376360
 20
2.035440
  0
SEQEND
  8
0
  0
ENDSEC
  0
EOF
