  0
SECTION
  2
HEADER
  9
$ACADVER
  1
AC1006
  9
$EXTMIN
 10
1.948760
 20
0.561440
  9
$EXTMAX
 10
7.580760
 20
3.644960
  9
$LTSCALE
 40
0.044000
  9
$PDMODE
 70
    35
  9
$PDSIZE
 40
0.035200
  0
ENDSEC
  0
SECTION
  2
TABLES
  0
TABLE
  2
LTYPE
 70
     9
  0
LTYPE
  2
CONTINUOUS
 70
    64
  3
Solid line
 72
    65
 73
     0
 40
0.000000
  0
LTYPE
  2
DASHED
 70
    64
  3
__ __ __ __ __ __ __ __ __ __ __ __ __ __ __
 72
    65
 73
     2
 40
0.000330
 49
0.000220
 49
-0.000110
  0
LTYPE
  2
HIDDEN
 70
    64
  3
 _ _ _ _ _ _ _ _ _ _ _ _ _ _ _ _ _ _ _ _ _ _
 72
    65
 73
     2
 40
0.000165
 49
0.000110
 49
-0.000055
  0
LTYPE
  2
CENTER
 70
    64
  3
____ _ ____ _ ____ _ ____ _ ____ _ ____ _ ____
 72
    65
 73
     4
 40
0.000880
 49
0.000550
 49
-0.000110
 49
0.000110
 49
-0.000110
  0
LTYPE
  2
PHANTOM
 70
    64
  3
_____ _ _ _____ _ _ _____ _ _ _____ _ _ ____
 72
    65
 73
     6
 40
0.001100
 49
0.000550
 49
-0.000110
 49
0.000110
 49
-0.000110
 49
0.000110
 49
-0.000110
  0
LTYPE
  2
DOT
 70
    64
  3
...............................................
 72
    65
 73
     2
 40
0.000110
 49
0.000000
 49
-0.000110
  0
LTYPE
  2
DASHDOT
 70
    64
  3
__ . __ . __ . __ . __ . __ . __ . __ . __ . __
 72
    65
 73
     4
 40
0.000440
 49
0.000220
 49
-0.000110
 49
0.000000
 49
-0.000110
  0
LTYPE
  2
BORDER
 70
    64
  3
__ __ . __ __ . __ __ . __ __ . __ __ . __ __
 72
    65
 73
     6
 40
0.000770
 49
0.000220
 49
-0.000110
 49
0.000220
 49
-0.000110
 49
0.000000
 49
-0.000110
  0
LTYPE
  2
DIVIDE
 70
    64
  3
__ . . __ . . __ . . __ . . __ . . __ . . __
 72
    65
 73
     6
 40
0.000550
 49
0.000220
 49
-0.000110
 49
0.000000
 49
-0.000110
 49
0.000000
 49
-0.000110
  0
LTYPE
  2
DOTDOT
 70
    64
  3
 . .  . .  . .  . .  . .  . . 
 72
    65
 73
     5
 40
0.000242
 49
-0.000110
 49
0.000000
 49
-0.000110
 49
0.000000
 49
-0.000110
  0
ENDTAB
  0
TABLE
  2
STYLE
 70
     2
  0
STYLE
 70
     0
  2
SN0
 40
0.000000
 41
0.000440
 50
0.000000
 71
     0
 42
0.000000
  3
ROMAND
  0
STYLE
 70
    68
  2
SV0
 40
0.000000
 41
0.000440
 50
0.000000
 71
     0
 42
0.000000
  3
ROMAND
  0
ENDTAB
  0
TABLE
  2
LAYER
 70
     3
  0
LAYER
  2
FOREGROUND
 70
    64
 62
     7
  6
CONTINUOUS
  0
LAYER
  2
BACKGROUND
 70
    65
 62
    -7
  6
CONTINUOUS
  0
LAYER
  2
0
 70
    64
 62
     7
  6
CONTINUOUS
  0
ENDTAB
  0
ENDSEC
  0
SECTION
  2
ENTITIES
  0
POLYLINE
  8
FOREGROUND
  6
CONTINUOUS
 66
     1
 40
0.000000
 41
0.000000
  0
VERTEX
  8
FOREGROUND
  6
CONTINUOUS
 10
0.000000
 20
4.206400
  0
VERTEX
  8
FOREGROUND
  6
CONTINUOUS
 10
8.499920
 20
4.206400
  0
VERTEX
  8
FOREGROUND
  6
CONTINUOUS
 10
8.499920
 20
-6.793600
  0
VERTEX
  8
FOREGROUND
  6
CONTINUOUS
 10
0.000000
 20
-6.793600
  0
VERTEX
  8
FOREGROUND
  6
CONTINUOUS
 10
0.000000
 20
4.206400
  0
SEQEND
  8
0
  0
POLYLINE
  8
FOREGROUND
  6
CONTINUOUS
 66
     1
 40
0.000000
 41
0.000000
  0
VERTEX
  8
FOREGROUND
  6
CONTINUOUS
 10
0.000000
 20
4.206400
  0
VERTEX
  8
FOREGROUND
  6
CONTINUOUS
 10
8.499920
 20
4.206400
  0
VERTEX
  8
FOREGROUND
  6
CONTINUOUS
 10
8.499920
 20
-6.793600
  0
VERTEX
  8
FOREGROUND
  6
CONTINUOUS
 10
0.000000
 20
-6.793600
  0
VERTEX
  8
FOREGROUND
  6
CONTINUOUS
 10
0.000000
 20
4.206400
  0
SEQEND
  8
0
  0
POLYLINE
  8
0
  6
CONTINUOUS
 66
     1
 40
0.014080
 41
0.014080
  0
VERTEX
  8
0
  6
CONTINUOUS
 10
6.338200
 20
3.234000
  0
VERTEX
  8
0
  6
CONTINUOUS
 10
6.500560
 20
3.233560
  0
VERTEX
  8
0
  6
CONTINUOUS
 10
6.647520
 20
3.227840
  0
VERTEX
  8
0
  6
CONTINUOUS
 10
6.779960
 20
3.217280
  0
VERTEX
  8
0
  6
CONTINUOUS
 10
6.898760
 20
3.202760
  0
VERTEX
  8
0
  6
CONTINUOUS
 10
6.970480
 20
3.190880
  0
VERTEX
  8
0
  6
CONTINUOUS
 10
7.067720
 20
3.169760
  0
VERTEX
  8
0
  6
CONTINUOUS
 10
7.153520
 20
3.145120
  0
VERTEX
  8
0
  6
CONTINUOUS
 10
7.228320
 20
3.117840
  0
VERTEX
  8
0
  6
CONTINUOUS
 10
7.272760
 20
3.098040
  0
VERTEX
  8
0
  6
CONTINUOUS
 10
7.330840
 20
3.066360
  0
VERTEX
  8
0
  6
CONTINUOUS
 10
7.380560
 20
3.032480
  0
VERTEX
  8
0
  6
CONTINUOUS
 10
7.421920
 20
2.997280
  0
VERTEX
  8
0
  6
CONTINUOUS
 10
7.456680
 20
2.960760
  0
VERTEX
  8
0
  6
CONTINUOUS
 10
7.484400
 20
2.923360
  0
VERTEX
  8
0
  6
CONTINUOUS
 10
7.499800
 20
2.898280
  0
VERTEX
  8
0
  6
CONTINUOUS
 10
7.513000
 20
2.872760
  0
VERTEX
  8
0
  6
CONTINUOUS
 10
7.533680
 20
2.822160
  0
VERTEX
  8
0
  6
CONTINUOUS
 10
7.547760
 20
2.772000
  0
VERTEX
  8
0
  6
CONTINUOUS
 10
7.561400
 20
2.700720
  0
VERTEX
  8
0
  6
CONTINUOUS
 10
7.572840
 20
2.625920
  0
VERTEX
  8
0
  6
CONTINUOUS
 10
7.573280
 20
2.603920
  0
VERTEX
  8
0
  6
CONTINUOUS
 10
7.571520
 20
2.581040
  0
VERTEX
  8
0
  6
CONTINUOUS
 10
7.563600
 20
2.543200
  0
VERTEX
  8
0
  6
CONTINUOUS
 10
7.545120
 20
2.488200
  0
VERTEX
  8
0
  6
CONTINUOUS
 10
7.519600
 20
2.427480
  0
VERTEX
  8
0
  6
CONTINUOUS
 10
7.469880
 20
2.327600
  0
VERTEX
  8
0
  6
CONTINUOUS
 10
7.349760
 20
2.097480
  0
VERTEX
  8
0
  6
CONTINUOUS
 10
7.289040
 20
1.969880
  0
VERTEX
  8
0
  6
CONTINUOUS
 10
7.251640
 20
1.881000
  0
VERTEX
  8
0
  6
CONTINUOUS
 10
7.218640
 20
1.789480
  0
VERTEX
  8
0
  6
CONTINUOUS
 10
7.190920
 20
1.695760
  0
VERTEX
  8
0
  6
CONTINUOUS
 10
7.179920
 20
1.647800
  0
VERTEX
  8
0
  6
CONTINUOUS
 10
7.170680
 20
1.599400
  0
VERTEX
  8
0
  6
CONTINUOUS
 10
7.164080
 20
1.551000
  0
VERTEX
  8
0
  6
CONTINUOUS
 10
7.159240
 20
1.501720
  0
VERTEX
  8
0
  6
CONTINUOUS
 10
7.157040
 20
1.427800
  0
VERTEX
  8
0
  6
CONTINUOUS
 10
7.157920
 20
1.402720
  0
VERTEX
  8
0
  6
CONTINUOUS
 10
7.034720
 20
1.383800
  0
VERTEX
  8
0
  6
CONTINUOUS
 10
7.034720
 20
1.357840
  0
VERTEX
  8
0
  6
CONTINUOUS
 10
7.064200
 20
1.346400
  0
VERTEX
  8
0
  6
CONTINUOUS
 10
7.077840
 20
1.339360
  0
VERTEX
  8
0
  6
CONTINUOUS
 10
7.101160
 20
1.321760
  0
VERTEX
  8
0
  6
CONTINUOUS
 10
7.120960
 20
1.300640
  0
VERTEX
  8
0
  6
CONTINUOUS
 10
7.136800
 20
1.277320
  0
VERTEX
  8
0
  6
CONTINUOUS
 10
7.148240
 20
1.251800
  0
VERTEX
  8
0
  6
CONTINUOUS
 10
7.155720
 20
1.224960
  0
VERTEX
  8
0
  6
CONTINUOUS
 10
7.158800
 20
1.197680
  0
VERTEX
  8
0
  6
CONTINUOUS
 10
7.157920
 20
1.170400
  0
VERTEX
  8
0
  6
CONTINUOUS
 10
7.152200
 20
1.144000
  0
VERTEX
  8
0
  6
CONTINUOUS
 10
7.142520
 20
1.118480
  0
VERTEX
  8
0
  6
CONTINUOUS
 10
7.128000
 20
1.095160
  0
VERTEX
  8
0
  6
CONTINUOUS
 10
7.109080
 20
1.074480
  0
VERTEX
  8
0
  6
CONTINUOUS
 10
7.085760
 20
1.057320
  0
VERTEX
  8
0
  6
CONTINUOUS
 10
7.057600
 20
1.044120
  0
VERTEX
  8
0
  6
CONTINUOUS
 10
7.024600
 20
1.035320
  0
VERTEX
  8
0
  6
CONTINUOUS
 10
7.006560
 20
1.033120
  0
VERTEX
  8
0
  6
CONTINUOUS
 10
7.006560
 20
0.974600
  0
VERTEX
  8
0
  6
CONTINUOUS
 10
5.751680
 20
0.973720
  0
VERTEX
  8
0
  6
CONTINUOUS
 10
5.749920
 20
0.975480
  0
VERTEX
  8
0
  6
CONTINUOUS
 10
5.749920
 20
1.034440
  0
VERTEX
  8
0
  6
CONTINUOUS
 10
5.731880
 20
1.036640
  0
VERTEX
  8
0
  6
CONTINUOUS
 10
5.698880
 20
1.045440
  0
VERTEX
  8
0
  6
CONTINUOUS
 10
5.684360
 20
1.051160
  0
VERTEX
  8
0
  6
CONTINUOUS
 10
5.658400
 20
1.066560
  0
VERTEX
  8
0
  6
CONTINUOUS
 10
5.637280
 20
1.085480
  0
VERTEX
  8
0
  6
CONTINUOUS
 10
5.621000
 20
1.107480
  0
VERTEX
  8
0
  6
CONTINUOUS
 10
5.608680
 20
1.132120
  0
VERTEX
  8
0
  6
CONTINUOUS
 10
5.601200
 20
1.158080
  0
VERTEX
  8
0
  6
CONTINUOUS
 10
5.598120
 20
1.184920
  0
VERTEX
  8
0
  6
CONTINUOUS
 10
5.597680
 20
1.198560
  0
VERTEX
  8
0
  6
CONTINUOUS
 10
5.601200
 20
1.226280
  0
VERTEX
  8
0
  6
CONTINUOUS
 10
5.608240
 20
1.252680
  0
VERTEX
  8
0
  6
CONTINUOUS
 10
5.620120
 20
1.278200
  0
VERTEX
  8
0
  6
CONTINUOUS
 10
5.635520
 20
1.301520
  0
VERTEX
  8
0
  6
CONTINUOUS
 10
5.655320
 20
1.322640
  0
VERTEX
  8
0
  6
CONTINUOUS
 10
5.679080
 20
1.340240
  0
VERTEX
  8
0
  6
CONTINUOUS
 10
5.706360
 20
1.353440
  0
VERTEX
  8
0
  6
CONTINUOUS
 10
5.721760
 20
1.358720
  0
VERTEX
  8
0
  6
CONTINUOUS
 10
5.721760
 20
1.385120
  0
VERTEX
  8
0
  6
CONTINUOUS
 10
5.598560
 20
1.403600
  0
VERTEX
  8
0
  6
CONTINUOUS
 10
5.599440
 20
1.453320
  0
VERTEX
  8
0
  6
CONTINUOUS
 10
5.597240
 20
1.502600
  0
VERTEX
  8
0
  6
CONTINUOUS
 10
5.592840
 20
1.551880
  0
VERTEX
  8
0
  6
CONTINUOUS
 10
5.585800
 20
1.600720
  0
VERTEX
  8
0
  6
CONTINUOUS
 10
5.576560
 20
1.648680
  0
VERTEX
  8
0
  6
CONTINUOUS
 10
5.565560
 20
1.696640
  0
VERTEX
  8
0
  6
CONTINUOUS
 10
5.552800
 20
1.743720
  0
VERTEX
  8
0
  6
CONTINUOUS
 10
5.522440
 20
1.836560
  0
VERTEX
  8
0
  6
CONTINUOUS
 10
5.486800
 20
1.927200
  0
VERTEX
  8
0
  6
CONTINUOUS
 10
5.448080
 20
2.014320
  0
VERTEX
  8
0
  6
CONTINUOUS
 10
5.386480
 20
2.139280
  0
VERTEX
  8
0
  6
CONTINUOUS
 10
5.269000
 20
2.363240
  0
VERTEX
  8
0
  6
CONTINUOUS
 10
5.237320
 20
2.428800
  0
VERTEX
  8
0
  6
CONTINUOUS
 10
5.211360
 20
2.489080
  0
VERTEX
  8
0
  6
CONTINUOUS
 10
5.192880
 20
2.544080
  0
VERTEX
  8
0
  6
CONTINUOUS
 10
5.184960
 20
2.581920
  0
VERTEX
  8
0
  6
CONTINUOUS
 10
5.182760
 20
2.616240
  0
VERTEX
  8
0
  6
CONTINUOUS
 10
5.188480
 20
2.657160
  0
VERTEX
  8
0
  6
CONTINUOUS
 10
5.203440
 20
2.745160
  0
VERTEX
  8
0
  6
CONTINUOUS
 10
5.215320
 20
2.792680
  0
VERTEX
  8
0
  6
CONTINUOUS
 10
5.232040
 20
2.841520
  0
VERTEX
  8
0
  6
CONTINUOUS
 10
5.255800
 20
2.890800
  0
VERTEX
  8
0
  6
CONTINUOUS
 10
5.270760
 20
2.915440
  0
VERTEX
  8
0
  6
CONTINUOUS
 10
5.297600
 20
2.951960
  0
VERTEX
  8
0
  6
CONTINUOUS
 10
5.330160
 20
2.987600
  0
VERTEX
  8
0
  6
CONTINUOUS
 10
5.369320
 20
3.022360
  0
VERTEX
  8
0
  6
CONTINUOUS
 10
5.415960
 20
3.055360
  0
VERTEX
  8
0
  6
CONTINUOUS
 10
5.470520
 20
3.086600
  0
VERTEX
  8
0
  6
CONTINUOUS
 10
5.533880
 20
3.116080
  0
VERTEX
  8
0
  6
CONTINUOUS
 10
5.606480
 20
3.142920
  0
VERTEX
  8
0
  6
CONTINUOUS
 10
5.689640
 20
3.166680
  0
VERTEX
  8
0
  6
CONTINUOUS
 10
5.751240
 20
3.180760
  0
VERTEX
  8
0
  6
CONTINUOUS
 10
5.817680
 20
3.193960
  0
VERTEX
  8
0
  6
CONTINUOUS
 10
5.927240
 20
3.209800
  0
VERTEX
  8
0
  6
CONTINUOUS
 10
6.007320
 20
3.218600
  0
VERTEX
  8
0
  6
CONTINUOUS
 10
6.138000
 20
3.227840
  0
VERTEX
  8
0
  6
CONTINUOUS
 10
6.282760
 20
3.233120
  0
VERTEX
  8
0
  6
CONTINUOUS
 10
6.338200
 20
3.234000
  0
SEQEND
  8
0
  0
SOLID
  8
0
 62
    15
 10
4.136000
 20
2.179320
 11
4.775760
 21
2.548480
 12
4.054600
 22
2.010800
 13
4.694360
 23
2.380400
  0
POLYLINE
  8
0
  6
CONTINUOUS
 66
     1
 40
0.000000
 41
0.000000
  0
VERTEX
  8
0
  6
CONTINUOUS
 10
4.136000
 20
2.179320
  0
VERTEX
  8
0
  6
CONTINUOUS
 10
4.775760
 20
2.548480
  0
VERTEX
  8
0
  6
CONTINUOUS
 10
4.694360
 20
2.380400
  0
VERTEX
  8
0
  6
CONTINUOUS
 10
4.054600
 20
2.010800
  0
VERTEX
  8
0
  6
CONTINUOUS
 10
4.136000
 20
2.179320
  0
SEQEND
  8
0
  0
SOLID
  8
0
 62
    15
 10
3.316720
 20
3.273160
 11
3.956920
 21
3.642320
 12
3.502840
 22
3.262600
 13
4.143040
 23
3.631760
  0
POLYLINE
  8
0
  6
CONTINUOUS
 66
     1
 40
0.000000
 41
0.000000
  0
VERTEX
  8
0
  6
CONTINUOUS
 10
3.316720
 20
3.273160
  0
VERTEX
  8
0
  6
CONTINUOUS
 10
3.956920
 20
3.642320
  0
VERTEX
  8
0
  6
CONTINUOUS
 10
4.143040
 20
3.631760
  0
VERTEX
  8
0
  6
CONTINUOUS
 10
3.502840
 20
3.262600
  0
VERTEX
  8
0
  6
CONTINUOUS
 10
3.316720
 20
3.273160
  0
SEQEND
  8
0
  0
SOLID
  8
0
 62
    15
 10
3.502840
 20
3.262600
 11
4.143040
 21
3.631760
 12
3.664320
 22
3.243680
 13
4.304080
 23
3.612840
  0
POLYLINE
  8
0
  6
CONTINUOUS
 66
     1
 40
0.000000
 41
0.000000
  0
VERTEX
  8
0
  6
CONTINUOUS
 10
3.502840
 20
3.262600
  0
VERTEX
  8
0
  6
CONTINUOUS
 10
4.143040
 20
3.631760
  0
VERTEX
  8
0
  6
CONTINUOUS
 10
4.304080
 20
3.612840
  0
VERTEX
  8
0
  6
CONTINUOUS
 10
3.664320
 20
3.243680
  0
VERTEX
  8
0
  6
CONTINUOUS
 10
3.502840
 20
3.262600
  0
SEQEND
  8
0
  0
SOLID
  8
0
 62
    15
 10
3.664320
 20
3.243680
 11
4.304080
 21
3.612840
 12
3.802480
 22
3.217720
 13
4.442240
 23
3.587320
  0
POLYLINE
  8
0
  6
CONTINUOUS
 66
     1
 40
0.000000
 41
0.000000
  0
VERTEX
  8
0
  6
CONTINUOUS
 10
3.664320
 20
3.243680
  0
VERTEX
  8
0
  6
CONTINUOUS
 10
4.304080
 20
3.612840
  0
VERTEX
  8
0
  6
CONTINUOUS
 10
4.442240
 20
3.587320
  0
VERTEX
  8
0
  6
CONTINUOUS
 10
3.802480
 20
3.217720
  0
VERTEX
  8
0
  6
CONTINUOUS
 10
3.664320
 20
3.243680
  0
SEQEND
  8
0
  0
SOLID
  8
0
 62
    15
 10
3.802480
 20
3.217720
 11
4.442240
 21
3.587320
 12
3.919080
 22
3.186040
 13
4.559280
 23
3.555200
  0
POLYLINE
  8
0
  6
CONTINUOUS
 66
     1
 40
0.000000
 41
0.000000
  0
VERTEX
  8
0
  6
CONTINUOUS
 10
3.802480
 20
3.217720
  0
VERTEX
  8
0
  6
CONTINUOUS
 10
4.442240
 20
3.587320
  0
VERTEX
  8
0
  6
CONTINUOUS
 10
4.559280
 20
3.555200
  0
VERTEX
  8
0
  6
CONTINUOUS
 10
3.919080
 20
3.186040
  0
VERTEX
  8
0
  6
CONTINUOUS
 10
3.802480
 20
3.217720
  0
SEQEND
  8
0
  0
SOLID
  8
0
 62
    15
 10
3.919080
 20
3.186040
 11
4.559280
 21
3.555200
 12
4.016760
 22
3.148640
 13
4.656520
 23
3.518240
  0
POLYLINE
  8
0
  6
CONTINUOUS
 66
     1
 40
0.000000
 41
0.000000
  0
VERTEX
  8
0
  6
CONTINUOUS
 10
3.919080
 20
3.186040
  0
VERTEX
  8
0
  6
CONTINUOUS
 10
4.559280
 20
3.555200
  0
VERTEX
  8
0
  6
CONTINUOUS
 10
4.656520
 20
3.518240
  0
VERTEX
  8
0
  6
CONTINUOUS
 10
4.016760
 20
3.148640
  0
VERTEX
  8
0
  6
CONTINUOUS
 10
3.919080
 20
3.186040
  0
SEQEND
  8
0
  0
SOLID
  8
0
 62
    15
 10
4.016760
 20
3.148640
 11
4.656520
 21
3.518240
 12
4.096400
 22
3.106840
 13
4.736600
 23
3.476440
  0
POLYLINE
  8
0
  6
CONTINUOUS
 66
     1
 40
0.000000
 41
0.000000
  0
VERTEX
  8
0
  6
CONTINUOUS
 10
4.016760
 20
3.148640
  0
VERTEX
  8
0
  6
CONTINUOUS
 10
4.656520
 20
3.518240
  0
VERTEX
  8
0
  6
CONTINUOUS
 10
4.736600
 20
3.476440
  0
VERTEX
  8
0
  6
CONTINUOUS
 10
4.096400
 20
3.106840
  0
VERTEX
  8
0
  6
CONTINUOUS
 10
4.016760
 20
3.148640
  0
SEQEND
  8
0
  0
SOLID
  8
0
 62
    15
 10
4.096400
 20
3.106840
 11
4.736600
 21
3.476440
 12
4.160640
 22
3.061960
 13
4.800840
 23
3.431120
  0
POLYLINE
  8
0
  6
CONTINUOUS
 66
     1
 40
0.000000
 41
0.000000
  0
VERTEX
  8
0
  6
CONTINUOUS
 10
4.096400
 20
3.106840
  0
VERTEX
  8
0
  6
CONTINUOUS
 10
4.736600
 20
3.476440
  0
VERTEX
  8
0
  6
CONTINUOUS
 10
4.800840
 20
3.431120
  0
VERTEX
  8
0
  6
CONTINUOUS
 10
4.160640
 20
3.061960
  0
VERTEX
  8
0
  6
CONTINUOUS
 10
4.096400
 20
3.106840
  0
SEQEND
  8
0
  0
SOLID
  8
0
 62
    15
 10
4.160640
 20
3.061960
 11
4.800840
 21
3.431120
 12
4.211240
 22
3.014000
 13
4.851440
 23
3.383160
  0
POLYLINE
  8
0
  6
CONTINUOUS
 66
     1
 40
0.000000
 41
0.000000
  0
VERTEX
  8
0
  6
CONTINUOUS
 10
4.160640
 20
3.061960
  0
VERTEX
  8
0
  6
CONTINUOUS
 10
4.800840
 20
3.431120
  0
VERTEX
  8
0
  6
CONTINUOUS
 10
4.851440
 20
3.383160
  0
VERTEX
  8
0
  6
CONTINUOUS
 10
4.211240
 20
3.014000
  0
VERTEX
  8
0
  6
CONTINUOUS
 10
4.160640
 20
3.061960
  0
SEQEND
  8
0
  0
SOLID
  8
0
 62
    15
 10
4.211240
 20
3.014000
 11
4.851440
 21
3.383160
 12
4.249960
 22
2.964280
 13
4.890160
 23
3.333440
  0
POLYLINE
  8
0
  6
CONTINUOUS
 66
     1
 40
0.000000
 41
0.000000
  0
VERTEX
  8
0
  6
CONTINUOUS
 10
4.211240
 20
3.014000
  0
VERTEX
  8
0
  6
CONTINUOUS
 10
4.851440
 20
3.383160
  0
VERTEX
  8
0
  6
CONTINUOUS
 10
4.890160
 20
3.333440
  0
VERTEX
  8
0
  6
CONTINUOUS
 10
4.249960
 20
2.964280
  0
VERTEX
  8
0
  6
CONTINUOUS
 10
4.211240
 20
3.014000
  0
SEQEND
  8
0
  0
SOLID
  8
0
 62
    15
 10
4.249960
 20
2.964280
 11
4.890160
 21
3.333440
 12
4.299240
 22
2.862640
 13
4.939000
 23
3.232240
  0
POLYLINE
  8
0
  6
CONTINUOUS
 66
     1
 40
0.000000
 41
0.000000
  0
VERTEX
  8
0
  6
CONTINUOUS
 10
4.249960
 20
2.964280
  0
VERTEX
  8
0
  6
CONTINUOUS
 10
4.890160
 20
3.333440
  0
VERTEX
  8
0
  6
CONTINUOUS
 10
4.939000
 20
3.232240
  0
VERTEX
  8
0
  6
CONTINUOUS
 10
4.299240
 20
2.862640
  0
VERTEX
  8
0
  6
CONTINUOUS
 10
4.249960
 20
2.964280
  0
SEQEND
  8
0
  0
SOLID
  8
0
 62
    15
 10
4.299240
 20
2.862640
 11
4.939000
 21
3.232240
 12
4.323440
 22
2.764520
 13
4.963200
 23
3.134120
  0
POLYLINE
  8
0
  6
CONTINUOUS
 66
     1
 40
0.000000
 41
0.000000
  0
VERTEX
  8
0
  6
CONTINUOUS
 10
4.299240
 20
2.862640
  0
VERTEX
  8
0
  6
CONTINUOUS
 10
4.939000
 20
3.232240
  0
VERTEX
  8
0
  6
CONTINUOUS
 10
4.963200
 20
3.134120
  0
VERTEX
  8
0
  6
CONTINUOUS
 10
4.323440
 20
2.764520
  0
VERTEX
  8
0
  6
CONTINUOUS
 10
4.299240
 20
2.862640
  0
SEQEND
  8
0
  0
SOLID
  8
0
 62
    15
 10
4.323440
 20
2.764520
 11
4.963200
 21
3.134120
 12
4.330480
 22
2.719200
 13
4.970680
 23
3.088360
  0
POLYLINE
  8
0
  6
CONTINUOUS
 66
     1
 40
0.000000
 41
0.000000
  0
VERTEX
  8
0
  6
CONTINUOUS
 10
4.323440
 20
2.764520
  0
VERTEX
  8
0
  6
CONTINUOUS
 10
4.963200
 20
3.134120
  0
VERTEX
  8
0
  6
CONTINUOUS
 10
4.970680
 20
3.088360
  0
VERTEX
  8
0
  6
CONTINUOUS
 10
4.330480
 20
2.719200
  0
VERTEX
  8
0
  6
CONTINUOUS
 10
4.323440
 20
2.764520
  0
SEQEND
  8
0
  0
SOLID
  8
0
 62
    15
 10
4.330480
 20
2.719200
 11
4.970680
 21
3.088360
 12
4.334000
 22
2.697640
 13
4.973760
 23
3.066800
  0
POLYLINE
  8
0
  6
CONTINUOUS
 66
     1
 40
0.000000
 41
0.000000
  0
VERTEX
  8
0
  6
CONTINUOUS
 10
4.330480
 20
2.719200
  0
VERTEX
  8
0
  6
CONTINUOUS
 10
4.970680
 20
3.088360
  0
VERTEX
  8
0
  6
CONTINUOUS
 10
4.973760
 20
3.066800
  0
VERTEX
  8
0
  6
CONTINUOUS
 10
4.334000
 20
2.697640
  0
VERTEX
  8
0
  6
CONTINUOUS
 10
4.330480
 20
2.719200
  0
SEQEND
  8
0
  0
SOLID
  8
0
 62
    15
 10
4.334000
 20
2.697640
 11
4.973760
 21
3.066800
 12
4.337080
 22
2.676960
 13
4.977280
 23
3.046120
  0
POLYLINE
  8
0
  6
CONTINUOUS
 66
     1
 40
0.000000
 41
0.000000
  0
VERTEX
  8
0
  6
CONTINUOUS
 10
4.334000
 20
2.697640
  0
VERTEX
  8
0
  6
CONTINUOUS
 10
4.973760
 20
3.066800
  0
VERTEX
  8
0
  6
CONTINUOUS
 10
4.977280
 20
3.046120
  0
VERTEX
  8
0
  6
CONTINUOUS
 10
4.337080
 20
2.676960
  0
VERTEX
  8
0
  6
CONTINUOUS
 10
4.334000
 20
2.697640
  0
SEQEND
  8
0
  0
SOLID
  8
0
 62
    15
 10
4.337080
 20
2.676960
 11
4.977280
 21
3.046120
 12
4.338400
 22
2.633400
 13
4.978160
 23
3.003000
  0
POLYLINE
  8
0
  6
CONTINUOUS
 66
     1
 40
0.000000
 41
0.000000
  0
VERTEX
  8
0
  6
CONTINUOUS
 10
4.337080
 20
2.676960
  0
VERTEX
  8
0
  6
CONTINUOUS
 10
4.977280
 20
3.046120
  0
VERTEX
  8
0
  6
CONTINUOUS
 10
4.978160
 20
3.003000
  0
VERTEX
  8
0
  6
CONTINUOUS
 10
4.338400
 20
2.633400
  0
VERTEX
  8
0
  6
CONTINUOUS
 10
4.337080
 20
2.676960
  0
SEQEND
  8
0
  0
SOLID
  8
0
 62
    15
 10
4.338400
 20
2.633400
 11
4.978160
 21
3.003000
 12
4.329160
 22
2.584120
 13
4.968920
 23
2.953720
  0
POLYLINE
  8
0
  6
CONTINUOUS
 66
     1
 40
0.000000
 41
0.000000
  0
VERTEX
  8
0
  6
CONTINUOUS
 10
4.338400
 20
2.633400
  0
VERTEX
  8
0
  6
CONTINUOUS
 10
4.978160
 20
3.003000
  0
VERTEX
  8
0
  6
CONTINUOUS
 10
4.968920
 20
2.953720
  0
VERTEX
  8
0
  6
CONTINUOUS
 10
4.329160
 20
2.584120
  0
VERTEX
  8
0
  6
CONTINUOUS
 10
4.338400
 20
2.633400
  0
SEQEND
  8
0
  0
SOLID
  8
0
 62
    15
 10
4.329160
 20
2.584120
 11
4.968920
 21
2.953720
 12
4.285160
 22
2.468400
 13
4.924920
 23
2.838000
  0
POLYLINE
  8
0
  6
CONTINUOUS
 66
     1
 40
0.000000
 41
0.000000
  0
VERTEX
  8
0
  6
CONTINUOUS
 10
4.329160
 20
2.584120
  0
VERTEX
  8
0
  6
CONTINUOUS
 10
4.968920
 20
2.953720
  0
VERTEX
  8
0
  6
CONTINUOUS
 10
4.924920
 20
2.838000
  0
VERTEX
  8
0
  6
CONTINUOUS
 10
4.285160
 20
2.468400
  0
VERTEX
  8
0
  6
CONTINUOUS
 10
4.329160
 20
2.584120
  0
SEQEND
  8
0
  0
SOLID
  8
0
 62
    15
 10
4.285160
 20
2.468400
 11
4.924920
 21
2.838000
 12
4.216520
 22
2.332440
 13
4.856720
 23
2.702040
  0
POLYLINE
  8
0
  6
CONTINUOUS
 66
     1
 40
0.000000
 41
0.000000
  0
VERTEX
  8
0
  6
CONTINUOUS
 10
4.285160
 20
2.468400
  0
VERTEX
  8
0
  6
CONTINUOUS
 10
4.924920
 20
2.838000
  0
VERTEX
  8
0
  6
CONTINUOUS
 10
4.856720
 20
2.702040
  0
VERTEX
  8
0
  6
CONTINUOUS
 10
4.216520
 20
2.332440
  0
VERTEX
  8
0
  6
CONTINUOUS
 10
4.285160
 20
2.468400
  0
SEQEND
  8
0
  0
SOLID
  8
0
 62
    15
 10
4.216520
 20
2.332440
 11
4.856720
 21
2.702040
 12
4.176920
 22
2.258080
 13
4.817120
 23
2.627240
  0
POLYLINE
  8
0
  6
CONTINUOUS
 66
     1
 40
0.000000
 41
0.000000
  0
VERTEX
  8
0
  6
CONTINUOUS
 10
4.216520
 20
2.332440
  0
VERTEX
  8
0
  6
CONTINUOUS
 10
4.856720
 20
2.702040
  0
VERTEX
  8
0
  6
CONTINUOUS
 10
4.817120
 20
2.627240
  0
VERTEX
  8
0
  6
CONTINUOUS
 10
4.176920
 20
2.258080
  0
VERTEX
  8
0
  6
CONTINUOUS
 10
4.216520
 20
2.332440
  0
SEQEND
  8
0
  0
SOLID
  8
0
 62
    15
 10
4.176920
 20
2.258080
 11
4.817120
 21
2.627240
 12
4.136000
 22
2.179320
 13
4.775760
 23
2.548480
  0
POLYLINE
  8
0
  6
CONTINUOUS
 66
     1
 40
0.000000
 41
0.000000
  0
VERTEX
  8
0
  6
CONTINUOUS
 10
4.176920
 20
2.258080
  0
VERTEX
  8
0
  6
CONTINUOUS
 10
4.817120
 20
2.627240
  0
VERTEX
  8
0
  6
CONTINUOUS
 10
4.775760
 20
2.548480
  0
VERTEX
  8
0
  6
CONTINUOUS
 10
4.136000
 20
2.179320
  0
VERTEX
  8
0
  6
CONTINUOUS
 10
4.176920
 20
2.258080
  0
SEQEND
  8
0
  0
SOLID
  8
0
 62
    15
 10
3.103760
 20
3.274920
 11
3.743960
 21
3.644520
 12
3.316720
 22
3.273160
 13
3.956920
 23
3.642320
  0
POLYLINE
  8
0
  6
CONTINUOUS
 66
     1
 40
0.000000
 41
0.000000
  0
VERTEX
  8
0
  6
CONTINUOUS
 10
3.103760
 20
3.274920
  0
VERTEX
  8
0
  6
CONTINUOUS
 10
3.743960
 20
3.644520
  0
VERTEX
  8
0
  6
CONTINUOUS
 10
3.956920
 20
3.642320
  0
VERTEX
  8
0
  6
CONTINUOUS
 10
3.316720
 20
3.273160
  0
VERTEX
  8
0
  6
CONTINUOUS
 10
3.103760
 20
3.274920
  0
SEQEND
  8
0
  0
SOLID
  8
0
 62
    15
 10
4.054600
 20
2.010800
 11
4.694360
 21
2.380400
 12
3.984200
 22
1.830400
 13
4.623960
 23
2.199560
  0
POLYLINE
  8
0
  6
CONTINUOUS
 66
     1
 40
0.000000
 41
0.000000
  0
VERTEX
  8
0
  6
CONTINUOUS
 10
4.054600
 20
2.010800
  0
VERTEX
  8
0
  6
CONTINUOUS
 10
4.694360
 20
2.380400
  0
VERTEX
  8
0
  6
CONTINUOUS
 10
4.623960
 20
2.199560
  0
VERTEX
  8
0
  6
CONTINUOUS
 10
3.984200
 20
1.830400
  0
VERTEX
  8
0
  6
CONTINUOUS
 10
4.054600
 20
2.010800
  0
SEQEND
  8
0
  0
SOLID
  8
0
 62
    15
 10
3.984200
 20
1.830400
 11
4.623960
 21
2.199560
 12
3.936680
 22
1.640320
 13
4.576440
 23
2.009920
  0
POLYLINE
  8
0
  6
CONTINUOUS
 66
     1
 40
0.000000
 41
0.000000
  0
VERTEX
  8
0
  6
CONTINUOUS
 10
3.984200
 20
1.830400
  0
VERTEX
  8
0
  6
CONTINUOUS
 10
4.623960
 20
2.199560
  0
VERTEX
  8
0
  6
CONTINUOUS
 10
4.576440
 20
2.009920
  0
VERTEX
  8
0
  6
CONTINUOUS
 10
3.936680
 20
1.640320
  0
VERTEX
  8
0
  6
CONTINUOUS
 10
3.984200
 20
1.830400
  0
SEQEND
  8
0
  0
SOLID
  8
0
 62
    15
 10
3.800280
 20
1.424720
 11
4.440480
 21
1.794320
 12
3.800280
 22
1.398760
 13
4.440480
 23
1.767920
  0
POLYLINE
  8
0
  6
CONTINUOUS
 66
     1
 40
0.000000
 41
0.000000
  0
VERTEX
  8
0
  6
CONTINUOUS
 10
3.800280
 20
1.424720
  0
VERTEX
  8
0
  6
CONTINUOUS
 10
4.440480
 20
1.794320
  0
VERTEX
  8
0
  6
CONTINUOUS
 10
4.440480
 20
1.767920
  0
VERTEX
  8
0
  6
CONTINUOUS
 10
3.800280
 20
1.398760
  0
VERTEX
  8
0
  6
CONTINUOUS
 10
3.800280
 20
1.424720
  0
SEQEND
  8
0
  0
SOLID
  8
0
 62
    15
 10
3.800280
 20
1.398760
 11
4.440480
 21
1.767920
 12
3.855720
 22
1.371920
 13
4.495480
 23
1.741080
  0
POLYLINE
  8
0
  6
CONTINUOUS
 66
     1
 40
0.000000
 41
0.000000
  0
VERTEX
  8
0
  6
CONTINUOUS
 10
3.800280
 20
1.398760
  0
VERTEX
  8
0
  6
CONTINUOUS
 10
4.440480
 20
1.767920
  0
VERTEX
  8
0
  6
CONTINUOUS
 10
4.495480
 20
1.741080
  0
VERTEX
  8
0
  6
CONTINUOUS
 10
3.855720
 20
1.371920
  0
VERTEX
  8
0
  6
CONTINUOUS
 10
3.800280
 20
1.398760
  0
SEQEND
  8
0
  0
SOLID
  8
0
 62
    15
 10
3.936680
 20
1.640320
 11
4.576440
 21
2.009920
 12
3.923480
 22
1.443640
 13
4.563680
 23
1.812800
  0
POLYLINE
  8
0
  6
CONTINUOUS
 66
     1
 40
0.000000
 41
0.000000
  0
VERTEX
  8
0
  6
CONTINUOUS
 10
3.936680
 20
1.640320
  0
VERTEX
  8
0
  6
CONTINUOUS
 10
4.576440
 20
2.009920
  0
VERTEX
  8
0
  6
CONTINUOUS
 10
4.563680
 20
1.812800
  0
VERTEX
  8
0
  6
CONTINUOUS
 10
3.923480
 20
1.443640
  0
VERTEX
  8
0
  6
CONTINUOUS
 10
3.936680
 20
1.640320
  0
SEQEND
  8
0
  0
SOLID
  8
0
 62
    15
 10
3.855720
 20
1.371920
 11
4.495480
 21
1.741080
 12
3.894880
 22
1.330120
 13
4.535080
 23
1.699720
  0
POLYLINE
  8
0
  6
CONTINUOUS
 66
     1
 40
0.000000
 41
0.000000
  0
VERTEX
  8
0
  6
CONTINUOUS
 10
3.855720
 20
1.371920
  0
VERTEX
  8
0
  6
CONTINUOUS
 10
4.495480
 20
1.741080
  0
VERTEX
  8
0
  6
CONTINUOUS
 10
4.535080
 20
1.699720
  0
VERTEX
  8
0
  6
CONTINUOUS
 10
3.894880
 20
1.330120
  0
VERTEX
  8
0
  6
CONTINUOUS
 10
3.855720
 20
1.371920
  0
SEQEND
  8
0
  0
SOLID
  8
0
 62
    15
 10
3.894880
 20
1.330120
 11
4.535080
 21
1.699720
 12
3.918200
 22
1.279520
 13
4.557960
 23
1.649120
  0
POLYLINE
  8
0
  6
CONTINUOUS
 66
     1
 40
0.000000
 41
0.000000
  0
VERTEX
  8
0
  6
CONTINUOUS
 10
3.894880
 20
1.330120
  0
VERTEX
  8
0
  6
CONTINUOUS
 10
4.535080
 20
1.699720
  0
VERTEX
  8
0
  6
CONTINUOUS
 10
4.557960
 20
1.649120
  0
VERTEX
  8
0
  6
CONTINUOUS
 10
3.918200
 20
1.279520
  0
VERTEX
  8
0
  6
CONTINUOUS
 10
3.894880
 20
1.330120
  0
SEQEND
  8
0
  0
SOLID
  8
0
 62
    15
 10
3.918200
 20
1.279520
 11
4.557960
 21
1.649120
 12
3.924360
 22
1.224960
 13
4.564120
 23
1.594560
  0
POLYLINE
  8
0
  6
CONTINUOUS
 66
     1
 40
0.000000
 41
0.000000
  0
VERTEX
  8
0
  6
CONTINUOUS
 10
3.918200
 20
1.279520
  0
VERTEX
  8
0
  6
CONTINUOUS
 10
4.557960
 20
1.649120
  0
VERTEX
  8
0
  6
CONTINUOUS
 10
4.564120
 20
1.594560
  0
VERTEX
  8
0
  6
CONTINUOUS
 10
3.924360
 20
1.224960
  0
VERTEX
  8
0
  6
CONTINUOUS
 10
3.918200
 20
1.279520
  0
SEQEND
  8
0
  0
SOLID
  8
0
 62
    15
 10
3.924360
 20
1.224960
 11
4.564120
 21
1.594560
 12
3.913360
 22
1.171720
 13
4.553560
 23
1.541320
  0
POLYLINE
  8
0
  6
CONTINUOUS
 66
     1
 40
0.000000
 41
0.000000
  0
VERTEX
  8
0
  6
CONTINUOUS
 10
3.924360
 20
1.224960
  0
VERTEX
  8
0
  6
CONTINUOUS
 10
4.564120
 20
1.594560
  0
VERTEX
  8
0
  6
CONTINUOUS
 10
4.553560
 20
1.541320
  0
VERTEX
  8
0
  6
CONTINUOUS
 10
3.913360
 20
1.171720
  0
VERTEX
  8
0
  6
CONTINUOUS
 10
3.924360
 20
1.224960
  0
SEQEND
  8
0
  0
SOLID
  8
0
 62
    15
 10
3.772120
 20
1.074040
 11
4.412320
 21
1.443640
 12
3.772120
 22
1.015520
 13
4.412320
 23
1.384680
  0
POLYLINE
  8
0
  6
CONTINUOUS
 66
     1
 40
0.000000
 41
0.000000
  0
VERTEX
  8
0
  6
CONTINUOUS
 10
3.772120
 20
1.074040
  0
VERTEX
  8
0
  6
CONTINUOUS
 10
4.412320
 20
1.443640
  0
VERTEX
  8
0
  6
CONTINUOUS
 10
4.412320
 20
1.384680
  0
VERTEX
  8
0
  6
CONTINUOUS
 10
3.772120
 20
1.015520
  0
VERTEX
  8
0
  6
CONTINUOUS
 10
3.772120
 20
1.074040
  0
SEQEND
  8
0
  0
SOLID
  8
0
 62
    15
 10
3.884760
 20
1.125520
 11
4.524520
 21
1.494680
 12
3.837680
 22
1.091200
 13
4.477880
 23
1.460360
  0
POLYLINE
  8
0
  6
CONTINUOUS
 66
     1
 40
0.000000
 41
0.000000
  0
VERTEX
  8
0
  6
CONTINUOUS
 10
3.884760
 20
1.125520
  0
VERTEX
  8
0
  6
CONTINUOUS
 10
4.524520
 20
1.494680
  0
VERTEX
  8
0
  6
CONTINUOUS
 10
4.477880
 20
1.460360
  0
VERTEX
  8
0
  6
CONTINUOUS
 10
3.837680
 20
1.091200
  0
VERTEX
  8
0
  6
CONTINUOUS
 10
3.884760
 20
1.125520
  0
SEQEND
  8
0
  0
SOLID
  8
0
 62
    15
 10
3.913360
 20
1.171720
 11
4.553560
 21
1.541320
 12
3.884760
 22
1.125520
 13
4.524520
 23
1.494680
  0
POLYLINE
  8
0
  6
CONTINUOUS
 66
     1
 40
0.000000
 41
0.000000
  0
VERTEX
  8
0
  6
CONTINUOUS
 10
3.913360
 20
1.171720
  0
VERTEX
  8
0
  6
CONTINUOUS
 10
4.553560
 20
1.541320
  0
VERTEX
  8
0
  6
CONTINUOUS
 10
4.524520
 20
1.494680
  0
VERTEX
  8
0
  6
CONTINUOUS
 10
3.884760
 20
1.125520
  0
VERTEX
  8
0
  6
CONTINUOUS
 10
3.913360
 20
1.171720
  0
SEQEND
  8
0
  0
SOLID
  8
0
 62
    15
 10
2.432320
 20
1.372800
 11
3.072080
 21
1.741960
 12
2.487320
 22
1.399640
 13
3.127080
 23
1.769240
  0
POLYLINE
  8
0
  6
CONTINUOUS
 66
     1
 40
0.000000
 41
0.000000
  0
VERTEX
  8
0
  6
CONTINUOUS
 10
2.432320
 20
1.372800
  0
VERTEX
  8
0
  6
CONTINUOUS
 10
3.072080
 20
1.741960
  0
VERTEX
  8
0
  6
CONTINUOUS
 10
3.127080
 20
1.769240
  0
VERTEX
  8
0
  6
CONTINUOUS
 10
2.487320
 20
1.399640
  0
VERTEX
  8
0
  6
CONTINUOUS
 10
2.432320
 20
1.372800
  0
SEQEND
  8
0
  0
SOLID
  8
0
 62
    15
 10
2.181080
 20
3.096280
 11
2.821280
 21
3.465440
 12
2.255880
 22
3.137640
 13
2.896080
 23
3.506800
  0
POLYLINE
  8
0
  6
CONTINUOUS
 66
     1
 40
0.000000
 41
0.000000
  0
VERTEX
  8
0
  6
CONTINUOUS
 10
2.181080
 20
3.096280
  0
VERTEX
  8
0
  6
CONTINUOUS
 10
2.821280
 20
3.465440
  0
VERTEX
  8
0
  6
CONTINUOUS
 10
2.896080
 20
3.506800
  0
VERTEX
  8
0
  6
CONTINUOUS
 10
2.255880
 20
3.137640
  0
VERTEX
  8
0
  6
CONTINUOUS
 10
2.181080
 20
3.096280
  0
SEQEND
  8
0
  0
SOLID
  8
0
 62
    15
 10
2.255880
 20
3.137640
 11
2.896080
 21
3.506800
 12
2.346520
 22
3.175040
 13
2.986720
 23
3.544200
  0
POLYLINE
  8
0
  6
CONTINUOUS
 66
     1
 40
0.000000
 41
0.000000
  0
VERTEX
  8
0
  6
CONTINUOUS
 10
2.255880
 20
3.137640
  0
VERTEX
  8
0
  6
CONTINUOUS
 10
2.896080
 20
3.506800
  0
VERTEX
  8
0
  6
CONTINUOUS
 10
2.986720
 20
3.544200
  0
VERTEX
  8
0
  6
CONTINUOUS
 10
2.346520
 20
3.175040
  0
VERTEX
  8
0
  6
CONTINUOUS
 10
2.255880
 20
3.137640
  0
SEQEND
  8
0
  0
SOLID
  8
0
 62
    15
 10
2.346520
 20
3.175040
 11
2.986720
 21
3.544200
 12
2.455200
 22
3.207600
 13
3.094960
 23
3.576760
  0
POLYLINE
  8
0
  6
CONTINUOUS
 66
     1
 40
0.000000
 41
0.000000
  0
VERTEX
  8
0
  6
CONTINUOUS
 10
2.346520
 20
3.175040
  0
VERTEX
  8
0
  6
CONTINUOUS
 10
2.986720
 20
3.544200
  0
VERTEX
  8
0
  6
CONTINUOUS
 10
3.094960
 20
3.576760
  0
VERTEX
  8
0
  6
CONTINUOUS
 10
2.455200
 20
3.207600
  0
VERTEX
  8
0
  6
CONTINUOUS
 10
2.346520
 20
3.175040
  0
SEQEND
  8
0
  0
SOLID
  8
0
 62
    15
 10
2.455200
 20
3.207600
 11
3.094960
 21
3.576760
 12
2.582800
 22
3.234440
 13
3.223000
 23
3.604040
  0
POLYLINE
  8
0
  6
CONTINUOUS
 66
     1
 40
0.000000
 41
0.000000
  0
VERTEX
  8
0
  6
CONTINUOUS
 10
2.455200
 20
3.207600
  0
VERTEX
  8
0
  6
CONTINUOUS
 10
3.094960
 20
3.576760
  0
VERTEX
  8
0
  6
CONTINUOUS
 10
3.223000
 20
3.604040
  0
VERTEX
  8
0
  6
CONTINUOUS
 10
2.582800
 20
3.234440
  0
VERTEX
  8
0
  6
CONTINUOUS
 10
2.455200
 20
3.207600
  0
SEQEND
  8
0
  0
SOLID
  8
0
 62
    15
 10
2.582800
 20
3.234440
 11
3.223000
 21
3.604040
 12
2.731960
 22
3.255120
 13
3.371720
 23
3.624720
  0
POLYLINE
  8
0
  6
CONTINUOUS
 66
     1
 40
0.000000
 41
0.000000
  0
VERTEX
  8
0
  6
CONTINUOUS
 10
2.582800
 20
3.234440
  0
VERTEX
  8
0
  6
CONTINUOUS
 10
3.223000
 20
3.604040
  0
VERTEX
  8
0
  6
CONTINUOUS
 10
3.371720
 20
3.624720
  0
VERTEX
  8
0
  6
CONTINUOUS
 10
2.731960
 20
3.255120
  0
VERTEX
  8
0
  6
CONTINUOUS
 10
2.582800
 20
3.234440
  0
SEQEND
  8
0
  0
SOLID
  8
0
 62
    15
 10
2.731960
 20
3.255120
 11
3.371720
 21
3.624720
 12
2.903560
 22
3.268760
 13
3.543760
 23
3.637920
  0
POLYLINE
  8
0
  6
CONTINUOUS
 66
     1
 40
0.000000
 41
0.000000
  0
VERTEX
  8
0
  6
CONTINUOUS
 10
2.731960
 20
3.255120
  0
VERTEX
  8
0
  6
CONTINUOUS
 10
3.371720
 20
3.624720
  0
VERTEX
  8
0
  6
CONTINUOUS
 10
3.543760
 20
3.637920
  0
VERTEX
  8
0
  6
CONTINUOUS
 10
2.903560
 20
3.268760
  0
VERTEX
  8
0
  6
CONTINUOUS
 10
2.731960
 20
3.255120
  0
SEQEND
  8
0
  0
SOLID
  8
0
 62
    15
 10
2.903560
 20
3.268760
 11
3.543760
 21
3.637920
 12
3.099800
 22
3.274480
 13
3.739560
 23
3.643640
  0
POLYLINE
  8
0
  6
CONTINUOUS
 66
     1
 40
0.000000
 41
0.000000
  0
VERTEX
  8
0
  6
CONTINUOUS
 10
2.903560
 20
3.268760
  0
VERTEX
  8
0
  6
CONTINUOUS
 10
3.543760
 20
3.637920
  0
VERTEX
  8
0
  6
CONTINUOUS
 10
3.739560
 20
3.643640
  0
VERTEX
  8
0
  6
CONTINUOUS
 10
3.099800
 20
3.274480
  0
VERTEX
  8
0
  6
CONTINUOUS
 10
2.903560
 20
3.268760
  0
SEQEND
  8
0
  0
SOLID
  8
0
 62
    15
 10
3.099800
 20
3.274480
 11
3.739560
 21
3.643640
 12
3.103760
 22
3.274920
 13
3.743960
 23
3.644520
  0
POLYLINE
  8
0
  6
CONTINUOUS
 66
     1
 40
0.000000
 41
0.000000
  0
VERTEX
  8
0
  6
CONTINUOUS
 10
3.099800
 20
3.274480
  0
VERTEX
  8
0
  6
CONTINUOUS
 10
3.739560
 20
3.643640
  0
VERTEX
  8
0
  6
CONTINUOUS
 10
3.743960
 20
3.644520
  0
VERTEX
  8
0
  6
CONTINUOUS
 10
3.103760
 20
3.274920
  0
VERTEX
  8
0
  6
CONTINUOUS
 10
3.099800
 20
3.274480
  0
SEQEND
  8
0
  0
POLYLINE
  8
0
  6
CONTINUOUS
 66
     1
 40
0.000000
 41
0.000000
  0
VERTEX
  8
0
  6
CONTINUOUS
 10
3.103760
 20
3.274920
  0
VERTEX
  8
0
  6
CONTINUOUS
 10
3.316720
 20
3.273160
  0
VERTEX
  8
0
  6
CONTINUOUS
 10
3.502840
 20
3.262600
  0
VERTEX
  8
0
  6
CONTINUOUS
 10
3.664320
 20
3.243680
  0
VERTEX
  8
0
  6
CONTINUOUS
 10
3.802480
 20
3.217720
  0
VERTEX
  8
0
  6
CONTINUOUS
 10
3.919080
 20
3.186040
  0
VERTEX
  8
0
  6
CONTINUOUS
 10
4.016760
 20
3.148640
  0
VERTEX
  8
0
  6
CONTINUOUS
 10
4.096400
 20
3.106840
  0
VERTEX
  8
0
  6
CONTINUOUS
 10
4.160640
 20
3.061960
  0
VERTEX
  8
0
  6
CONTINUOUS
 10
4.211240
 20
3.014000
  0
VERTEX
  8
0
  6
CONTINUOUS
 10
4.249960
 20
2.964280
  0
VERTEX
  8
0
  6
CONTINUOUS
 10
4.299240
 20
2.862640
  0
VERTEX
  8
0
  6
CONTINUOUS
 10
4.323440
 20
2.764520
  0
VERTEX
  8
0
  6
CONTINUOUS
 10
4.337080
 20
2.676960
  0
VERTEX
  8
0
  6
CONTINUOUS
 10
4.338400
 20
2.633400
  0
VERTEX
  8
0
  6
CONTINUOUS
 10
4.329160
 20
2.584120
  0
VERTEX
  8
0
  6
CONTINUOUS
 10
4.285160
 20
2.468400
  0
VERTEX
  8
0
  6
CONTINUOUS
 10
4.216520
 20
2.332440
  0
VERTEX
  8
0
  6
CONTINUOUS
 10
4.136000
 20
2.179320
  0
VERTEX
  8
0
  6
CONTINUOUS
 10
4.054600
 20
2.010800
  0
VERTEX
  8
0
  6
CONTINUOUS
 10
3.984200
 20
1.830400
  0
VERTEX
  8
0
  6
CONTINUOUS
 10
3.936680
 20
1.640320
  0
VERTEX
  8
0
  6
CONTINUOUS
 10
3.923480
 20
1.443640
  0
VERTEX
  8
0
  6
CONTINUOUS
 10
3.800280
 20
1.424720
  0
VERTEX
  8
0
  6
CONTINUOUS
 10
3.800280
 20
1.398760
  0
VERTEX
  8
0
  6
CONTINUOUS
 10
3.855720
 20
1.371920
  0
VERTEX
  8
0
  6
CONTINUOUS
 10
3.894880
 20
1.330120
  0
VERTEX
  8
0
  6
CONTINUOUS
 10
3.918200
 20
1.279520
  0
VERTEX
  8
0
  6
CONTINUOUS
 10
3.924360
 20
1.224960
  0
VERTEX
  8
0
  6
CONTINUOUS
 10
3.913360
 20
1.171720
  0
VERTEX
  8
0
  6
CONTINUOUS
 10
3.884760
 20
1.125520
  0
VERTEX
  8
0
  6
CONTINUOUS
 10
3.837680
 20
1.091200
  0
VERTEX
  8
0
  6
CONTINUOUS
 10
3.772120
 20
1.074040
  0
VERTEX
  8
0
  6
CONTINUOUS
 10
3.772120
 20
1.015520
  0
VERTEX
  8
0
  6
CONTINUOUS
 10
2.517240
 20
1.014640
  0
VERTEX
  8
0
  6
CONTINUOUS
 10
2.515480
 20
1.016400
  0
VERTEX
  8
0
  6
CONTINUOUS
 10
2.515480
 20
1.075360
  0
VERTEX
  8
0
  6
CONTINUOUS
 10
2.449920
 20
1.092080
  0
VERTEX
  8
0
  6
CONTINUOUS
 10
2.402840
 20
1.126400
  0
VERTEX
  8
0
  6
CONTINUOUS
 10
2.374240
 20
1.173040
  0
VERTEX
  8
0
  6
CONTINUOUS
 10
2.363240
 20
1.225840
  0
VERTEX
  8
0
  6
CONTINUOUS
 10
2.369840
 20
1.280400
  0
VERTEX
  8
0
  6
CONTINUOUS
 10
2.392720
 20
1.331440
  0
VERTEX
  8
0
  6
CONTINUOUS
 10
2.432320
 20
1.372800
  0
VERTEX
  8
0
  6
CONTINUOUS
 10
2.487320
 20
1.399640
  0
VERTEX
  8
0
  6
CONTINUOUS
 10
2.487320
 20
1.426040
  0
VERTEX
  8
0
  6
CONTINUOUS
 10
2.364120
 20
1.444520
  0
VERTEX
  8
0
  6
CONTINUOUS
 10
2.351360
 20
1.641200
  0
VERTEX
  8
0
  6
CONTINUOUS
 10
2.303840
 20
1.831280
  0
VERTEX
  8
0
  6
CONTINUOUS
 10
2.233440
 20
2.012120
  0
VERTEX
  8
0
  6
CONTINUOUS
 10
2.151600
 20
2.180200
  0
VERTEX
  8
0
  6
CONTINUOUS
 10
2.071080
 20
2.333760
  0
VERTEX
  8
0
  6
CONTINUOUS
 10
2.002880
 20
2.469720
  0
VERTEX
  8
0
  6
CONTINUOUS
 10
1.958440
 20
2.585000
  0
VERTEX
  8
0
  6
CONTINUOUS
 10
1.949200
 20
2.634720
  0
VERTEX
  8
0
  6
CONTINUOUS
 10
1.950520
 20
2.677840
  0
VERTEX
  8
0
  6
CONTINUOUS
 10
1.964600
 20
2.763200
  0
VERTEX
  8
0
  6
CONTINUOUS
 10
1.988800
 20
2.857800
  0
VERTEX
  8
0
  6
CONTINUOUS
 10
2.036320
 20
2.956360
  0
VERTEX
  8
0
  6
CONTINUOUS
 10
2.072840
 20
3.004760
  0
VERTEX
  8
0
  6
CONTINUOUS
 10
2.120800
 20
3.051840
  0
VERTEX
  8
0
  6
CONTINUOUS
 10
2.181080
 20
3.096280
  0
VERTEX
  8
0
  6
CONTINUOUS
 10
2.255880
 20
3.137640
  0
VERTEX
  8
0
  6
CONTINUOUS
 10
2.346520
 20
3.175040
  0
VERTEX
  8
0
  6
CONTINUOUS
 10
2.455200
 20
3.207600
  0
VERTEX
  8
0
  6
CONTINUOUS
 10
2.582800
 20
3.234440
  0
VERTEX
  8
0
  6
CONTINUOUS
 10
2.731960
 20
3.255120
  0
VERTEX
  8
0
  6
CONTINUOUS
 10
2.903560
 20
3.268760
  0
VERTEX
  8
0
  6
CONTINUOUS
 10
3.103760
 20
3.274920
  0
SEQEND
  8
0
  0
TEXT
  8
0
 10
2.889920
 20
0.797280
 40
0.138106
  1
BA  636
 41
1.000000
  7
SN0
 71
     0
 72
     5
 11
3.480435
 21
0.797280
  0
TEXT
  8
0
 10
2.660240
 20
0.605880
 40
0.138106
  1
2-1/4" x 2-3/8"
 41
1.000000
  7
SN0
 71
     0
 72
     5
 11
3.709482
 21
0.605880
  0
ENDSEC
  0
EOF
