  0
SECTION
  2
HEADER
  9
$ACADVER
  1
AC1006
  9
$EXTMIN
 10
1.533400
 20
0.499840
  9
$EXTMAX
 10
7.156600
 20
6.814720
  9
$LTSCALE
 40
0.044000
  9
$PDMODE
 70
    35
  9
$PDSIZE
 40
0.035200
  0
ENDSEC
  0
SECTION
  2
TABLES
  0
TABLE
  2
LTYPE
 70
     9
  0
LTYPE
  2
CONTINUOUS
 70
    64
  3
Solid line
 72
    65
 73
     0
 40
0.000000
  0
LTYPE
  2
DASHED
 70
    64
  3
__ __ __ __ __ __ __ __ __ __ __ __ __ __ __
 72
    65
 73
     2
 40
0.000330
 49
0.000220
 49
-0.000110
  0
LTYPE
  2
HIDDEN
 70
    64
  3
 _ _ _ _ _ _ _ _ _ _ _ _ _ _ _ _ _ _ _ _ _ _
 72
    65
 73
     2
 40
0.000165
 49
0.000110
 49
-0.000055
  0
LTYPE
  2
CENTER
 70
    64
  3
____ _ ____ _ ____ _ ____ _ ____ _ ____ _ ____
 72
    65
 73
     4
 40
0.000880
 49
0.000550
 49
-0.000110
 49
0.000110
 49
-0.000110
  0
LTYPE
  2
PHANTOM
 70
    64
  3
_____ _ _ _____ _ _ _____ _ _ _____ _ _ ____
 72
    65
 73
     6
 40
0.001100
 49
0.000550
 49
-0.000110
 49
0.000110
 49
-0.000110
 49
0.000110
 49
-0.000110
  0
LTYPE
  2
DOT
 70
    64
  3
...............................................
 72
    65
 73
     2
 40
0.000110
 49
0.000000
 49
-0.000110
  0
LTYPE
  2
DASHDOT
 70
    64
  3
__ . __ . __ . __ . __ . __ . __ . __ . __ . __
 72
    65
 73
     4
 40
0.000440
 49
0.000220
 49
-0.000110
 49
0.000000
 49
-0.000110
  0
LTYPE
  2
BORDER
 70
    64
  3
__ __ . __ __ . __ __ . __ __ . __ __ . __ __
 72
    65
 73
     6
 40
0.000770
 49
0.000220
 49
-0.000110
 49
0.000220
 49
-0.000110
 49
0.000000
 49
-0.000110
  0
LTYPE
  2
DIVIDE
 70
    64
  3
__ . . __ . . __ . . __ . . __ . . __ . . __
 72
    65
 73
     6
 40
0.000550
 49
0.000220
 49
-0.000110
 49
0.000000
 49
-0.000110
 49
0.000000
 49
-0.000110
  0
LTYPE
  2
DOTDOT
 70
    64
  3
 . .  . .  . .  . .  . .  . . 
 72
    65
 73
     5
 40
0.000242
 49
-0.000110
 49
0.000000
 49
-0.000110
 49
0.000000
 49
-0.000110
  0
ENDTAB
  0
TABLE
  2
STYLE
 70
     2
  0
STYLE
 70
     0
  2
SN0
 40
0.000000
 41
0.000440
 50
0.000000
 71
     0
 42
0.000000
  3
ROMAND
  0
STYLE
 70
    68
  2
SV0
 40
0.000000
 41
0.000440
 50
0.000000
 71
     0
 42
0.000000
  3
ROMAND
  0
ENDTAB
  0
TABLE
  2
LAYER
 70
     3
  0
LAYER
  2
FOREGROUND
 70
    64
 62
     7
  6
CONTINUOUS
  0
LAYER
  2
BACKGROUND
 70
    65
 62
    -7
  6
CONTINUOUS
  0
LAYER
  2
0
 70
    64
 62
     7
  6
CONTINUOUS
  0
ENDTAB
  0
ENDSEC
  0
SECTION
  2
ENTITIES
  0
POLYLINE
  8
FOREGROUND
  6
CONTINUOUS
 66
     1
 40
0.000000
 41
0.000000
  0
VERTEX
  8
FOREGROUND
  6
CONTINUOUS
 10
0.000000
 20
7.314560
  0
VERTEX
  8
FOREGROUND
  6
CONTINUOUS
 10
8.499920
 20
7.314560
  0
VERTEX
  8
FOREGROUND
  6
CONTINUOUS
 10
8.499920
 20
-3.685440
  0
VERTEX
  8
FOREGROUND
  6
CONTINUOUS
 10
0.000000
 20
-3.685440
  0
VERTEX
  8
FOREGROUND
  6
CONTINUOUS
 10
0.000000
 20
7.314560
  0
SEQEND
  8
0
  0
POLYLINE
  8
FOREGROUND
  6
CONTINUOUS
 66
     1
 40
0.000000
 41
0.000000
  0
VERTEX
  8
FOREGROUND
  6
CONTINUOUS
 10
0.000000
 20
7.314560
  0
VERTEX
  8
FOREGROUND
  6
CONTINUOUS
 10
8.499920
 20
7.314560
  0
VERTEX
  8
FOREGROUND
  6
CONTINUOUS
 10
8.499920
 20
-3.685440
  0
VERTEX
  8
FOREGROUND
  6
CONTINUOUS
 10
0.000000
 20
-3.685440
  0
VERTEX
  8
FOREGROUND
  6
CONTINUOUS
 10
0.000000
 20
7.314560
  0
SEQEND
  8
0
  0
POLYLINE
  8
0
  6
CONTINUOUS
 66
     1
 40
0.014080
 41
0.014080
  0
VERTEX
  8
0
  6
CONTINUOUS
 10
6.730680
 20
6.011280
  0
VERTEX
  8
0
  6
CONTINUOUS
 10
6.791400
 20
5.959800
  0
VERTEX
  8
0
  6
CONTINUOUS
 10
6.829680
 20
5.922840
  0
VERTEX
  8
0
  6
CONTINUOUS
 10
6.883360
 20
5.863440
  0
VERTEX
  8
0
  6
CONTINUOUS
 10
6.932640
 20
5.800080
  0
VERTEX
  8
0
  6
CONTINUOUS
 10
6.977080
 20
5.732760
  0
VERTEX
  8
0
  6
CONTINUOUS
 10
7.004360
 20
5.685680
  0
VERTEX
  8
0
  6
CONTINUOUS
 10
7.029000
 20
5.637280
  0
VERTEX
  8
0
  6
CONTINUOUS
 10
7.061120
 20
5.562040
  0
VERTEX
  8
0
  6
CONTINUOUS
 10
7.079600
 20
5.510560
  0
VERTEX
  8
0
  6
CONTINUOUS
 10
7.102040
 20
5.430920
  0
VERTEX
  8
0
  6
CONTINUOUS
 10
7.118320
 20
5.349080
  0
VERTEX
  8
0
  6
CONTINUOUS
 10
7.125360
 20
5.293200
  0
VERTEX
  8
0
  6
CONTINUOUS
 10
7.129320
 20
5.236880
  0
VERTEX
  8
0
  6
CONTINUOUS
 10
7.130640
 20
5.179680
  0
VERTEX
  8
0
  6
CONTINUOUS
 10
7.128440
 20
5.122040
  0
VERTEX
  8
0
  6
CONTINUOUS
 10
7.122720
 20
5.063520
  0
VERTEX
  8
0
  6
CONTINUOUS
 10
7.113920
 20
5.005000
  0
VERTEX
  8
0
  6
CONTINUOUS
 10
7.102040
 20
4.946480
  0
VERTEX
  8
0
  6
CONTINUOUS
 10
7.086200
 20
4.887080
  0
VERTEX
  8
0
  6
CONTINUOUS
 10
7.066400
 20
4.828120
  0
VERTEX
  8
0
  6
CONTINUOUS
 10
7.043520
 20
4.769160
  0
VERTEX
  8
0
  6
CONTINUOUS
 10
7.001280
 20
4.680720
  0
VERTEX
  8
0
  6
CONTINUOUS
 10
6.968720
 20
4.621760
  0
VERTEX
  8
0
  6
CONTINUOUS
 10
6.931760
 20
4.563680
  0
VERTEX
  8
0
  6
CONTINUOUS
 10
6.868400
 20
4.477000
  0
VERTEX
  8
0
  6
CONTINUOUS
 10
6.795800
 20
4.391640
  0
VERTEX
  8
0
  6
CONTINUOUS
 10
6.660720
 20
4.251720
  0
VERTEX
  8
0
  6
CONTINUOUS
 10
6.586800
 20
4.166360
  0
VERTEX
  8
0
  6
CONTINUOUS
 10
6.519480
 20
4.079680
  0
VERTEX
  8
0
  6
CONTINUOUS
 10
6.477680
 20
4.021600
  0
VERTEX
  8
0
  6
CONTINUOUS
 10
6.420480
 20
3.934040
  0
VERTEX
  8
0
  6
CONTINUOUS
 10
6.385720
 20
3.875080
  0
VERTEX
  8
0
  6
CONTINUOUS
 10
6.353160
 20
3.816120
  0
VERTEX
  8
0
  6
CONTINUOUS
 10
6.322800
 20
3.757160
  0
VERTEX
  8
0
  6
CONTINUOUS
 10
6.294640
 20
3.698200
  0
VERTEX
  8
0
  6
CONTINUOUS
 10
6.245360
 20
3.579840
  0
VERTEX
  8
0
  6
CONTINUOUS
 10
6.223800
 20
3.521320
  0
VERTEX
  8
0
  6
CONTINUOUS
 10
6.204000
 20
3.462360
  0
VERTEX
  8
0
  6
CONTINUOUS
 10
6.170120
 20
3.346200
  0
VERTEX
  8
0
  6
CONTINUOUS
 10
6.155600
 20
3.288560
  0
VERTEX
  8
0
  6
CONTINUOUS
 10
6.131400
 20
3.175040
  0
VERTEX
  8
0
  6
CONTINUOUS
 10
6.112920
 20
3.063720
  0
VERTEX
  8
0
  6
CONTINUOUS
 10
6.099280
 20
2.955480
  0
VERTEX
  8
0
  6
CONTINUOUS
 10
6.086520
 20
2.799720
  0
VERTEX
  8
0
  6
CONTINUOUS
 10
6.081240
 20
2.653200
  0
VERTEX
  8
0
  6
CONTINUOUS
 10
6.080360
 20
2.561680
  0
VERTEX
  8
0
  6
CONTINUOUS
 10
6.081680
 20
2.475880
  0
VERTEX
  8
0
  6
CONTINUOUS
 10
6.088280
 20
2.358840
  0
VERTEX
  8
0
  6
CONTINUOUS
 10
6.098840
 20
2.254120
  0
VERTEX
  8
0
  6
CONTINUOUS
 10
6.107640
 20
2.190320
  0
VERTEX
  8
0
  6
CONTINUOUS
 10
6.128320
 20
2.076360
  0
VERTEX
  8
0
  6
CONTINUOUS
 10
6.180240
 20
1.847120
  0
VERTEX
  8
0
  6
CONTINUOUS
 10
6.193440
 20
1.769240
  0
VERTEX
  8
0
  6
CONTINUOUS
 10
6.197400
 20
1.731840
  0
VERTEX
  8
0
  6
CONTINUOUS
 10
6.198720
 20
1.694440
  0
VERTEX
  8
0
  6
CONTINUOUS
 10
6.197400
 20
1.656160
  0
VERTEX
  8
0
  6
CONTINUOUS
 10
6.190360
 20
1.596760
  0
VERTEX
  8
0
  6
CONTINUOUS
 10
6.182000
 20
1.556280
  0
VERTEX
  8
0
  6
CONTINUOUS
 10
6.163080
 20
1.496000
  0
VERTEX
  8
0
  6
CONTINUOUS
 10
6.146360
 20
1.456400
  0
VERTEX
  8
0
  6
CONTINUOUS
 10
6.125680
 20
1.417680
  0
VERTEX
  8
0
  6
CONTINUOUS
 10
6.101040
 20
1.381160
  0
VERTEX
  8
0
  6
CONTINUOUS
 10
6.072440
 20
1.347280
  0
VERTEX
  8
0
  6
CONTINUOUS
 10
6.039440
 20
1.315600
  0
VERTEX
  8
0
  6
CONTINUOUS
 10
6.001600
 20
1.287880
  0
VERTEX
  8
0
  6
CONTINUOUS
 10
5.981360
 20
1.275120
  0
VERTEX
  8
0
  6
CONTINUOUS
 10
5.936480
 20
1.253120
  0
VERTEX
  8
0
  6
CONTINUOUS
 10
5.912280
 20
1.243880
  0
VERTEX
  8
0
  6
CONTINUOUS
 10
5.886760
 20
1.235960
  0
VERTEX
  8
0
  6
CONTINUOUS
 10
5.859920
 20
1.229360
  0
VERTEX
  8
0
  6
CONTINUOUS
 10
5.831760
 20
1.224080
  0
VERTEX
  8
0
  6
CONTINUOUS
 10
5.802280
 20
1.220120
  0
VERTEX
  8
0
  6
CONTINUOUS
 10
5.738920
 20
1.217040
  0
VERTEX
  8
0
  6
CONTINUOUS
 10
5.146240
 20
1.217040
  0
VERTEX
  8
0
  6
CONTINUOUS
 10
5.146240
 20
6.727600
  0
VERTEX
  8
0
  6
CONTINUOUS
 10
7.149560
 20
6.727600
  0
VERTEX
  8
0
  6
CONTINUOUS
 10
7.149560
 20
6.050440
  0
VERTEX
  8
0
  6
CONTINUOUS
 10
6.730680
 20
6.011280
  0
SEQEND
  8
0
  0
SOLID
  8
0
 62
    15
 10
2.574000
 20
3.490520
 11
3.229160
 21
3.114760
 12
2.519000
 22
3.261280
 13
3.174160
 23
2.885520
  0
POLYLINE
  8
0
  6
CONTINUOUS
 66
     1
 40
0.000000
 41
0.000000
  0
VERTEX
  8
0
  6
CONTINUOUS
 10
2.574000
 20
3.490520
  0
VERTEX
  8
0
  6
CONTINUOUS
 10
3.229160
 20
3.114760
  0
VERTEX
  8
0
  6
CONTINUOUS
 10
3.174160
 20
2.885520
  0
VERTEX
  8
0
  6
CONTINUOUS
 10
2.519000
 20
3.261280
  0
VERTEX
  8
0
  6
CONTINUOUS
 10
2.574000
 20
3.490520
  0
SEQEND
  8
0
  0
SOLID
  8
0
 62
    15
 10
3.198360
 20
6.028000
 11
3.853520
 21
5.651800
 12
3.270960
 22
5.950120
 13
3.926120
 23
5.573920
  0
POLYLINE
  8
0
  6
CONTINUOUS
 66
     1
 40
0.000000
 41
0.000000
  0
VERTEX
  8
0
  6
CONTINUOUS
 10
3.198360
 20
6.028000
  0
VERTEX
  8
0
  6
CONTINUOUS
 10
3.853520
 20
5.651800
  0
VERTEX
  8
0
  6
CONTINUOUS
 10
3.926120
 20
5.573920
  0
VERTEX
  8
0
  6
CONTINUOUS
 10
3.270960
 20
5.950120
  0
VERTEX
  8
0
  6
CONTINUOUS
 10
3.198360
 20
6.028000
  0
SEQEND
  8
0
  0
SOLID
  8
0
 62
    15
 10
3.270960
 20
5.950120
 11
3.926120
 21
5.573920
 12
3.335640
 22
5.864320
 13
3.990800
 23
5.488560
  0
POLYLINE
  8
0
  6
CONTINUOUS
 66
     1
 40
0.000000
 41
0.000000
  0
VERTEX
  8
0
  6
CONTINUOUS
 10
3.270960
 20
5.950120
  0
VERTEX
  8
0
  6
CONTINUOUS
 10
3.926120
 20
5.573920
  0
VERTEX
  8
0
  6
CONTINUOUS
 10
3.990800
 20
5.488560
  0
VERTEX
  8
0
  6
CONTINUOUS
 10
3.335640
 20
5.864320
  0
VERTEX
  8
0
  6
CONTINUOUS
 10
3.270960
 20
5.950120
  0
SEQEND
  8
0
  0
SOLID
  8
0
 62
    15
 10
3.335640
 20
5.864320
 11
3.990800
 21
5.488560
 12
3.391520
 22
5.772360
 13
4.046680
 23
5.396160
  0
POLYLINE
  8
0
  6
CONTINUOUS
 66
     1
 40
0.000000
 41
0.000000
  0
VERTEX
  8
0
  6
CONTINUOUS
 10
3.335640
 20
5.864320
  0
VERTEX
  8
0
  6
CONTINUOUS
 10
3.990800
 20
5.488560
  0
VERTEX
  8
0
  6
CONTINUOUS
 10
4.046680
 20
5.396160
  0
VERTEX
  8
0
  6
CONTINUOUS
 10
3.391520
 20
5.772360
  0
VERTEX
  8
0
  6
CONTINUOUS
 10
3.335640
 20
5.864320
  0
SEQEND
  8
0
  0
SOLID
  8
0
 62
    15
 10
3.391520
 20
5.772360
 11
4.046680
 21
5.396160
 12
3.438600
 22
5.674240
 13
4.093760
 23
5.298040
  0
POLYLINE
  8
0
  6
CONTINUOUS
 66
     1
 40
0.000000
 41
0.000000
  0
VERTEX
  8
0
  6
CONTINUOUS
 10
3.391520
 20
5.772360
  0
VERTEX
  8
0
  6
CONTINUOUS
 10
4.046680
 20
5.396160
  0
VERTEX
  8
0
  6
CONTINUOUS
 10
4.093760
 20
5.298040
  0
VERTEX
  8
0
  6
CONTINUOUS
 10
3.438600
 20
5.674240
  0
VERTEX
  8
0
  6
CONTINUOUS
 10
3.391520
 20
5.772360
  0
SEQEND
  8
0
  0
SOLID
  8
0
 62
    15
 10
3.438600
 20
5.674240
 11
4.093760
 21
5.298040
 12
3.475120
 22
5.570840
 13
4.130280
 23
5.195080
  0
POLYLINE
  8
0
  6
CONTINUOUS
 66
     1
 40
0.000000
 41
0.000000
  0
VERTEX
  8
0
  6
CONTINUOUS
 10
3.438600
 20
5.674240
  0
VERTEX
  8
0
  6
CONTINUOUS
 10
4.093760
 20
5.298040
  0
VERTEX
  8
0
  6
CONTINUOUS
 10
4.130280
 20
5.195080
  0
VERTEX
  8
0
  6
CONTINUOUS
 10
3.475120
 20
5.570840
  0
VERTEX
  8
0
  6
CONTINUOUS
 10
3.438600
 20
5.674240
  0
SEQEND
  8
0
  0
SOLID
  8
0
 62
    15
 10
3.475120
 20
5.570840
 11
4.130280
 21
5.195080
 12
3.501080
 22
5.463040
 13
4.156240
 23
5.087280
  0
POLYLINE
  8
0
  6
CONTINUOUS
 66
     1
 40
0.000000
 41
0.000000
  0
VERTEX
  8
0
  6
CONTINUOUS
 10
3.475120
 20
5.570840
  0
VERTEX
  8
0
  6
CONTINUOUS
 10
4.130280
 20
5.195080
  0
VERTEX
  8
0
  6
CONTINUOUS
 10
4.156240
 20
5.087280
  0
VERTEX
  8
0
  6
CONTINUOUS
 10
3.501080
 20
5.463040
  0
VERTEX
  8
0
  6
CONTINUOUS
 10
3.475120
 20
5.570840
  0
SEQEND
  8
0
  0
SOLID
  8
0
 62
    15
 10
3.501080
 20
5.463040
 11
4.156240
 21
5.087280
 12
3.515160
 22
5.351720
 13
4.170320
 23
4.975520
  0
POLYLINE
  8
0
  6
CONTINUOUS
 66
     1
 40
0.000000
 41
0.000000
  0
VERTEX
  8
0
  6
CONTINUOUS
 10
3.501080
 20
5.463040
  0
VERTEX
  8
0
  6
CONTINUOUS
 10
4.156240
 20
5.087280
  0
VERTEX
  8
0
  6
CONTINUOUS
 10
4.170320
 20
4.975520
  0
VERTEX
  8
0
  6
CONTINUOUS
 10
3.515160
 20
5.351720
  0
VERTEX
  8
0
  6
CONTINUOUS
 10
3.501080
 20
5.463040
  0
SEQEND
  8
0
  0
SOLID
  8
0
 62
    15
 10
3.515160
 20
5.351720
 11
4.170320
 21
4.975520
 12
3.517360
 22
5.237320
 13
4.172520
 23
4.861560
  0
POLYLINE
  8
0
  6
CONTINUOUS
 66
     1
 40
0.000000
 41
0.000000
  0
VERTEX
  8
0
  6
CONTINUOUS
 10
3.515160
 20
5.351720
  0
VERTEX
  8
0
  6
CONTINUOUS
 10
4.170320
 20
4.975520
  0
VERTEX
  8
0
  6
CONTINUOUS
 10
4.172520
 20
4.861560
  0
VERTEX
  8
0
  6
CONTINUOUS
 10
3.517360
 20
5.237320
  0
VERTEX
  8
0
  6
CONTINUOUS
 10
3.515160
 20
5.351720
  0
SEQEND
  8
0
  0
SOLID
  8
0
 62
    15
 10
3.517360
 20
5.237320
 11
4.172520
 21
4.861560
 12
3.506360
 22
5.121160
 13
4.161520
 23
4.744960
  0
POLYLINE
  8
0
  6
CONTINUOUS
 66
     1
 40
0.000000
 41
0.000000
  0
VERTEX
  8
0
  6
CONTINUOUS
 10
3.517360
 20
5.237320
  0
VERTEX
  8
0
  6
CONTINUOUS
 10
4.172520
 20
4.861560
  0
VERTEX
  8
0
  6
CONTINUOUS
 10
4.161520
 20
4.744960
  0
VERTEX
  8
0
  6
CONTINUOUS
 10
3.506360
 20
5.121160
  0
VERTEX
  8
0
  6
CONTINUOUS
 10
3.517360
 20
5.237320
  0
SEQEND
  8
0
  0
SOLID
  8
0
 62
    15
 10
3.506360
 20
5.121160
 11
4.161520
 21
4.744960
 12
3.481720
 22
5.003240
 13
4.136880
 23
4.627480
  0
POLYLINE
  8
0
  6
CONTINUOUS
 66
     1
 40
0.000000
 41
0.000000
  0
VERTEX
  8
0
  6
CONTINUOUS
 10
3.506360
 20
5.121160
  0
VERTEX
  8
0
  6
CONTINUOUS
 10
4.161520
 20
4.744960
  0
VERTEX
  8
0
  6
CONTINUOUS
 10
4.136880
 20
4.627480
  0
VERTEX
  8
0
  6
CONTINUOUS
 10
3.481720
 20
5.003240
  0
VERTEX
  8
0
  6
CONTINUOUS
 10
3.506360
 20
5.121160
  0
SEQEND
  8
0
  0
SOLID
  8
0
 62
    15
 10
3.481720
 20
5.003240
 11
4.136880
 21
4.627480
 12
3.443000
 22
4.885320
 13
4.098160
 23
4.509120
  0
POLYLINE
  8
0
  6
CONTINUOUS
 66
     1
 40
0.000000
 41
0.000000
  0
VERTEX
  8
0
  6
CONTINUOUS
 10
3.481720
 20
5.003240
  0
VERTEX
  8
0
  6
CONTINUOUS
 10
4.136880
 20
4.627480
  0
VERTEX
  8
0
  6
CONTINUOUS
 10
4.098160
 20
4.509120
  0
VERTEX
  8
0
  6
CONTINUOUS
 10
3.443000
 20
4.885320
  0
VERTEX
  8
0
  6
CONTINUOUS
 10
3.481720
 20
5.003240
  0
SEQEND
  8
0
  0
SOLID
  8
0
 62
    15
 10
3.443000
 20
4.885320
 11
4.098160
 21
4.509120
 12
3.388880
 22
4.767400
 13
4.044040
 23
4.391200
  0
POLYLINE
  8
0
  6
CONTINUOUS
 66
     1
 40
0.000000
 41
0.000000
  0
VERTEX
  8
0
  6
CONTINUOUS
 10
3.443000
 20
4.885320
  0
VERTEX
  8
0
  6
CONTINUOUS
 10
4.098160
 20
4.509120
  0
VERTEX
  8
0
  6
CONTINUOUS
 10
4.044040
 20
4.391200
  0
VERTEX
  8
0
  6
CONTINUOUS
 10
3.388880
 20
4.767400
  0
VERTEX
  8
0
  6
CONTINUOUS
 10
3.443000
 20
4.885320
  0
SEQEND
  8
0
  0
SOLID
  8
0
 62
    15
 10
3.388880
 20
4.767400
 11
4.044040
 21
4.391200
 12
3.319360
 22
4.650360
 13
3.974520
 23
4.274160
  0
POLYLINE
  8
0
  6
CONTINUOUS
 66
     1
 40
0.000000
 41
0.000000
  0
VERTEX
  8
0
  6
CONTINUOUS
 10
3.388880
 20
4.767400
  0
VERTEX
  8
0
  6
CONTINUOUS
 10
4.044040
 20
4.391200
  0
VERTEX
  8
0
  6
CONTINUOUS
 10
3.974520
 20
4.274160
  0
VERTEX
  8
0
  6
CONTINUOUS
 10
3.319360
 20
4.650360
  0
VERTEX
  8
0
  6
CONTINUOUS
 10
3.388880
 20
4.767400
  0
SEQEND
  8
0
  0
SOLID
  8
0
 62
    15
 10
3.319360
 20
4.650360
 11
3.974520
 21
4.274160
 12
3.232680
 22
4.535080
 13
3.887840
 23
4.159320
  0
POLYLINE
  8
0
  6
CONTINUOUS
 66
     1
 40
0.000000
 41
0.000000
  0
VERTEX
  8
0
  6
CONTINUOUS
 10
3.319360
 20
4.650360
  0
VERTEX
  8
0
  6
CONTINUOUS
 10
3.974520
 20
4.274160
  0
VERTEX
  8
0
  6
CONTINUOUS
 10
3.887840
 20
4.159320
  0
VERTEX
  8
0
  6
CONTINUOUS
 10
3.232680
 20
4.535080
  0
VERTEX
  8
0
  6
CONTINUOUS
 10
3.319360
 20
4.650360
  0
SEQEND
  8
0
  0
SOLID
  8
0
 62
    15
 10
3.232680
 20
4.535080
 11
3.887840
 21
4.159320
 12
3.129280
 22
4.422440
 13
3.784440
 23
4.046240
  0
POLYLINE
  8
0
  6
CONTINUOUS
 66
     1
 40
0.000000
 41
0.000000
  0
VERTEX
  8
0
  6
CONTINUOUS
 10
3.232680
 20
4.535080
  0
VERTEX
  8
0
  6
CONTINUOUS
 10
3.887840
 20
4.159320
  0
VERTEX
  8
0
  6
CONTINUOUS
 10
3.784440
 20
4.046240
  0
VERTEX
  8
0
  6
CONTINUOUS
 10
3.129280
 20
4.422440
  0
VERTEX
  8
0
  6
CONTINUOUS
 10
3.232680
 20
4.535080
  0
SEQEND
  8
0
  0
SOLID
  8
0
 62
    15
 10
3.129280
 20
4.422440
 11
3.784440
 21
4.046240
 12
3.023240
 22
4.310240
 13
3.678400
 23
3.934040
  0
POLYLINE
  8
0
  6
CONTINUOUS
 66
     1
 40
0.000000
 41
0.000000
  0
VERTEX
  8
0
  6
CONTINUOUS
 10
3.129280
 20
4.422440
  0
VERTEX
  8
0
  6
CONTINUOUS
 10
3.784440
 20
4.046240
  0
VERTEX
  8
0
  6
CONTINUOUS
 10
3.678400
 20
3.934040
  0
VERTEX
  8
0
  6
CONTINUOUS
 10
3.023240
 20
4.310240
  0
VERTEX
  8
0
  6
CONTINUOUS
 10
3.129280
 20
4.422440
  0
SEQEND
  8
0
  0
SOLID
  8
0
 62
    15
 10
3.023240
 20
4.310240
 11
3.678400
 21
3.934040
 12
2.928640
 22
4.195400
 13
3.583800
 23
3.819640
  0
POLYLINE
  8
0
  6
CONTINUOUS
 66
     1
 40
0.000000
 41
0.000000
  0
VERTEX
  8
0
  6
CONTINUOUS
 10
3.023240
 20
4.310240
  0
VERTEX
  8
0
  6
CONTINUOUS
 10
3.678400
 20
3.934040
  0
VERTEX
  8
0
  6
CONTINUOUS
 10
3.583800
 20
3.819640
  0
VERTEX
  8
0
  6
CONTINUOUS
 10
2.928640
 20
4.195400
  0
VERTEX
  8
0
  6
CONTINUOUS
 10
3.023240
 20
4.310240
  0
SEQEND
  8
0
  0
SOLID
  8
0
 62
    15
 10
2.928640
 20
4.195400
 11
3.583800
 21
3.819640
 12
2.845480
 22
4.079240
 13
3.500640
 23
3.703480
  0
POLYLINE
  8
0
  6
CONTINUOUS
 66
     1
 40
0.000000
 41
0.000000
  0
VERTEX
  8
0
  6
CONTINUOUS
 10
2.928640
 20
4.195400
  0
VERTEX
  8
0
  6
CONTINUOUS
 10
3.583800
 20
3.819640
  0
VERTEX
  8
0
  6
CONTINUOUS
 10
3.500640
 20
3.703480
  0
VERTEX
  8
0
  6
CONTINUOUS
 10
2.845480
 20
4.079240
  0
VERTEX
  8
0
  6
CONTINUOUS
 10
2.928640
 20
4.195400
  0
SEQEND
  8
0
  0
SOLID
  8
0
 62
    15
 10
2.845480
 20
4.079240
 11
3.500640
 21
3.703480
 12
2.772880
 22
3.961760
 13
3.428040
 23
3.586000
  0
POLYLINE
  8
0
  6
CONTINUOUS
 66
     1
 40
0.000000
 41
0.000000
  0
VERTEX
  8
0
  6
CONTINUOUS
 10
2.845480
 20
4.079240
  0
VERTEX
  8
0
  6
CONTINUOUS
 10
3.500640
 20
3.703480
  0
VERTEX
  8
0
  6
CONTINUOUS
 10
3.428040
 20
3.586000
  0
VERTEX
  8
0
  6
CONTINUOUS
 10
2.772880
 20
3.961760
  0
VERTEX
  8
0
  6
CONTINUOUS
 10
2.845480
 20
4.079240
  0
SEQEND
  8
0
  0
SOLID
  8
0
 62
    15
 10
2.772880
 20
3.961760
 11
3.428040
 21
3.586000
 12
2.656720
 22
3.725480
 13
3.311880
 23
3.349720
  0
POLYLINE
  8
0
  6
CONTINUOUS
 66
     1
 40
0.000000
 41
0.000000
  0
VERTEX
  8
0
  6
CONTINUOUS
 10
2.772880
 20
3.961760
  0
VERTEX
  8
0
  6
CONTINUOUS
 10
3.428040
 20
3.586000
  0
VERTEX
  8
0
  6
CONTINUOUS
 10
3.311880
 20
3.349720
  0
VERTEX
  8
0
  6
CONTINUOUS
 10
2.656720
 20
3.725480
  0
VERTEX
  8
0
  6
CONTINUOUS
 10
2.772880
 20
3.961760
  0
SEQEND
  8
0
  0
SOLID
  8
0
 62
    15
 10
2.656720
 20
3.725480
 11
3.311880
 21
3.349720
 12
2.574000
 22
3.490520
 13
3.229160
 23
3.114760
  0
POLYLINE
  8
0
  6
CONTINUOUS
 66
     1
 40
0.000000
 41
0.000000
  0
VERTEX
  8
0
  6
CONTINUOUS
 10
2.656720
 20
3.725480
  0
VERTEX
  8
0
  6
CONTINUOUS
 10
3.311880
 20
3.349720
  0
VERTEX
  8
0
  6
CONTINUOUS
 10
3.229160
 20
3.114760
  0
VERTEX
  8
0
  6
CONTINUOUS
 10
2.574000
 20
3.490520
  0
VERTEX
  8
0
  6
CONTINUOUS
 10
2.656720
 20
3.725480
  0
SEQEND
  8
0
  0
SOLID
  8
0
 62
    15
 10
3.537160
 20
6.136680
 11
4.192320
 21
5.760920
 12
3.118280
 22
6.097520
 13
3.773440
 23
5.721760
  0
POLYLINE
  8
0
  6
CONTINUOUS
 66
     1
 40
0.000000
 41
0.000000
  0
VERTEX
  8
0
  6
CONTINUOUS
 10
3.537160
 20
6.136680
  0
VERTEX
  8
0
  6
CONTINUOUS
 10
4.192320
 20
5.760920
  0
VERTEX
  8
0
  6
CONTINUOUS
 10
3.773440
 20
5.721760
  0
VERTEX
  8
0
  6
CONTINUOUS
 10
3.118280
 20
6.097520
  0
VERTEX
  8
0
  6
CONTINUOUS
 10
3.537160
 20
6.136680
  0
SEQEND
  8
0
  0
SOLID
  8
0
 62
    15
 10
2.519000
 20
3.261280
 11
3.174160
 21
2.885520
 12
2.486880
 22
3.041720
 13
3.142040
 23
2.665960
  0
POLYLINE
  8
0
  6
CONTINUOUS
 66
     1
 40
0.000000
 41
0.000000
  0
VERTEX
  8
0
  6
CONTINUOUS
 10
2.519000
 20
3.261280
  0
VERTEX
  8
0
  6
CONTINUOUS
 10
3.174160
 20
2.885520
  0
VERTEX
  8
0
  6
CONTINUOUS
 10
3.142040
 20
2.665960
  0
VERTEX
  8
0
  6
CONTINUOUS
 10
2.486880
 20
3.041720
  0
VERTEX
  8
0
  6
CONTINUOUS
 10
2.519000
 20
3.261280
  0
SEQEND
  8
0
  0
SOLID
  8
0
 62
    15
 10
2.486880
 20
3.041720
 11
3.142040
 21
2.665960
 12
2.471920
 22
2.835800
 13
3.127080
 23
2.460040
  0
POLYLINE
  8
0
  6
CONTINUOUS
 66
     1
 40
0.000000
 41
0.000000
  0
VERTEX
  8
0
  6
CONTINUOUS
 10
2.486880
 20
3.041720
  0
VERTEX
  8
0
  6
CONTINUOUS
 10
3.142040
 20
2.665960
  0
VERTEX
  8
0
  6
CONTINUOUS
 10
3.127080
 20
2.460040
  0
VERTEX
  8
0
  6
CONTINUOUS
 10
2.471920
 20
2.835800
  0
VERTEX
  8
0
  6
CONTINUOUS
 10
2.486880
 20
3.041720
  0
SEQEND
  8
0
  0
SOLID
  8
0
 62
    15
 10
2.471920
 20
2.835800
 11
3.127080
 21
2.460040
 12
2.467960
 22
2.647920
 13
3.123120
 23
2.272160
  0
POLYLINE
  8
0
  6
CONTINUOUS
 66
     1
 40
0.000000
 41
0.000000
  0
VERTEX
  8
0
  6
CONTINUOUS
 10
2.471920
 20
2.835800
  0
VERTEX
  8
0
  6
CONTINUOUS
 10
3.127080
 20
2.460040
  0
VERTEX
  8
0
  6
CONTINUOUS
 10
3.123120
 20
2.272160
  0
VERTEX
  8
0
  6
CONTINUOUS
 10
2.467960
 20
2.647920
  0
VERTEX
  8
0
  6
CONTINUOUS
 10
2.471920
 20
2.835800
  0
SEQEND
  8
0
  0
SOLID
  8
0
 62
    15
 10
2.467960
 20
2.647920
 11
3.123120
 21
2.272160
 12
2.473240
 22
2.482920
 13
3.128400
 23
2.106720
  0
POLYLINE
  8
0
  6
CONTINUOUS
 66
     1
 40
0.000000
 41
0.000000
  0
VERTEX
  8
0
  6
CONTINUOUS
 10
2.467960
 20
2.647920
  0
VERTEX
  8
0
  6
CONTINUOUS
 10
3.123120
 20
2.272160
  0
VERTEX
  8
0
  6
CONTINUOUS
 10
3.128400
 20
2.106720
  0
VERTEX
  8
0
  6
CONTINUOUS
 10
2.473240
 20
2.482920
  0
VERTEX
  8
0
  6
CONTINUOUS
 10
2.467960
 20
2.647920
  0
SEQEND
  8
0
  0
SOLID
  8
0
 62
    15
 10
2.473240
 20
2.482920
 11
3.128400
 21
2.106720
 12
2.486440
 22
2.340360
 13
3.141600
 23
1.964600
  0
POLYLINE
  8
0
  6
CONTINUOUS
 66
     1
 40
0.000000
 41
0.000000
  0
VERTEX
  8
0
  6
CONTINUOUS
 10
2.473240
 20
2.482920
  0
VERTEX
  8
0
  6
CONTINUOUS
 10
3.128400
 20
2.106720
  0
VERTEX
  8
0
  6
CONTINUOUS
 10
3.141600
 20
1.964600
  0
VERTEX
  8
0
  6
CONTINUOUS
 10
2.486440
 20
2.340360
  0
VERTEX
  8
0
  6
CONTINUOUS
 10
2.473240
 20
2.482920
  0
SEQEND
  8
0
  0
SOLID
  8
0
 62
    15
 10
2.486440
 20
2.340360
 11
3.141600
 21
1.964600
 12
2.505360
 22
2.217600
 13
3.160520
 23
1.841840
  0
POLYLINE
  8
0
  6
CONTINUOUS
 66
     1
 40
0.000000
 41
0.000000
  0
VERTEX
  8
0
  6
CONTINUOUS
 10
2.486440
 20
2.340360
  0
VERTEX
  8
0
  6
CONTINUOUS
 10
3.141600
 20
1.964600
  0
VERTEX
  8
0
  6
CONTINUOUS
 10
3.160520
 20
1.841840
  0
VERTEX
  8
0
  6
CONTINUOUS
 10
2.505360
 20
2.217600
  0
VERTEX
  8
0
  6
CONTINUOUS
 10
2.486440
 20
2.340360
  0
SEQEND
  8
0
  0
SOLID
  8
0
 62
    15
 10
2.505360
 20
2.217600
 11
3.160520
 21
1.841840
 12
2.527360
 22
2.111120
 13
3.182080
 23
1.735360
  0
POLYLINE
  8
0
  6
CONTINUOUS
 66
     1
 40
0.000000
 41
0.000000
  0
VERTEX
  8
0
  6
CONTINUOUS
 10
2.505360
 20
2.217600
  0
VERTEX
  8
0
  6
CONTINUOUS
 10
3.160520
 20
1.841840
  0
VERTEX
  8
0
  6
CONTINUOUS
 10
3.182080
 20
1.735360
  0
VERTEX
  8
0
  6
CONTINUOUS
 10
2.527360
 20
2.111120
  0
VERTEX
  8
0
  6
CONTINUOUS
 10
2.505360
 20
2.217600
  0
SEQEND
  8
0
  0
SOLID
  8
0
 62
    15
 10
2.527360
 20
2.111120
 11
3.182080
 21
1.735360
 12
2.548920
 22
2.017400
 13
3.204080
 23
1.641640
  0
POLYLINE
  8
0
  6
CONTINUOUS
 66
     1
 40
0.000000
 41
0.000000
  0
VERTEX
  8
0
  6
CONTINUOUS
 10
2.527360
 20
2.111120
  0
VERTEX
  8
0
  6
CONTINUOUS
 10
3.182080
 20
1.735360
  0
VERTEX
  8
0
  6
CONTINUOUS
 10
3.204080
 20
1.641640
  0
VERTEX
  8
0
  6
CONTINUOUS
 10
2.548920
 20
2.017400
  0
VERTEX
  8
0
  6
CONTINUOUS
 10
2.527360
 20
2.111120
  0
SEQEND
  8
0
  0
SOLID
  8
0
 62
    15
 10
2.548920
 20
2.017400
 11
3.204080
 21
1.641640
 12
2.567840
 22
1.933360
 13
3.223000
 23
1.557600
  0
POLYLINE
  8
0
  6
CONTINUOUS
 66
     1
 40
0.000000
 41
0.000000
  0
VERTEX
  8
0
  6
CONTINUOUS
 10
2.548920
 20
2.017400
  0
VERTEX
  8
0
  6
CONTINUOUS
 10
3.204080
 20
1.641640
  0
VERTEX
  8
0
  6
CONTINUOUS
 10
3.223000
 20
1.557600
  0
VERTEX
  8
0
  6
CONTINUOUS
 10
2.567840
 20
1.933360
  0
VERTEX
  8
0
  6
CONTINUOUS
 10
2.548920
 20
2.017400
  0
SEQEND
  8
0
  0
SOLID
  8
0
 62
    15
 10
2.567840
 20
1.933360
 11
3.223000
 21
1.557600
 12
2.586320
 22
1.780680
 13
3.241480
 23
1.404920
  0
POLYLINE
  8
0
  6
CONTINUOUS
 66
     1
 40
0.000000
 41
0.000000
  0
VERTEX
  8
0
  6
CONTINUOUS
 10
2.567840
 20
1.933360
  0
VERTEX
  8
0
  6
CONTINUOUS
 10
3.223000
 20
1.557600
  0
VERTEX
  8
0
  6
CONTINUOUS
 10
3.241480
 20
1.404920
  0
VERTEX
  8
0
  6
CONTINUOUS
 10
2.586320
 20
1.780680
  0
VERTEX
  8
0
  6
CONTINUOUS
 10
2.567840
 20
1.933360
  0
SEQEND
  8
0
  0
SOLID
  8
0
 62
    15
 10
2.586320
 20
1.780680
 11
3.241480
 21
1.404920
 12
2.581040
 22
1.703240
 13
3.236200
 23
1.327480
  0
POLYLINE
  8
0
  6
CONTINUOUS
 66
     1
 40
0.000000
 41
0.000000
  0
VERTEX
  8
0
  6
CONTINUOUS
 10
2.586320
 20
1.780680
  0
VERTEX
  8
0
  6
CONTINUOUS
 10
3.241480
 20
1.404920
  0
VERTEX
  8
0
  6
CONTINUOUS
 10
3.236200
 20
1.327480
  0
VERTEX
  8
0
  6
CONTINUOUS
 10
2.581040
 20
1.703240
  0
VERTEX
  8
0
  6
CONTINUOUS
 10
2.586320
 20
1.780680
  0
SEQEND
  8
0
  0
SOLID
  8
0
 62
    15
 10
2.581040
 20
1.703240
 11
3.236200
 21
1.327480
 12
2.563880
 22
1.622720
 13
3.219040
 23
1.246520
  0
POLYLINE
  8
0
  6
CONTINUOUS
 66
     1
 40
0.000000
 41
0.000000
  0
VERTEX
  8
0
  6
CONTINUOUS
 10
2.581040
 20
1.703240
  0
VERTEX
  8
0
  6
CONTINUOUS
 10
3.236200
 20
1.327480
  0
VERTEX
  8
0
  6
CONTINUOUS
 10
3.219040
 20
1.246520
  0
VERTEX
  8
0
  6
CONTINUOUS
 10
2.563880
 20
1.622720
  0
VERTEX
  8
0
  6
CONTINUOUS
 10
2.581040
 20
1.703240
  0
SEQEND
  8
0
  0
SOLID
  8
0
 62
    15
 10
2.563880
 20
1.622720
 11
3.219040
 21
1.246520
 12
2.533520
 22
1.542640
 13
3.188680
 23
1.166880
  0
POLYLINE
  8
0
  6
CONTINUOUS
 66
     1
 40
0.000000
 41
0.000000
  0
VERTEX
  8
0
  6
CONTINUOUS
 10
2.563880
 20
1.622720
  0
VERTEX
  8
0
  6
CONTINUOUS
 10
3.219040
 20
1.246520
  0
VERTEX
  8
0
  6
CONTINUOUS
 10
3.188680
 20
1.166880
  0
VERTEX
  8
0
  6
CONTINUOUS
 10
2.533520
 20
1.542640
  0
VERTEX
  8
0
  6
CONTINUOUS
 10
2.563880
 20
1.622720
  0
SEQEND
  8
0
  0
SOLID
  8
0
 62
    15
 10
2.533520
 20
1.542640
 11
3.188680
 21
1.166880
 12
2.488640
 22
1.467840
 13
3.143800
 23
1.091640
  0
POLYLINE
  8
0
  6
CONTINUOUS
 66
     1
 40
0.000000
 41
0.000000
  0
VERTEX
  8
0
  6
CONTINUOUS
 10
2.533520
 20
1.542640
  0
VERTEX
  8
0
  6
CONTINUOUS
 10
3.188680
 20
1.166880
  0
VERTEX
  8
0
  6
CONTINUOUS
 10
3.143800
 20
1.091640
  0
VERTEX
  8
0
  6
CONTINUOUS
 10
2.488640
 20
1.467840
  0
VERTEX
  8
0
  6
CONTINUOUS
 10
2.533520
 20
1.542640
  0
SEQEND
  8
0
  0
SOLID
  8
0
 62
    15
 10
2.488640
 20
1.467840
 11
3.143800
 21
1.091640
 12
2.427040
 22
1.402280
 13
3.082200
 23
1.026080
  0
POLYLINE
  8
0
  6
CONTINUOUS
 66
     1
 40
0.000000
 41
0.000000
  0
VERTEX
  8
0
  6
CONTINUOUS
 10
2.488640
 20
1.467840
  0
VERTEX
  8
0
  6
CONTINUOUS
 10
3.143800
 20
1.091640
  0
VERTEX
  8
0
  6
CONTINUOUS
 10
3.082200
 20
1.026080
  0
VERTEX
  8
0
  6
CONTINUOUS
 10
2.427040
 20
1.402280
  0
VERTEX
  8
0
  6
CONTINUOUS
 10
2.488640
 20
1.467840
  0
SEQEND
  8
0
  0
SOLID
  8
0
 62
    15
 10
2.427040
 20
1.402280
 11
3.082200
 21
1.026080
 12
2.346960
 22
1.349920
 13
3.002120
 23
0.974160
  0
POLYLINE
  8
0
  6
CONTINUOUS
 66
     1
 40
0.000000
 41
0.000000
  0
VERTEX
  8
0
  6
CONTINUOUS
 10
2.427040
 20
1.402280
  0
VERTEX
  8
0
  6
CONTINUOUS
 10
3.082200
 20
1.026080
  0
VERTEX
  8
0
  6
CONTINUOUS
 10
3.002120
 20
0.974160
  0
VERTEX
  8
0
  6
CONTINUOUS
 10
2.346960
 20
1.349920
  0
VERTEX
  8
0
  6
CONTINUOUS
 10
2.427040
 20
1.402280
  0
SEQEND
  8
0
  0
SOLID
  8
0
 62
    15
 10
2.247520
 20
1.315600
 11
2.902680
 21
0.939840
 12
2.126520
 22
1.303280
 13
2.781680
 23
0.927520
  0
POLYLINE
  8
0
  6
CONTINUOUS
 66
     1
 40
0.000000
 41
0.000000
  0
VERTEX
  8
0
  6
CONTINUOUS
 10
2.247520
 20
1.315600
  0
VERTEX
  8
0
  6
CONTINUOUS
 10
2.902680
 20
0.939840
  0
VERTEX
  8
0
  6
CONTINUOUS
 10
2.781680
 20
0.927520
  0
VERTEX
  8
0
  6
CONTINUOUS
 10
2.126520
 20
1.303280
  0
VERTEX
  8
0
  6
CONTINUOUS
 10
2.247520
 20
1.315600
  0
SEQEND
  8
0
  0
SOLID
  8
0
 62
    15
 10
2.346960
 20
1.349920
 11
3.002120
 21
0.974160
 12
2.247520
 22
1.315600
 13
2.902680
 23
0.939840
  0
POLYLINE
  8
0
  6
CONTINUOUS
 66
     1
 40
0.000000
 41
0.000000
  0
VERTEX
  8
0
  6
CONTINUOUS
 10
2.346960
 20
1.349920
  0
VERTEX
  8
0
  6
CONTINUOUS
 10
3.002120
 20
0.974160
  0
VERTEX
  8
0
  6
CONTINUOUS
 10
2.902680
 20
0.939840
  0
VERTEX
  8
0
  6
CONTINUOUS
 10
2.247520
 20
1.315600
  0
VERTEX
  8
0
  6
CONTINUOUS
 10
2.346960
 20
1.349920
  0
SEQEND
  8
0
  0
SOLID
  8
0
 62
    15
 10
2.126520
 20
1.303280
 11
2.781680
 21
0.927520
 12
1.533840
 22
1.303280
 13
2.189000
 23
0.927520
  0
POLYLINE
  8
0
  6
CONTINUOUS
 66
     1
 40
0.000000
 41
0.000000
  0
VERTEX
  8
0
  6
CONTINUOUS
 10
2.126520
 20
1.303280
  0
VERTEX
  8
0
  6
CONTINUOUS
 10
2.781680
 20
0.927520
  0
VERTEX
  8
0
  6
CONTINUOUS
 10
2.189000
 20
0.927520
  0
VERTEX
  8
0
  6
CONTINUOUS
 10
1.533840
 20
1.303280
  0
VERTEX
  8
0
  6
CONTINUOUS
 10
2.126520
 20
1.303280
  0
SEQEND
  8
0
  0
SOLID
  8
0
 62
    15
 10
3.537160
 20
6.813840
 11
4.192320
 21
6.438080
 12
3.537160
 22
6.136680
 13
4.192320
 23
5.760920
  0
POLYLINE
  8
0
  6
CONTINUOUS
 66
     1
 40
0.000000
 41
0.000000
  0
VERTEX
  8
0
  6
CONTINUOUS
 10
3.537160
 20
6.813840
  0
VERTEX
  8
0
  6
CONTINUOUS
 10
4.192320
 20
6.438080
  0
VERTEX
  8
0
  6
CONTINUOUS
 10
4.192320
 20
5.760920
  0
VERTEX
  8
0
  6
CONTINUOUS
 10
3.537160
 20
6.136680
  0
VERTEX
  8
0
  6
CONTINUOUS
 10
3.537160
 20
6.813840
  0
SEQEND
  8
0
  0
SOLID
  8
0
 62
    15
 10
3.118280
 20
6.097520
 11
3.773440
 21
5.721760
 12
3.198360
 22
6.028000
 13
3.853520
 23
5.651800
  0
POLYLINE
  8
0
  6
CONTINUOUS
 66
     1
 40
0.000000
 41
0.000000
  0
VERTEX
  8
0
  6
CONTINUOUS
 10
3.118280
 20
6.097520
  0
VERTEX
  8
0
  6
CONTINUOUS
 10
3.773440
 20
5.721760
  0
VERTEX
  8
0
  6
CONTINUOUS
 10
3.853520
 20
5.651800
  0
VERTEX
  8
0
  6
CONTINUOUS
 10
3.198360
 20
6.028000
  0
VERTEX
  8
0
  6
CONTINUOUS
 10
3.118280
 20
6.097520
  0
SEQEND
  8
0
  0
POLYLINE
  8
0
  6
CONTINUOUS
 66
     1
 40
0.000000
 41
0.000000
  0
VERTEX
  8
0
  6
CONTINUOUS
 10
3.118280
 20
6.097520
  0
VERTEX
  8
0
  6
CONTINUOUS
 10
3.198360
 20
6.028000
  0
VERTEX
  8
0
  6
CONTINUOUS
 10
3.270960
 20
5.950120
  0
VERTEX
  8
0
  6
CONTINUOUS
 10
3.335640
 20
5.864320
  0
VERTEX
  8
0
  6
CONTINUOUS
 10
3.391520
 20
5.772360
  0
VERTEX
  8
0
  6
CONTINUOUS
 10
3.438600
 20
5.674240
  0
VERTEX
  8
0
  6
CONTINUOUS
 10
3.475120
 20
5.570840
  0
VERTEX
  8
0
  6
CONTINUOUS
 10
3.501080
 20
5.463040
  0
VERTEX
  8
0
  6
CONTINUOUS
 10
3.515160
 20
5.351720
  0
VERTEX
  8
0
  6
CONTINUOUS
 10
3.517360
 20
5.237320
  0
VERTEX
  8
0
  6
CONTINUOUS
 10
3.506360
 20
5.121160
  0
VERTEX
  8
0
  6
CONTINUOUS
 10
3.481720
 20
5.003240
  0
VERTEX
  8
0
  6
CONTINUOUS
 10
3.443000
 20
4.885320
  0
VERTEX
  8
0
  6
CONTINUOUS
 10
3.388880
 20
4.767400
  0
VERTEX
  8
0
  6
CONTINUOUS
 10
3.319360
 20
4.650360
  0
VERTEX
  8
0
  6
CONTINUOUS
 10
3.232680
 20
4.535080
  0
VERTEX
  8
0
  6
CONTINUOUS
 10
3.129280
 20
4.422440
  0
VERTEX
  8
0
  6
CONTINUOUS
 10
3.023240
 20
4.310240
  0
VERTEX
  8
0
  6
CONTINUOUS
 10
2.928640
 20
4.195400
  0
VERTEX
  8
0
  6
CONTINUOUS
 10
2.845480
 20
4.079240
  0
VERTEX
  8
0
  6
CONTINUOUS
 10
2.772880
 20
3.961760
  0
VERTEX
  8
0
  6
CONTINUOUS
 10
2.656720
 20
3.725480
  0
VERTEX
  8
0
  6
CONTINUOUS
 10
2.574000
 20
3.490520
  0
VERTEX
  8
0
  6
CONTINUOUS
 10
2.519000
 20
3.261280
  0
VERTEX
  8
0
  6
CONTINUOUS
 10
2.486880
 20
3.041720
  0
VERTEX
  8
0
  6
CONTINUOUS
 10
2.471920
 20
2.835800
  0
VERTEX
  8
0
  6
CONTINUOUS
 10
2.467960
 20
2.647920
  0
VERTEX
  8
0
  6
CONTINUOUS
 10
2.473240
 20
2.482920
  0
VERTEX
  8
0
  6
CONTINUOUS
 10
2.486440
 20
2.340360
  0
VERTEX
  8
0
  6
CONTINUOUS
 10
2.505360
 20
2.217600
  0
VERTEX
  8
0
  6
CONTINUOUS
 10
2.527360
 20
2.111120
  0
VERTEX
  8
0
  6
CONTINUOUS
 10
2.548920
 20
2.017400
  0
VERTEX
  8
0
  6
CONTINUOUS
 10
2.567840
 20
1.933360
  0
VERTEX
  8
0
  6
CONTINUOUS
 10
2.586320
 20
1.780680
  0
VERTEX
  8
0
  6
CONTINUOUS
 10
2.581040
 20
1.703240
  0
VERTEX
  8
0
  6
CONTINUOUS
 10
2.563880
 20
1.622720
  0
VERTEX
  8
0
  6
CONTINUOUS
 10
2.533520
 20
1.542640
  0
VERTEX
  8
0
  6
CONTINUOUS
 10
2.488640
 20
1.467840
  0
VERTEX
  8
0
  6
CONTINUOUS
 10
2.427040
 20
1.402280
  0
VERTEX
  8
0
  6
CONTINUOUS
 10
2.346960
 20
1.349920
  0
VERTEX
  8
0
  6
CONTINUOUS
 10
2.247520
 20
1.315600
  0
VERTEX
  8
0
  6
CONTINUOUS
 10
2.126520
 20
1.303280
  0
VERTEX
  8
0
  6
CONTINUOUS
 10
1.533840
 20
1.303280
  0
VERTEX
  8
0
  6
CONTINUOUS
 10
1.533840
 20
6.813840
  0
VERTEX
  8
0
  6
CONTINUOUS
 10
3.537160
 20
6.813840
  0
VERTEX
  8
0
  6
CONTINUOUS
 10
3.537160
 20
6.136680
  0
VERTEX
  8
0
  6
CONTINUOUS
 10
3.118280
 20
6.097520
  0
SEQEND
  8
0
  0
TEXT
  8
0
 10
2.567400
 20
0.734800
 40
0.138064
  1
BA  635
 41
1.000000
  7
SN0
 71
     0
 72
     5
 11
3.157526
 21
0.734800
  0
TEXT
  8
0
 10
2.480720
 20
0.542960
 40
0.138064
  1
2" x 5-1/2"
 41
1.000000
  7
SN0
 71
     0
 72
     5
 11
3.242610
 21
0.542960
  0
ENDSEC
  0
EOF
