  0
SECTION
  2
HEADER
  9
$ACADVER
  1
AC1006
  9
$EXTMIN
 10
4.639800
 20
0.551760
  9
$EXTMAX
 10
7.488800
 20
2.890800
  9
$LTSCALE
 40
0.044000
  9
$PDMODE
 70
    35
  9
$PDSIZE
 40
0.035200
  0
ENDSEC
  0
SECTION
  2
TABLES
  0
TABLE
  2
LTYPE
 70
     9
  0
LTYPE
  2
CONTINUOUS
 70
    64
  3
Solid line
 72
    65
 73
     0
 40
0.000000
  0
LTYPE
  2
DASHED
 70
    64
  3
__ __ __ __ __ __ __ __ __ __ __ __ __ __ __
 72
    65
 73
     2
 40
0.000330
 49
0.000220
 49
-0.000110
  0
LTYPE
  2
HIDDEN
 70
    64
  3
 _ _ _ _ _ _ _ _ _ _ _ _ _ _ _ _ _ _ _ _ _ _
 72
    65
 73
     2
 40
0.000165
 49
0.000110
 49
-0.000055
  0
LTYPE
  2
CENTER
 70
    64
  3
____ _ ____ _ ____ _ ____ _ ____ _ ____ _ ____
 72
    65
 73
     4
 40
0.000880
 49
0.000550
 49
-0.000110
 49
0.000110
 49
-0.000110
  0
LTYPE
  2
PHANTOM
 70
    64
  3
_____ _ _ _____ _ _ _____ _ _ _____ _ _ ____
 72
    65
 73
     6
 40
0.001100
 49
0.000550
 49
-0.000110
 49
0.000110
 49
-0.000110
 49
0.000110
 49
-0.000110
  0
LTYPE
  2
DOT
 70
    64
  3
...............................................
 72
    65
 73
     2
 40
0.000110
 49
0.000000
 49
-0.000110
  0
LTYPE
  2
DASHDOT
 70
    64
  3
__ . __ . __ . __ . __ . __ . __ . __ . __ . __
 72
    65
 73
     4
 40
0.000440
 49
0.000220
 49
-0.000110
 49
0.000000
 49
-0.000110
  0
LTYPE
  2
BORDER
 70
    64
  3
__ __ . __ __ . __ __ . __ __ . __ __ . __ __
 72
    65
 73
     6
 40
0.000770
 49
0.000220
 49
-0.000110
 49
0.000220
 49
-0.000110
 49
0.000000
 49
-0.000110
  0
LTYPE
  2
DIVIDE
 70
    64
  3
__ . . __ . . __ . . __ . . __ . . __ . . __
 72
    65
 73
     6
 40
0.000550
 49
0.000220
 49
-0.000110
 49
0.000000
 49
-0.000110
 49
0.000000
 49
-0.000110
  0
LTYPE
  2
DOTDOT
 70
    64
  3
 . .  . .  . .  . .  . .  . . 
 72
    65
 73
     5
 40
0.000242
 49
-0.000110
 49
0.000000
 49
-0.000110
 49
0.000000
 49
-0.000110
  0
ENDTAB
  0
TABLE
  2
STYLE
 70
     2
  0
STYLE
 70
     0
  2
SN0
 40
0.000000
 41
0.000440
 50
0.000000
 71
     0
 42
0.000000
  3
ROMAND
  0
STYLE
 70
    68
  2
SV0
 40
0.000000
 41
0.000440
 50
0.000000
 71
     0
 42
0.000000
  3
ROMAND
  0
ENDTAB
  0
TABLE
  2
LAYER
 70
     3
  0
LAYER
  2
FOREGROUND
 70
    64
 62
     7
  6
CONTINUOUS
  0
LAYER
  2
BACKGROUND
 70
    65
 62
    -7
  6
CONTINUOUS
  0
LAYER
  2
0
 70
    64
 62
     7
  6
CONTINUOUS
  0
ENDTAB
  0
ENDSEC
  0
SECTION
  2
ENTITIES
  0
POLYLINE
  8
FOREGROUND
  6
CONTINUOUS
 66
     1
 40
0.000000
 41
0.000000
  0
VERTEX
  8
FOREGROUND
  6
CONTINUOUS
 10
0.000000
 20
3.442560
  0
VERTEX
  8
FOREGROUND
  6
CONTINUOUS
 10
8.499920
 20
3.442560
  0
VERTEX
  8
FOREGROUND
  6
CONTINUOUS
 10
8.499920
 20
-7.557440
  0
VERTEX
  8
FOREGROUND
  6
CONTINUOUS
 10
0.000000
 20
-7.557440
  0
VERTEX
  8
FOREGROUND
  6
CONTINUOUS
 10
0.000000
 20
3.442560
  0
SEQEND
  8
0
  0
POLYLINE
  8
FOREGROUND
  6
CONTINUOUS
 66
     1
 40
0.000000
 41
0.000000
  0
VERTEX
  8
FOREGROUND
  6
CONTINUOUS
 10
0.000000
 20
3.442560
  0
VERTEX
  8
FOREGROUND
  6
CONTINUOUS
 10
8.499920
 20
3.442560
  0
VERTEX
  8
FOREGROUND
  6
CONTINUOUS
 10
8.499920
 20
-7.557440
  0
VERTEX
  8
FOREGROUND
  6
CONTINUOUS
 10
0.000000
 20
-7.557440
  0
VERTEX
  8
FOREGROUND
  6
CONTINUOUS
 10
0.000000
 20
3.442560
  0
SEQEND
  8
0
  0
POLYLINE
  8
0
  6
CONTINUOUS
 66
     1
 40
0.014080
 41
0.014080
  0
VERTEX
  8
0
  6
CONTINUOUS
 10
7.225240
 20
2.755280
  0
VERTEX
  8
0
  6
CONTINUOUS
 10
7.253400
 20
2.752640
  0
VERTEX
  8
0
  6
CONTINUOUS
 10
7.279800
 20
2.747800
  0
VERTEX
  8
0
  6
CONTINUOUS
 10
7.304000
 20
2.741200
  0
VERTEX
  8
0
  6
CONTINUOUS
 10
7.326880
 20
2.732840
  0
VERTEX
  8
0
  6
CONTINUOUS
 10
7.348440
 20
2.722720
  0
VERTEX
  8
0
  6
CONTINUOUS
 10
7.367800
 20
2.711280
  0
VERTEX
  8
0
  6
CONTINUOUS
 10
7.385840
 20
2.698520
  0
VERTEX
  8
0
  6
CONTINUOUS
 10
7.416640
 20
2.668600
  0
VERTEX
  8
0
  6
CONTINUOUS
 10
7.429840
 20
2.652320
  0
VERTEX
  8
0
  6
CONTINUOUS
 10
7.451400
 20
2.617120
  0
VERTEX
  8
0
  6
CONTINUOUS
 10
7.460200
 20
2.598640
  0
VERTEX
  8
0
  6
CONTINUOUS
 10
7.472960
 20
2.559920
  0
VERTEX
  8
0
  6
CONTINUOUS
 10
7.477360
 20
2.540120
  0
VERTEX
  8
0
  6
CONTINUOUS
 10
7.481760
 20
2.500520
  0
VERTEX
  8
0
  6
CONTINUOUS
 10
7.481760
 20
2.481160
  0
VERTEX
  8
0
  6
CONTINUOUS
 10
7.478240
 20
2.442880
  0
VERTEX
  8
0
  6
CONTINUOUS
 10
7.474720
 20
2.424400
  0
VERTEX
  8
0
  6
CONTINUOUS
 10
7.463280
 20
2.389640
  0
VERTEX
  8
0
  6
CONTINUOUS
 10
7.456240
 20
2.373800
  0
VERTEX
  8
0
  6
CONTINUOUS
 10
7.437760
 20
2.345200
  0
VERTEX
  8
0
  6
CONTINUOUS
 10
7.427200
 20
2.332440
  0
VERTEX
  8
0
  6
CONTINUOUS
 10
7.415320
 20
2.321440
  0
VERTEX
  8
0
  6
CONTINUOUS
 10
7.388040
 20
2.304280
  0
VERTEX
  8
0
  6
CONTINUOUS
 10
7.267480
 20
2.263800
  0
VERTEX
  8
0
  6
CONTINUOUS
 10
7.228320
 20
2.247520
  0
VERTEX
  8
0
  6
CONTINUOUS
 10
7.197080
 20
2.229480
  0
VERTEX
  8
0
  6
CONTINUOUS
 10
7.184760
 20
2.219800
  0
VERTEX
  8
0
  6
CONTINUOUS
 10
7.174200
 20
2.208800
  0
VERTEX
  8
0
  6
CONTINUOUS
 10
7.165400
 20
2.196920
  0
VERTEX
  8
0
  6
CONTINUOUS
 10
7.157920
 20
2.183280
  0
VERTEX
  8
0
  6
CONTINUOUS
 10
7.152640
 20
2.168760
  0
VERTEX
  8
0
  6
CONTINUOUS
 10
7.147800
 20
2.142800
  0
VERTEX
  8
0
  6
CONTINUOUS
 10
7.146040
 20
2.112440
  0
VERTEX
  8
0
  6
CONTINUOUS
 10
7.149120
 20
1.834800
  0
VERTEX
  8
0
  6
CONTINUOUS
 10
7.148240
 20
1.822480
  0
VERTEX
  8
0
  6
CONTINUOUS
 10
7.141640
 20
1.796080
  0
VERTEX
  8
0
  6
CONTINUOUS
 10
7.129320
 20
1.768800
  0
VERTEX
  8
0
  6
CONTINUOUS
 10
7.112160
 20
1.742400
  0
VERTEX
  8
0
  6
CONTINUOUS
 10
7.091480
 20
1.717320
  0
VERTEX
  8
0
  6
CONTINUOUS
 10
7.067280
 20
1.696200
  0
VERTEX
  8
0
  6
CONTINUOUS
 10
7.041320
 20
1.680360
  0
VERTEX
  8
0
  6
CONTINUOUS
 10
7.027680
 20
1.674640
  0
VERTEX
  8
0
  6
CONTINUOUS
 10
7.014040
 20
1.671120
  0
VERTEX
  8
0
  6
CONTINUOUS
 10
7.000400
 20
1.669360
  0
VERTEX
  8
0
  6
CONTINUOUS
 10
7.000400
 20
1.538240
  0
VERTEX
  8
0
  6
CONTINUOUS
 10
6.895680
 20
1.538240
  0
VERTEX
  8
0
  6
CONTINUOUS
 10
6.895680
 20
1.354320
  0
VERTEX
  8
0
  6
CONTINUOUS
 10
6.871040
 20
1.350360
  0
VERTEX
  8
0
  6
CONTINUOUS
 10
6.860040
 20
1.346400
  0
VERTEX
  8
0
  6
CONTINUOUS
 10
6.840680
 20
1.334080
  0
VERTEX
  8
0
  6
CONTINUOUS
 10
6.824840
 20
1.316040
  0
VERTEX
  8
0
  6
CONTINUOUS
 10
6.798440
 20
1.267200
  0
VERTEX
  8
0
  6
CONTINUOUS
 10
6.783040
 20
1.246520
  0
VERTEX
  8
0
  6
CONTINUOUS
 10
6.769400
 20
1.235520
  0
VERTEX
  8
0
  6
CONTINUOUS
 10
6.759280
 20
1.231560
  0
VERTEX
  8
0
  6
CONTINUOUS
 10
6.753560
 20
1.230680
  0
VERTEX
  8
0
  6
CONTINUOUS
 10
6.654560
 20
1.230680
  0
VERTEX
  8
0
  6
CONTINUOUS
 10
6.654560
 20
2.508880
  0
VERTEX
  8
0
  6
CONTINUOUS
 10
6.796240
 20
2.508880
  0
VERTEX
  8
0
  6
CONTINUOUS
 10
6.809440
 20
2.549360
  0
VERTEX
  8
0
  6
CONTINUOUS
 10
6.832760
 20
2.601720
  0
VERTEX
  8
0
  6
CONTINUOUS
 10
6.850800
 20
2.631640
  0
VERTEX
  8
0
  6
CONTINUOUS
 10
6.870600
 20
2.657600
  0
VERTEX
  8
0
  6
CONTINUOUS
 10
6.892600
 20
2.679600
  0
VERTEX
  8
0
  6
CONTINUOUS
 10
6.915920
 20
2.698520
  0
VERTEX
  8
0
  6
CONTINUOUS
 10
6.941000
 20
2.714360
  0
VERTEX
  8
0
  6
CONTINUOUS
 10
6.968280
 20
2.727560
  0
VERTEX
  8
0
  6
CONTINUOUS
 10
7.011840
 20
2.742080
  0
VERTEX
  8
0
  6
CONTINUOUS
 10
7.043520
 20
2.748680
  0
VERTEX
  8
0
  6
CONTINUOUS
 10
7.076520
 20
2.753080
  0
VERTEX
  8
0
  6
CONTINUOUS
 10
7.111280
 20
2.755720
  0
VERTEX
  8
0
  6
CONTINUOUS
 10
7.147800
 20
2.757040
  0
VERTEX
  8
0
  6
CONTINUOUS
 10
7.225240
 20
2.755280
  0
SEQEND
  8
0
  0
SOLID
  8
0
 62
    15
 10
5.134800
 20
2.285360
 11
5.789080
 21
1.913120
 12
5.131720
 22
2.245760
 13
5.786440
 23
1.873520
  0
POLYLINE
  8
0
  6
CONTINUOUS
 66
     1
 40
0.000000
 41
0.000000
  0
VERTEX
  8
0
  6
CONTINUOUS
 10
5.134800
 20
2.285360
  0
VERTEX
  8
0
  6
CONTINUOUS
 10
5.789080
 20
1.913120
  0
VERTEX
  8
0
  6
CONTINUOUS
 10
5.786440
 20
1.873520
  0
VERTEX
  8
0
  6
CONTINUOUS
 10
5.131720
 20
2.245760
  0
VERTEX
  8
0
  6
CONTINUOUS
 10
5.134800
 20
2.285360
  0
SEQEND
  8
0
  0
SOLID
  8
0
 62
    15
 10
5.387800
 20
2.817320
 11
6.042520
 21
2.445080
 12
5.415520
 22
2.785640
 13
6.070240
 23
2.413400
  0
POLYLINE
  8
0
  6
CONTINUOUS
 66
     1
 40
0.000000
 41
0.000000
  0
VERTEX
  8
0
  6
CONTINUOUS
 10
5.387800
 20
2.817320
  0
VERTEX
  8
0
  6
CONTINUOUS
 10
6.042520
 20
2.445080
  0
VERTEX
  8
0
  6
CONTINUOUS
 10
6.070240
 20
2.413400
  0
VERTEX
  8
0
  6
CONTINUOUS
 10
5.415520
 20
2.785640
  0
VERTEX
  8
0
  6
CONTINUOUS
 10
5.387800
 20
2.817320
  0
SEQEND
  8
0
  0
SOLID
  8
0
 62
    15
 10
5.415520
 20
2.785640
 11
6.070240
 21
2.413400
 12
5.437520
 22
2.750440
 13
6.091800
 23
2.378200
  0
POLYLINE
  8
0
  6
CONTINUOUS
 66
     1
 40
0.000000
 41
0.000000
  0
VERTEX
  8
0
  6
CONTINUOUS
 10
5.415520
 20
2.785640
  0
VERTEX
  8
0
  6
CONTINUOUS
 10
6.070240
 20
2.413400
  0
VERTEX
  8
0
  6
CONTINUOUS
 10
6.091800
 20
2.378200
  0
VERTEX
  8
0
  6
CONTINUOUS
 10
5.437520
 20
2.750440
  0
VERTEX
  8
0
  6
CONTINUOUS
 10
5.415520
 20
2.785640
  0
SEQEND
  8
0
  0
SOLID
  8
0
 62
    15
 10
5.437520
 20
2.750440
 11
6.091800
 21
2.378200
 12
5.452920
 22
2.712600
 13
6.107640
 23
2.340800
  0
POLYLINE
  8
0
  6
CONTINUOUS
 66
     1
 40
0.000000
 41
0.000000
  0
VERTEX
  8
0
  6
CONTINUOUS
 10
5.437520
 20
2.750440
  0
VERTEX
  8
0
  6
CONTINUOUS
 10
6.091800
 20
2.378200
  0
VERTEX
  8
0
  6
CONTINUOUS
 10
6.107640
 20
2.340800
  0
VERTEX
  8
0
  6
CONTINUOUS
 10
5.452920
 20
2.712600
  0
VERTEX
  8
0
  6
CONTINUOUS
 10
5.437520
 20
2.750440
  0
SEQEND
  8
0
  0
SOLID
  8
0
 62
    15
 10
5.452920
 20
2.712600
 11
6.107640
 21
2.340800
 12
5.463040
 22
2.673440
 13
6.117760
 23
2.301200
  0
POLYLINE
  8
0
  6
CONTINUOUS
 66
     1
 40
0.000000
 41
0.000000
  0
VERTEX
  8
0
  6
CONTINUOUS
 10
5.452920
 20
2.712600
  0
VERTEX
  8
0
  6
CONTINUOUS
 10
6.107640
 20
2.340800
  0
VERTEX
  8
0
  6
CONTINUOUS
 10
6.117760
 20
2.301200
  0
VERTEX
  8
0
  6
CONTINUOUS
 10
5.463040
 20
2.673440
  0
VERTEX
  8
0
  6
CONTINUOUS
 10
5.452920
 20
2.712600
  0
SEQEND
  8
0
  0
SOLID
  8
0
 62
    15
 10
5.463040
 20
2.673440
 11
6.117760
 21
2.301200
 12
5.467440
 22
2.633840
 13
6.122160
 23
2.262040
  0
POLYLINE
  8
0
  6
CONTINUOUS
 66
     1
 40
0.000000
 41
0.000000
  0
VERTEX
  8
0
  6
CONTINUOUS
 10
5.463040
 20
2.673440
  0
VERTEX
  8
0
  6
CONTINUOUS
 10
6.117760
 20
2.301200
  0
VERTEX
  8
0
  6
CONTINUOUS
 10
6.122160
 20
2.262040
  0
VERTEX
  8
0
  6
CONTINUOUS
 10
5.467440
 20
2.633840
  0
VERTEX
  8
0
  6
CONTINUOUS
 10
5.463040
 20
2.673440
  0
SEQEND
  8
0
  0
SOLID
  8
0
 62
    15
 10
5.467440
 20
2.633840
 11
6.122160
 21
2.262040
 12
5.466560
 22
2.595120
 13
6.120840
 23
2.222880
  0
POLYLINE
  8
0
  6
CONTINUOUS
 66
     1
 40
0.000000
 41
0.000000
  0
VERTEX
  8
0
  6
CONTINUOUS
 10
5.467440
 20
2.633840
  0
VERTEX
  8
0
  6
CONTINUOUS
 10
6.122160
 20
2.262040
  0
VERTEX
  8
0
  6
CONTINUOUS
 10
6.120840
 20
2.222880
  0
VERTEX
  8
0
  6
CONTINUOUS
 10
5.466560
 20
2.595120
  0
VERTEX
  8
0
  6
CONTINUOUS
 10
5.467440
 20
2.633840
  0
SEQEND
  8
0
  0
SOLID
  8
0
 62
    15
 10
5.466560
 20
2.595120
 11
6.120840
 21
2.222880
 12
5.460400
 22
2.557720
 13
6.115120
 23
2.185480
  0
POLYLINE
  8
0
  6
CONTINUOUS
 66
     1
 40
0.000000
 41
0.000000
  0
VERTEX
  8
0
  6
CONTINUOUS
 10
5.466560
 20
2.595120
  0
VERTEX
  8
0
  6
CONTINUOUS
 10
6.120840
 20
2.222880
  0
VERTEX
  8
0
  6
CONTINUOUS
 10
6.115120
 20
2.185480
  0
VERTEX
  8
0
  6
CONTINUOUS
 10
5.460400
 20
2.557720
  0
VERTEX
  8
0
  6
CONTINUOUS
 10
5.466560
 20
2.595120
  0
SEQEND
  8
0
  0
SOLID
  8
0
 62
    15
 10
5.460400
 20
2.557720
 11
6.115120
 21
2.185480
 12
5.449400
 22
2.522960
 13
6.103680
 23
2.150720
  0
POLYLINE
  8
0
  6
CONTINUOUS
 66
     1
 40
0.000000
 41
0.000000
  0
VERTEX
  8
0
  6
CONTINUOUS
 10
5.460400
 20
2.557720
  0
VERTEX
  8
0
  6
CONTINUOUS
 10
6.115120
 20
2.185480
  0
VERTEX
  8
0
  6
CONTINUOUS
 10
6.103680
 20
2.150720
  0
VERTEX
  8
0
  6
CONTINUOUS
 10
5.449400
 20
2.522960
  0
VERTEX
  8
0
  6
CONTINUOUS
 10
5.460400
 20
2.557720
  0
SEQEND
  8
0
  0
SOLID
  8
0
 62
    15
 10
5.449400
 20
2.522960
 11
6.103680
 21
2.150720
 12
5.433560
 22
2.492160
 13
6.087840
 23
2.119920
  0
POLYLINE
  8
0
  6
CONTINUOUS
 66
     1
 40
0.000000
 41
0.000000
  0
VERTEX
  8
0
  6
CONTINUOUS
 10
5.449400
 20
2.522960
  0
VERTEX
  8
0
  6
CONTINUOUS
 10
6.103680
 20
2.150720
  0
VERTEX
  8
0
  6
CONTINUOUS
 10
6.087840
 20
2.119920
  0
VERTEX
  8
0
  6
CONTINUOUS
 10
5.433560
 20
2.492160
  0
VERTEX
  8
0
  6
CONTINUOUS
 10
5.449400
 20
2.522960
  0
SEQEND
  8
0
  0
SOLID
  8
0
 62
    15
 10
5.433560
 20
2.492160
 11
6.087840
 21
2.119920
 12
5.412880
 22
2.465760
 13
6.067600
 23
2.093960
  0
POLYLINE
  8
0
  6
CONTINUOUS
 66
     1
 40
0.000000
 41
0.000000
  0
VERTEX
  8
0
  6
CONTINUOUS
 10
5.433560
 20
2.492160
  0
VERTEX
  8
0
  6
CONTINUOUS
 10
6.087840
 20
2.119920
  0
VERTEX
  8
0
  6
CONTINUOUS
 10
6.067600
 20
2.093960
  0
VERTEX
  8
0
  6
CONTINUOUS
 10
5.412880
 20
2.465760
  0
VERTEX
  8
0
  6
CONTINUOUS
 10
5.433560
 20
2.492160
  0
SEQEND
  8
0
  0
SOLID
  8
0
 62
    15
 10
5.412880
 20
2.465760
 11
6.067600
 21
2.093960
 12
5.387800
 22
2.445520
 13
6.042520
 23
2.073280
  0
POLYLINE
  8
0
  6
CONTINUOUS
 66
     1
 40
0.000000
 41
0.000000
  0
VERTEX
  8
0
  6
CONTINUOUS
 10
5.412880
 20
2.465760
  0
VERTEX
  8
0
  6
CONTINUOUS
 10
6.067600
 20
2.093960
  0
VERTEX
  8
0
  6
CONTINUOUS
 10
6.042520
 20
2.073280
  0
VERTEX
  8
0
  6
CONTINUOUS
 10
5.387800
 20
2.445520
  0
VERTEX
  8
0
  6
CONTINUOUS
 10
5.412880
 20
2.465760
  0
SEQEND
  8
0
  0
SOLID
  8
0
 62
    15
 10
5.387800
 20
2.445520
 11
6.042520
 21
2.073280
 12
5.358760
 22
2.431880
 13
6.013480
 23
2.059640
  0
POLYLINE
  8
0
  6
CONTINUOUS
 66
     1
 40
0.000000
 41
0.000000
  0
VERTEX
  8
0
  6
CONTINUOUS
 10
5.387800
 20
2.445520
  0
VERTEX
  8
0
  6
CONTINUOUS
 10
6.042520
 20
2.073280
  0
VERTEX
  8
0
  6
CONTINUOUS
 10
6.013480
 20
2.059640
  0
VERTEX
  8
0
  6
CONTINUOUS
 10
5.358760
 20
2.431880
  0
VERTEX
  8
0
  6
CONTINUOUS
 10
5.387800
 20
2.445520
  0
SEQEND
  8
0
  0
SOLID
  8
0
 62
    15
 10
5.358760
 20
2.431880
 11
6.013480
 21
2.059640
 12
5.328840
 22
2.422200
 13
5.983560
 23
2.050400
  0
POLYLINE
  8
0
  6
CONTINUOUS
 66
     1
 40
0.000000
 41
0.000000
  0
VERTEX
  8
0
  6
CONTINUOUS
 10
5.358760
 20
2.431880
  0
VERTEX
  8
0
  6
CONTINUOUS
 10
6.013480
 20
2.059640
  0
VERTEX
  8
0
  6
CONTINUOUS
 10
5.983560
 20
2.050400
  0
VERTEX
  8
0
  6
CONTINUOUS
 10
5.328840
 20
2.422200
  0
VERTEX
  8
0
  6
CONTINUOUS
 10
5.358760
 20
2.431880
  0
SEQEND
  8
0
  0
SOLID
  8
0
 62
    15
 10
5.328840
 20
2.422200
 11
5.983560
 21
2.050400
 12
5.301560
 22
2.413400
 13
5.955840
 23
2.041160
  0
POLYLINE
  8
0
  6
CONTINUOUS
 66
     1
 40
0.000000
 41
0.000000
  0
VERTEX
  8
0
  6
CONTINUOUS
 10
5.328840
 20
2.422200
  0
VERTEX
  8
0
  6
CONTINUOUS
 10
5.983560
 20
2.050400
  0
VERTEX
  8
0
  6
CONTINUOUS
 10
5.955840
 20
2.041160
  0
VERTEX
  8
0
  6
CONTINUOUS
 10
5.301560
 20
2.413400
  0
VERTEX
  8
0
  6
CONTINUOUS
 10
5.328840
 20
2.422200
  0
SEQEND
  8
0
  0
SOLID
  8
0
 62
    15
 10
5.301560
 20
2.413400
 11
5.955840
 21
2.041160
 12
5.253600
 22
2.397120
 13
5.907880
 23
2.024880
  0
POLYLINE
  8
0
  6
CONTINUOUS
 66
     1
 40
0.000000
 41
0.000000
  0
VERTEX
  8
0
  6
CONTINUOUS
 10
5.301560
 20
2.413400
  0
VERTEX
  8
0
  6
CONTINUOUS
 10
5.955840
 20
2.041160
  0
VERTEX
  8
0
  6
CONTINUOUS
 10
5.907880
 20
2.024880
  0
VERTEX
  8
0
  6
CONTINUOUS
 10
5.253600
 20
2.397120
  0
VERTEX
  8
0
  6
CONTINUOUS
 10
5.301560
 20
2.413400
  0
SEQEND
  8
0
  0
SOLID
  8
0
 62
    15
 10
5.253600
 20
2.397120
 11
5.907880
 21
2.024880
 12
5.214000
 22
2.380840
 13
5.868720
 23
2.008600
  0
POLYLINE
  8
0
  6
CONTINUOUS
 66
     1
 40
0.000000
 41
0.000000
  0
VERTEX
  8
0
  6
CONTINUOUS
 10
5.253600
 20
2.397120
  0
VERTEX
  8
0
  6
CONTINUOUS
 10
5.907880
 20
2.024880
  0
VERTEX
  8
0
  6
CONTINUOUS
 10
5.868720
 20
2.008600
  0
VERTEX
  8
0
  6
CONTINUOUS
 10
5.214000
 20
2.380840
  0
VERTEX
  8
0
  6
CONTINUOUS
 10
5.253600
 20
2.397120
  0
SEQEND
  8
0
  0
SOLID
  8
0
 62
    15
 10
5.214000
 20
2.380840
 11
5.868720
 21
2.008600
 12
5.183200
 22
2.362800
 13
5.837480
 23
1.991000
  0
POLYLINE
  8
0
  6
CONTINUOUS
 66
     1
 40
0.000000
 41
0.000000
  0
VERTEX
  8
0
  6
CONTINUOUS
 10
5.214000
 20
2.380840
  0
VERTEX
  8
0
  6
CONTINUOUS
 10
5.868720
 20
2.008600
  0
VERTEX
  8
0
  6
CONTINUOUS
 10
5.837480
 20
1.991000
  0
VERTEX
  8
0
  6
CONTINUOUS
 10
5.183200
 20
2.362800
  0
VERTEX
  8
0
  6
CONTINUOUS
 10
5.214000
 20
2.380840
  0
SEQEND
  8
0
  0
SOLID
  8
0
 62
    15
 10
5.183200
 20
2.362800
 11
5.837480
 21
1.991000
 12
5.159880
 22
2.342120
 13
5.814600
 23
1.969880
  0
POLYLINE
  8
0
  6
CONTINUOUS
 66
     1
 40
0.000000
 41
0.000000
  0
VERTEX
  8
0
  6
CONTINUOUS
 10
5.183200
 20
2.362800
  0
VERTEX
  8
0
  6
CONTINUOUS
 10
5.837480
 20
1.991000
  0
VERTEX
  8
0
  6
CONTINUOUS
 10
5.814600
 20
1.969880
  0
VERTEX
  8
0
  6
CONTINUOUS
 10
5.159880
 20
2.342120
  0
VERTEX
  8
0
  6
CONTINUOUS
 10
5.183200
 20
2.362800
  0
SEQEND
  8
0
  0
SOLID
  8
0
 62
    15
 10
5.159880
 20
2.342120
 11
5.814600
 21
1.969880
 12
5.144040
 22
2.317040
 13
5.798320
 23
1.944800
  0
POLYLINE
  8
0
  6
CONTINUOUS
 66
     1
 40
0.000000
 41
0.000000
  0
VERTEX
  8
0
  6
CONTINUOUS
 10
5.159880
 20
2.342120
  0
VERTEX
  8
0
  6
CONTINUOUS
 10
5.814600
 20
1.969880
  0
VERTEX
  8
0
  6
CONTINUOUS
 10
5.798320
 20
1.944800
  0
VERTEX
  8
0
  6
CONTINUOUS
 10
5.144040
 20
2.317040
  0
VERTEX
  8
0
  6
CONTINUOUS
 10
5.159880
 20
2.342120
  0
SEQEND
  8
0
  0
SOLID
  8
0
 62
    15
 10
5.144040
 20
2.317040
 11
5.798320
 21
1.944800
 12
5.134800
 22
2.285360
 13
5.789080
 23
1.913120
  0
POLYLINE
  8
0
  6
CONTINUOUS
 66
     1
 40
0.000000
 41
0.000000
  0
VERTEX
  8
0
  6
CONTINUOUS
 10
5.144040
 20
2.317040
  0
VERTEX
  8
0
  6
CONTINUOUS
 10
5.798320
 20
1.944800
  0
VERTEX
  8
0
  6
CONTINUOUS
 10
5.789080
 20
1.913120
  0
VERTEX
  8
0
  6
CONTINUOUS
 10
5.134800
 20
2.285360
  0
VERTEX
  8
0
  6
CONTINUOUS
 10
5.144040
 20
2.317040
  0
SEQEND
  8
0
  0
SOLID
  8
0
 62
    15
 10
5.353480
 20
2.844600
 11
6.008200
 21
2.472360
 12
5.387800
 22
2.817320
 13
6.042520
 23
2.445080
  0
POLYLINE
  8
0
  6
CONTINUOUS
 66
     1
 40
0.000000
 41
0.000000
  0
VERTEX
  8
0
  6
CONTINUOUS
 10
5.353480
 20
2.844600
  0
VERTEX
  8
0
  6
CONTINUOUS
 10
6.008200
 20
2.472360
  0
VERTEX
  8
0
  6
CONTINUOUS
 10
6.042520
 20
2.445080
  0
VERTEX
  8
0
  6
CONTINUOUS
 10
5.387800
 20
2.817320
  0
VERTEX
  8
0
  6
CONTINUOUS
 10
5.353480
 20
2.844600
  0
SEQEND
  8
0
  0
SOLID
  8
0
 62
    15
 10
5.131720
 20
2.245760
 11
5.786440
 21
1.873520
 12
5.134800
 22
1.968560
 13
5.789520
 23
1.596320
  0
POLYLINE
  8
0
  6
CONTINUOUS
 66
     1
 40
0.000000
 41
0.000000
  0
VERTEX
  8
0
  6
CONTINUOUS
 10
5.131720
 20
2.245760
  0
VERTEX
  8
0
  6
CONTINUOUS
 10
5.786440
 20
1.873520
  0
VERTEX
  8
0
  6
CONTINUOUS
 10
5.789520
 20
1.596320
  0
VERTEX
  8
0
  6
CONTINUOUS
 10
5.134800
 20
1.968560
  0
VERTEX
  8
0
  6
CONTINUOUS
 10
5.131720
 20
2.245760
  0
SEQEND
  8
0
  0
SOLID
  8
0
 62
    15
 10
5.134800
 20
1.968560
 11
5.789520
 21
1.596320
 12
5.131720
 22
1.943040
 13
5.786000
 23
1.571240
  0
POLYLINE
  8
0
  6
CONTINUOUS
 66
     1
 40
0.000000
 41
0.000000
  0
VERTEX
  8
0
  6
CONTINUOUS
 10
5.134800
 20
1.968560
  0
VERTEX
  8
0
  6
CONTINUOUS
 10
5.789520
 20
1.596320
  0
VERTEX
  8
0
  6
CONTINUOUS
 10
5.786000
 20
1.571240
  0
VERTEX
  8
0
  6
CONTINUOUS
 10
5.131720
 20
1.943040
  0
VERTEX
  8
0
  6
CONTINUOUS
 10
5.134800
 20
1.968560
  0
SEQEND
  8
0
  0
SOLID
  8
0
 62
    15
 10
5.131720
 20
1.943040
 11
5.786000
 21
1.571240
 12
5.122040
 22
1.916200
 13
5.776760
 23
1.543960
  0
POLYLINE
  8
0
  6
CONTINUOUS
 66
     1
 40
0.000000
 41
0.000000
  0
VERTEX
  8
0
  6
CONTINUOUS
 10
5.131720
 20
1.943040
  0
VERTEX
  8
0
  6
CONTINUOUS
 10
5.786000
 20
1.571240
  0
VERTEX
  8
0
  6
CONTINUOUS
 10
5.776760
 20
1.543960
  0
VERTEX
  8
0
  6
CONTINUOUS
 10
5.122040
 20
1.916200
  0
VERTEX
  8
0
  6
CONTINUOUS
 10
5.131720
 20
1.943040
  0
SEQEND
  8
0
  0
SOLID
  8
0
 62
    15
 10
5.122040
 20
1.916200
 11
5.776760
 21
1.543960
 12
5.107520
 22
1.888920
 13
5.761800
 23
1.516680
  0
POLYLINE
  8
0
  6
CONTINUOUS
 66
     1
 40
0.000000
 41
0.000000
  0
VERTEX
  8
0
  6
CONTINUOUS
 10
5.122040
 20
1.916200
  0
VERTEX
  8
0
  6
CONTINUOUS
 10
5.776760
 20
1.543960
  0
VERTEX
  8
0
  6
CONTINUOUS
 10
5.761800
 20
1.516680
  0
VERTEX
  8
0
  6
CONTINUOUS
 10
5.107520
 20
1.888920
  0
VERTEX
  8
0
  6
CONTINUOUS
 10
5.122040
 20
1.916200
  0
SEQEND
  8
0
  0
SOLID
  8
0
 62
    15
 10
5.107520
 20
1.888920
 11
5.761800
 21
1.516680
 12
5.088160
 22
1.862960
 13
5.742880
 23
1.490720
  0
POLYLINE
  8
0
  6
CONTINUOUS
 66
     1
 40
0.000000
 41
0.000000
  0
VERTEX
  8
0
  6
CONTINUOUS
 10
5.107520
 20
1.888920
  0
VERTEX
  8
0
  6
CONTINUOUS
 10
5.761800
 20
1.516680
  0
VERTEX
  8
0
  6
CONTINUOUS
 10
5.742880
 20
1.490720
  0
VERTEX
  8
0
  6
CONTINUOUS
 10
5.088160
 20
1.862960
  0
VERTEX
  8
0
  6
CONTINUOUS
 10
5.107520
 20
1.888920
  0
SEQEND
  8
0
  0
SOLID
  8
0
 62
    15
 10
5.088160
 20
1.862960
 11
5.742880
 21
1.490720
 12
5.065720
 22
1.839640
 13
5.720000
 23
1.467840
  0
POLYLINE
  8
0
  6
CONTINUOUS
 66
     1
 40
0.000000
 41
0.000000
  0
VERTEX
  8
0
  6
CONTINUOUS
 10
5.088160
 20
1.862960
  0
VERTEX
  8
0
  6
CONTINUOUS
 10
5.742880
 20
1.490720
  0
VERTEX
  8
0
  6
CONTINUOUS
 10
5.720000
 20
1.467840
  0
VERTEX
  8
0
  6
CONTINUOUS
 10
5.065720
 20
1.839640
  0
VERTEX
  8
0
  6
CONTINUOUS
 10
5.088160
 20
1.862960
  0
SEQEND
  8
0
  0
SOLID
  8
0
 62
    15
 10
5.065720
 20
1.839640
 11
5.720000
 21
1.467840
 12
5.040640
 22
1.821160
 13
5.694920
 23
1.448920
  0
POLYLINE
  8
0
  6
CONTINUOUS
 66
     1
 40
0.000000
 41
0.000000
  0
VERTEX
  8
0
  6
CONTINUOUS
 10
5.065720
 20
1.839640
  0
VERTEX
  8
0
  6
CONTINUOUS
 10
5.720000
 20
1.467840
  0
VERTEX
  8
0
  6
CONTINUOUS
 10
5.694920
 20
1.448920
  0
VERTEX
  8
0
  6
CONTINUOUS
 10
5.040640
 20
1.821160
  0
VERTEX
  8
0
  6
CONTINUOUS
 10
5.065720
 20
1.839640
  0
SEQEND
  8
0
  0
SOLID
  8
0
 62
    15
 10
5.040640
 20
1.821160
 11
5.694920
 21
1.448920
 12
5.013800
 22
1.807960
 13
5.668080
 23
1.436160
  0
POLYLINE
  8
0
  6
CONTINUOUS
 66
     1
 40
0.000000
 41
0.000000
  0
VERTEX
  8
0
  6
CONTINUOUS
 10
5.040640
 20
1.821160
  0
VERTEX
  8
0
  6
CONTINUOUS
 10
5.694920
 20
1.448920
  0
VERTEX
  8
0
  6
CONTINUOUS
 10
5.668080
 20
1.436160
  0
VERTEX
  8
0
  6
CONTINUOUS
 10
5.013800
 20
1.807960
  0
VERTEX
  8
0
  6
CONTINUOUS
 10
5.040640
 20
1.821160
  0
SEQEND
  8
0
  0
SOLID
  8
0
 62
    15
 10
5.013800
 20
1.807960
 11
5.668080
 21
1.436160
 12
4.986080
 22
1.802680
 13
5.640800
 23
1.430440
  0
POLYLINE
  8
0
  6
CONTINUOUS
 66
     1
 40
0.000000
 41
0.000000
  0
VERTEX
  8
0
  6
CONTINUOUS
 10
5.013800
 20
1.807960
  0
VERTEX
  8
0
  6
CONTINUOUS
 10
5.668080
 20
1.436160
  0
VERTEX
  8
0
  6
CONTINUOUS
 10
5.640800
 20
1.430440
  0
VERTEX
  8
0
  6
CONTINUOUS
 10
4.986080
 20
1.802680
  0
VERTEX
  8
0
  6
CONTINUOUS
 10
5.013800
 20
1.807960
  0
SEQEND
  8
0
  0
SOLID
  8
0
 62
    15
 10
4.986080
 20
1.802680
 11
5.640800
 21
1.430440
 12
4.986080
 22
1.671560
 13
5.640800
 23
1.299320
  0
POLYLINE
  8
0
  6
CONTINUOUS
 66
     1
 40
0.000000
 41
0.000000
  0
VERTEX
  8
0
  6
CONTINUOUS
 10
4.986080
 20
1.802680
  0
VERTEX
  8
0
  6
CONTINUOUS
 10
5.640800
 20
1.430440
  0
VERTEX
  8
0
  6
CONTINUOUS
 10
5.640800
 20
1.299320
  0
VERTEX
  8
0
  6
CONTINUOUS
 10
4.986080
 20
1.671560
  0
VERTEX
  8
0
  6
CONTINUOUS
 10
4.986080
 20
1.802680
  0
SEQEND
  8
0
  0
SOLID
  8
0
 62
    15
 10
4.986080
 20
1.671560
 11
5.640800
 21
1.299320
 12
4.881360
 22
1.671560
 13
5.536080
 23
1.299320
  0
POLYLINE
  8
0
  6
CONTINUOUS
 66
     1
 40
0.000000
 41
0.000000
  0
VERTEX
  8
0
  6
CONTINUOUS
 10
4.986080
 20
1.671560
  0
VERTEX
  8
0
  6
CONTINUOUS
 10
5.640800
 20
1.299320
  0
VERTEX
  8
0
  6
CONTINUOUS
 10
5.536080
 20
1.299320
  0
VERTEX
  8
0
  6
CONTINUOUS
 10
4.881360
 20
1.671560
  0
VERTEX
  8
0
  6
CONTINUOUS
 10
4.986080
 20
1.671560
  0
SEQEND
  8
0
  0
SOLID
  8
0
 62
    15
 10
4.881360
 20
1.671560
 11
5.536080
 21
1.299320
 12
4.881360
 22
1.487640
 13
5.536080
 23
1.115400
  0
POLYLINE
  8
0
  6
CONTINUOUS
 66
     1
 40
0.000000
 41
0.000000
  0
VERTEX
  8
0
  6
CONTINUOUS
 10
4.881360
 20
1.671560
  0
VERTEX
  8
0
  6
CONTINUOUS
 10
5.536080
 20
1.299320
  0
VERTEX
  8
0
  6
CONTINUOUS
 10
5.536080
 20
1.115400
  0
VERTEX
  8
0
  6
CONTINUOUS
 10
4.881360
 20
1.487640
  0
VERTEX
  8
0
  6
CONTINUOUS
 10
4.881360
 20
1.671560
  0
SEQEND
  8
0
  0
SOLID
  8
0
 62
    15
 10
4.881360
 20
1.487640
 11
5.536080
 21
1.115400
 12
4.856720
 22
1.483680
 13
5.511440
 23
1.111440
  0
POLYLINE
  8
0
  6
CONTINUOUS
 66
     1
 40
0.000000
 41
0.000000
  0
VERTEX
  8
0
  6
CONTINUOUS
 10
4.881360
 20
1.487640
  0
VERTEX
  8
0
  6
CONTINUOUS
 10
5.536080
 20
1.115400
  0
VERTEX
  8
0
  6
CONTINUOUS
 10
5.511440
 20
1.111440
  0
VERTEX
  8
0
  6
CONTINUOUS
 10
4.856720
 20
1.483680
  0
VERTEX
  8
0
  6
CONTINUOUS
 10
4.881360
 20
1.487640
  0
SEQEND
  8
0
  0
SOLID
  8
0
 62
    15
 10
4.856720
 20
1.483680
 11
5.511440
 21
1.111440
 12
4.836040
 22
1.474440
 13
5.490320
 23
1.102200
  0
POLYLINE
  8
0
  6
CONTINUOUS
 66
     1
 40
0.000000
 41
0.000000
  0
VERTEX
  8
0
  6
CONTINUOUS
 10
4.856720
 20
1.483680
  0
VERTEX
  8
0
  6
CONTINUOUS
 10
5.511440
 20
1.111440
  0
VERTEX
  8
0
  6
CONTINUOUS
 10
5.490320
 20
1.102200
  0
VERTEX
  8
0
  6
CONTINUOUS
 10
4.836040
 20
1.474440
  0
VERTEX
  8
0
  6
CONTINUOUS
 10
4.856720
 20
1.483680
  0
SEQEND
  8
0
  0
SOLID
  8
0
 62
    15
 10
4.836040
 20
1.474440
 11
5.490320
 21
1.102200
 12
4.818440
 22
1.459040
 13
5.472720
 23
1.087240
  0
POLYLINE
  8
0
  6
CONTINUOUS
 66
     1
 40
0.000000
 41
0.000000
  0
VERTEX
  8
0
  6
CONTINUOUS
 10
4.836040
 20
1.474440
  0
VERTEX
  8
0
  6
CONTINUOUS
 10
5.490320
 20
1.102200
  0
VERTEX
  8
0
  6
CONTINUOUS
 10
5.472720
 20
1.087240
  0
VERTEX
  8
0
  6
CONTINUOUS
 10
4.818440
 20
1.459040
  0
VERTEX
  8
0
  6
CONTINUOUS
 10
4.836040
 20
1.474440
  0
SEQEND
  8
0
  0
SOLID
  8
0
 62
    15
 10
4.818440
 20
1.459040
 11
5.472720
 21
1.087240
 12
4.803920
 22
1.437920
 13
5.458640
 23
1.065680
  0
POLYLINE
  8
0
  6
CONTINUOUS
 66
     1
 40
0.000000
 41
0.000000
  0
VERTEX
  8
0
  6
CONTINUOUS
 10
4.818440
 20
1.459040
  0
VERTEX
  8
0
  6
CONTINUOUS
 10
5.472720
 20
1.087240
  0
VERTEX
  8
0
  6
CONTINUOUS
 10
5.458640
 20
1.065680
  0
VERTEX
  8
0
  6
CONTINUOUS
 10
4.803920
 20
1.437920
  0
VERTEX
  8
0
  6
CONTINUOUS
 10
4.818440
 20
1.459040
  0
SEQEND
  8
0
  0
SOLID
  8
0
 62
    15
 10
4.803920
 20
1.437920
 11
5.458640
 21
1.065680
 12
4.791160
 22
1.412840
 13
5.445440
 23
1.040600
  0
POLYLINE
  8
0
  6
CONTINUOUS
 66
     1
 40
0.000000
 41
0.000000
  0
VERTEX
  8
0
  6
CONTINUOUS
 10
4.803920
 20
1.437920
  0
VERTEX
  8
0
  6
CONTINUOUS
 10
5.458640
 20
1.065680
  0
VERTEX
  8
0
  6
CONTINUOUS
 10
5.445440
 20
1.040600
  0
VERTEX
  8
0
  6
CONTINUOUS
 10
4.791160
 20
1.412840
  0
VERTEX
  8
0
  6
CONTINUOUS
 10
4.803920
 20
1.437920
  0
SEQEND
  8
0
  0
SOLID
  8
0
 62
    15
 10
4.791160
 20
1.412840
 11
5.445440
 21
1.040600
 12
4.777080
 22
1.389520
 13
5.431360
 23
1.017280
  0
POLYLINE
  8
0
  6
CONTINUOUS
 66
     1
 40
0.000000
 41
0.000000
  0
VERTEX
  8
0
  6
CONTINUOUS
 10
4.791160
 20
1.412840
  0
VERTEX
  8
0
  6
CONTINUOUS
 10
5.445440
 20
1.040600
  0
VERTEX
  8
0
  6
CONTINUOUS
 10
5.431360
 20
1.017280
  0
VERTEX
  8
0
  6
CONTINUOUS
 10
4.777080
 20
1.389520
  0
VERTEX
  8
0
  6
CONTINUOUS
 10
4.791160
 20
1.412840
  0
SEQEND
  8
0
  0
SOLID
  8
0
 62
    15
 10
4.777080
 20
1.389520
 11
5.431360
 21
1.017280
 12
4.760360
 22
1.371920
 13
5.414640
 23
0.999680
  0
POLYLINE
  8
0
  6
CONTINUOUS
 66
     1
 40
0.000000
 41
0.000000
  0
VERTEX
  8
0
  6
CONTINUOUS
 10
4.777080
 20
1.389520
  0
VERTEX
  8
0
  6
CONTINUOUS
 10
5.431360
 20
1.017280
  0
VERTEX
  8
0
  6
CONTINUOUS
 10
5.414640
 20
0.999680
  0
VERTEX
  8
0
  6
CONTINUOUS
 10
4.760360
 20
1.371920
  0
VERTEX
  8
0
  6
CONTINUOUS
 10
4.777080
 20
1.389520
  0
SEQEND
  8
0
  0
SOLID
  8
0
 62
    15
 10
4.760360
 20
1.371920
 11
5.414640
 21
0.999680
 12
4.739680
 22
1.364000
 13
5.393960
 23
0.991760
  0
POLYLINE
  8
0
  6
CONTINUOUS
 66
     1
 40
0.000000
 41
0.000000
  0
VERTEX
  8
0
  6
CONTINUOUS
 10
4.760360
 20
1.371920
  0
VERTEX
  8
0
  6
CONTINUOUS
 10
5.414640
 20
0.999680
  0
VERTEX
  8
0
  6
CONTINUOUS
 10
5.393960
 20
0.991760
  0
VERTEX
  8
0
  6
CONTINUOUS
 10
4.739680
 20
1.364000
  0
VERTEX
  8
0
  6
CONTINUOUS
 10
4.760360
 20
1.371920
  0
SEQEND
  8
0
  0
SOLID
  8
0
 62
    15
 10
4.739680
 20
1.364000
 11
5.393960
 21
0.991760
 12
4.640240
 22
1.364000
 13
5.294960
 23
0.991760
  0
POLYLINE
  8
0
  6
CONTINUOUS
 66
     1
 40
0.000000
 41
0.000000
  0
VERTEX
  8
0
  6
CONTINUOUS
 10
4.739680
 20
1.364000
  0
VERTEX
  8
0
  6
CONTINUOUS
 10
5.393960
 20
0.991760
  0
VERTEX
  8
0
  6
CONTINUOUS
 10
5.294960
 20
0.991760
  0
VERTEX
  8
0
  6
CONTINUOUS
 10
4.640240
 20
1.364000
  0
VERTEX
  8
0
  6
CONTINUOUS
 10
4.739680
 20
1.364000
  0
SEQEND
  8
0
  0
POLYLINE
  8
0
  6
CONTINUOUS
 66
     1
 40
0.000000
 41
0.000000
  0
VERTEX
  8
0
  6
CONTINUOUS
 10
5.211360
 20
2.888600
  0
VERTEX
  8
0
  6
CONTINUOUS
 10
5.265480
 20
2.881120
  0
VERTEX
  8
0
  6
CONTINUOUS
 10
5.313000
 20
2.866160
  0
VERTEX
  8
0
  6
CONTINUOUS
 10
5.353480
 20
2.844600
  0
VERTEX
  8
0
  6
CONTINUOUS
 10
5.387800
 20
2.817320
  0
VERTEX
  8
0
  6
CONTINUOUS
 10
5.415520
 20
2.785640
  0
VERTEX
  8
0
  6
CONTINUOUS
 10
5.437520
 20
2.750440
  0
VERTEX
  8
0
  6
CONTINUOUS
 10
5.452920
 20
2.712600
  0
VERTEX
  8
0
  6
CONTINUOUS
 10
5.463040
 20
2.673440
  0
VERTEX
  8
0
  6
CONTINUOUS
 10
5.467440
 20
2.633840
  0
VERTEX
  8
0
  6
CONTINUOUS
 10
5.466560
 20
2.595120
  0
VERTEX
  8
0
  6
CONTINUOUS
 10
5.460400
 20
2.557720
  0
VERTEX
  8
0
  6
CONTINUOUS
 10
5.449400
 20
2.522960
  0
VERTEX
  8
0
  6
CONTINUOUS
 10
5.433560
 20
2.492160
  0
VERTEX
  8
0
  6
CONTINUOUS
 10
5.412880
 20
2.465760
  0
VERTEX
  8
0
  6
CONTINUOUS
 10
5.387800
 20
2.445520
  0
VERTEX
  8
0
  6
CONTINUOUS
 10
5.358760
 20
2.431880
  0
VERTEX
  8
0
  6
CONTINUOUS
 10
5.253600
 20
2.397120
  0
VERTEX
  8
0
  6
CONTINUOUS
 10
5.214000
 20
2.380840
  0
VERTEX
  8
0
  6
CONTINUOUS
 10
5.183200
 20
2.362800
  0
VERTEX
  8
0
  6
CONTINUOUS
 10
5.159880
 20
2.342120
  0
VERTEX
  8
0
  6
CONTINUOUS
 10
5.144040
 20
2.317040
  0
VERTEX
  8
0
  6
CONTINUOUS
 10
5.134800
 20
2.285360
  0
VERTEX
  8
0
  6
CONTINUOUS
 10
5.131720
 20
2.245760
  0
VERTEX
  8
0
  6
CONTINUOUS
 10
5.134800
 20
1.968560
  0
VERTEX
  8
0
  6
CONTINUOUS
 10
5.131720
 20
1.943040
  0
VERTEX
  8
0
  6
CONTINUOUS
 10
5.122040
 20
1.916200
  0
VERTEX
  8
0
  6
CONTINUOUS
 10
5.107520
 20
1.888920
  0
VERTEX
  8
0
  6
CONTINUOUS
 10
5.088160
 20
1.862960
  0
VERTEX
  8
0
  6
CONTINUOUS
 10
5.065720
 20
1.839640
  0
VERTEX
  8
0
  6
CONTINUOUS
 10
5.040640
 20
1.821160
  0
VERTEX
  8
0
  6
CONTINUOUS
 10
5.013800
 20
1.807960
  0
VERTEX
  8
0
  6
CONTINUOUS
 10
4.986080
 20
1.802680
  0
VERTEX
  8
0
  6
CONTINUOUS
 10
4.986080
 20
1.671560
  0
VERTEX
  8
0
  6
CONTINUOUS
 10
4.881360
 20
1.671560
  0
VERTEX
  8
0
  6
CONTINUOUS
 10
4.881360
 20
1.487640
  0
VERTEX
  8
0
  6
CONTINUOUS
 10
4.856720
 20
1.483680
  0
VERTEX
  8
0
  6
CONTINUOUS
 10
4.836040
 20
1.474440
  0
VERTEX
  8
0
  6
CONTINUOUS
 10
4.818440
 20
1.459040
  0
VERTEX
  8
0
  6
CONTINUOUS
 10
4.803920
 20
1.437920
  0
VERTEX
  8
0
  6
CONTINUOUS
 10
4.791160
 20
1.412840
  0
VERTEX
  8
0
  6
CONTINUOUS
 10
4.777080
 20
1.389520
  0
VERTEX
  8
0
  6
CONTINUOUS
 10
4.760360
 20
1.371920
  0
VERTEX
  8
0
  6
CONTINUOUS
 10
4.739680
 20
1.364000
  0
VERTEX
  8
0
  6
CONTINUOUS
 10
4.640240
 20
1.364000
  0
VERTEX
  8
0
  6
CONTINUOUS
 10
4.640240
 20
2.642200
  0
VERTEX
  8
0
  6
CONTINUOUS
 10
4.782360
 20
2.642200
  0
VERTEX
  8
0
  6
CONTINUOUS
 10
4.795560
 20
2.682680
  0
VERTEX
  8
0
  6
CONTINUOUS
 10
4.810520
 20
2.718760
  0
VERTEX
  8
0
  6
CONTINUOUS
 10
4.827680
 20
2.750880
  0
VERTEX
  8
0
  6
CONTINUOUS
 10
4.846600
 20
2.778600
  0
VERTEX
  8
0
  6
CONTINUOUS
 10
4.867280
 20
2.802800
  0
VERTEX
  8
0
  6
CONTINUOUS
 10
4.889720
 20
2.823040
  0
VERTEX
  8
0
  6
CONTINUOUS
 10
4.940320
 20
2.854720
  0
VERTEX
  8
0
  6
CONTINUOUS
 10
4.997960
 20
2.875400
  0
VERTEX
  8
0
  6
CONTINUOUS
 10
5.062640
 20
2.886400
  0
VERTEX
  8
0
  6
CONTINUOUS
 10
5.133480
 20
2.890360
  0
VERTEX
  8
0
  6
CONTINUOUS
 10
5.211360
 20
2.888600
  0
SEQEND
  8
0
  0
TEXT
  8
0
 10
5.085960
 20
0.786720
 40
0.138027
  1
BA  633
 41
1.000000
  7
SN0
 71
     0
 72
     5
 11
5.675703
 21
0.786720
  0
TEXT
  8
0
 10
4.837800
 20
0.595320
 40
0.138027
  1
13/16" x 1-1/2"
 41
1.000000
  7
SN0
 71
     0
 72
     5
 11
5.921987
 21
0.595320
  0
ENDSEC
  0
EOF
