  0
SECTION
  2
HEADER
  9
$ACADVER
  1
AC1006
  9
$EXTMIN
 10
3.954280
 20
0.638000
  9
$EXTMAX
 10
7.780080
 20
3.333000
  9
$LTSCALE
 40
0.044000
  9
$PDMODE
 70
    35
  9
$PDSIZE
 40
0.035200
  0
ENDSEC
  0
SECTION
  2
TABLES
  0
TABLE
  2
LTYPE
 70
     9
  0
LTYPE
  2
CONTINUOUS
 70
    64
  3
Solid line
 72
    65
 73
     0
 40
0.000000
  0
LTYPE
  2
DASHED
 70
    64
  3
__ __ __ __ __ __ __ __ __ __ __ __ __ __ __
 72
    65
 73
     2
 40
0.000330
 49
0.000220
 49
-0.000110
  0
LTYPE
  2
HIDDEN
 70
    64
  3
 _ _ _ _ _ _ _ _ _ _ _ _ _ _ _ _ _ _ _ _ _ _
 72
    65
 73
     2
 40
0.000165
 49
0.000110
 49
-0.000055
  0
LTYPE
  2
CENTER
 70
    64
  3
____ _ ____ _ ____ _ ____ _ ____ _ ____ _ ____
 72
    65
 73
     4
 40
0.000880
 49
0.000550
 49
-0.000110
 49
0.000110
 49
-0.000110
  0
LTYPE
  2
PHANTOM
 70
    64
  3
_____ _ _ _____ _ _ _____ _ _ _____ _ _ ____
 72
    65
 73
     6
 40
0.001100
 49
0.000550
 49
-0.000110
 49
0.000110
 49
-0.000110
 49
0.000110
 49
-0.000110
  0
LTYPE
  2
DOT
 70
    64
  3
...............................................
 72
    65
 73
     2
 40
0.000110
 49
0.000000
 49
-0.000110
  0
LTYPE
  2
DASHDOT
 70
    64
  3
__ . __ . __ . __ . __ . __ . __ . __ . __ . __
 72
    65
 73
     4
 40
0.000440
 49
0.000220
 49
-0.000110
 49
0.000000
 49
-0.000110
  0
LTYPE
  2
BORDER
 70
    64
  3
__ __ . __ __ . __ __ . __ __ . __ __ . __ __
 72
    65
 73
     6
 40
0.000770
 49
0.000220
 49
-0.000110
 49
0.000220
 49
-0.000110
 49
0.000000
 49
-0.000110
  0
LTYPE
  2
DIVIDE
 70
    64
  3
__ . . __ . . __ . . __ . . __ . . __ . . __
 72
    65
 73
     6
 40
0.000550
 49
0.000220
 49
-0.000110
 49
0.000000
 49
-0.000110
 49
0.000000
 49
-0.000110
  0
LTYPE
  2
DOTDOT
 70
    64
  3
 . .  . .  . .  . .  . .  . . 
 72
    65
 73
     5
 40
0.000242
 49
-0.000110
 49
0.000000
 49
-0.000110
 49
0.000000
 49
-0.000110
  0
ENDTAB
  0
TABLE
  2
STYLE
 70
     2
  0
STYLE
 70
     0
  2
SN0
 40
0.000000
 41
0.000440
 50
0.000000
 71
     0
 42
0.000000
  3
ROMAND
  0
STYLE
 70
    68
  2
SV0
 40
0.000000
 41
0.000440
 50
0.000000
 71
     0
 42
0.000000
  3
ROMAND
  0
ENDTAB
  0
TABLE
  2
LAYER
 70
     3
  0
LAYER
  2
FOREGROUND
 70
    64
 62
     7
  6
CONTINUOUS
  0
LAYER
  2
BACKGROUND
 70
    65
 62
    -7
  6
CONTINUOUS
  0
LAYER
  2
0
 70
    64
 62
     7
  6
CONTINUOUS
  0
ENDTAB
  0
ENDSEC
  0
SECTION
  2
ENTITIES
  0
POLYLINE
  8
FOREGROUND
  6
CONTINUOUS
 66
     1
 40
0.000000
 41
0.000000
  0
VERTEX
  8
FOREGROUND
  6
CONTINUOUS
 10
0.000000
 20
3.971000
  0
VERTEX
  8
FOREGROUND
  6
CONTINUOUS
 10
8.499920
 20
3.971000
  0
VERTEX
  8
FOREGROUND
  6
CONTINUOUS
 10
8.499920
 20
-7.029000
  0
VERTEX
  8
FOREGROUND
  6
CONTINUOUS
 10
0.000000
 20
-7.029000
  0
VERTEX
  8
FOREGROUND
  6
CONTINUOUS
 10
0.000000
 20
3.971000
  0
SEQEND
  8
0
  0
POLYLINE
  8
FOREGROUND
  6
CONTINUOUS
 66
     1
 40
0.000000
 41
0.000000
  0
VERTEX
  8
FOREGROUND
  6
CONTINUOUS
 10
0.000000
 20
3.971000
  0
VERTEX
  8
FOREGROUND
  6
CONTINUOUS
 10
8.499920
 20
3.971000
  0
VERTEX
  8
FOREGROUND
  6
CONTINUOUS
 10
8.499920
 20
-7.029000
  0
VERTEX
  8
FOREGROUND
  6
CONTINUOUS
 10
0.000000
 20
-7.029000
  0
VERTEX
  8
FOREGROUND
  6
CONTINUOUS
 10
0.000000
 20
3.971000
  0
SEQEND
  8
0
  0
POLYLINE
  8
0
  6
CONTINUOUS
 66
     1
 40
0.014080
 41
0.014080
  0
VERTEX
  8
0
  6
CONTINUOUS
 10
6.451720
 20
3.117400
  0
VERTEX
  8
0
  6
CONTINUOUS
 10
6.485600
 20
3.057120
  0
VERTEX
  8
0
  6
CONTINUOUS
 10
6.512440
 20
3.015320
  0
VERTEX
  8
0
  6
CONTINUOUS
 10
6.559080
 20
2.954160
  0
VERTEX
  8
0
  6
CONTINUOUS
 10
6.593400
 20
2.915440
  0
VERTEX
  8
0
  6
CONTINUOUS
 10
6.647960
 20
2.863080
  0
VERTEX
  8
0
  6
CONTINUOUS
 10
6.685800
 20
2.833600
  0
VERTEX
  8
0
  6
CONTINUOUS
 10
6.705160
 20
2.820400
  0
VERTEX
  8
0
  6
CONTINUOUS
 10
6.743880
 20
2.799280
  0
VERTEX
  8
0
  6
CONTINUOUS
 10
6.782160
 20
2.785200
  0
VERTEX
  8
0
  6
CONTINUOUS
 10
6.801080
 20
2.780800
  0
VERTEX
  8
0
  6
CONTINUOUS
 10
6.820000
 20
2.778600
  0
VERTEX
  8
0
  6
CONTINUOUS
 10
6.838480
 20
2.779040
  0
VERTEX
  8
0
  6
CONTINUOUS
 10
6.865320
 20
2.783440
  0
VERTEX
  8
0
  6
CONTINUOUS
 10
6.882920
 20
2.789600
  0
VERTEX
  8
0
  6
CONTINUOUS
 10
6.908000
 20
2.804120
  0
VERTEX
  8
0
  6
CONTINUOUS
 10
6.931760
 20
2.825240
  0
VERTEX
  8
0
  6
CONTINUOUS
 10
6.953760
 20
2.852960
  0
VERTEX
  8
0
  6
CONTINUOUS
 10
6.974000
 20
2.888160
  0
VERTEX
  8
0
  6
CONTINUOUS
 10
6.980160
 20
2.901360
  0
VERTEX
  8
0
  6
CONTINUOUS
 10
7.075200
 20
2.901360
  0
VERTEX
  8
0
  6
CONTINUOUS
 10
7.082680
 20
2.928640
  0
VERTEX
  8
0
  6
CONTINUOUS
 10
7.094120
 20
2.951960
  0
VERTEX
  8
0
  6
CONTINUOUS
 10
7.109080
 20
2.971760
  0
VERTEX
  8
0
  6
CONTINUOUS
 10
7.126680
 20
2.987160
  0
VERTEX
  8
0
  6
CONTINUOUS
 10
7.146480
 20
2.998600
  0
VERTEX
  8
0
  6
CONTINUOUS
 10
7.168040
 20
3.006520
  0
VERTEX
  8
0
  6
CONTINUOUS
 10
7.190040
 20
3.009600
  0
VERTEX
  8
0
  6
CONTINUOUS
 10
7.201480
 20
3.010040
  0
VERTEX
  8
0
  6
CONTINUOUS
 10
7.223920
 20
3.006960
  0
VERTEX
  8
0
  6
CONTINUOUS
 10
7.245480
 20
3.000360
  0
VERTEX
  8
0
  6
CONTINUOUS
 10
7.266160
 20
2.988920
  0
VERTEX
  8
0
  6
CONTINUOUS
 10
7.284640
 20
2.973520
  0
VERTEX
  8
0
  6
CONTINUOUS
 10
7.300920
 20
2.954160
  0
VERTEX
  8
0
  6
CONTINUOUS
 10
7.313680
 20
2.929960
  0
VERTEX
  8
0
  6
CONTINUOUS
 10
7.322920
 20
2.901800
  0
VERTEX
  8
0
  6
CONTINUOUS
 10
7.328200
 20
2.868800
  0
VERTEX
  8
0
  6
CONTINUOUS
 10
7.328640
 20
2.850760
  0
VERTEX
  8
0
  6
CONTINUOUS
 10
7.535880
 20
2.850760
  0
VERTEX
  8
0
  6
CONTINUOUS
 10
7.582080
 20
2.717440
  0
VERTEX
  8
0
  6
CONTINUOUS
 10
7.626520
 20
2.712160
  0
VERTEX
  8
0
  6
CONTINUOUS
 10
7.664800
 20
2.701600
  0
VERTEX
  8
0
  6
CONTINUOUS
 10
7.697360
 20
2.688400
  0
VERTEX
  8
0
  6
CONTINUOUS
 10
7.734760
 20
2.665520
  0
VERTEX
  8
0
  6
CONTINUOUS
 10
7.759400
 20
2.644840
  0
VERTEX
  8
0
  6
CONTINUOUS
 10
7.772600
 20
2.630320
  0
VERTEX
  8
0
  6
CONTINUOUS
 10
7.772600
 20
2.375560
  0
VERTEX
  8
0
  6
CONTINUOUS
 10
5.892920
 20
2.375560
  0
VERTEX
  8
0
  6
CONTINUOUS
 10
5.892920
 20
3.118280
  0
VERTEX
  8
0
  6
CONTINUOUS
 10
6.452160
 20
3.118280
  0
VERTEX
  8
0
  6
CONTINUOUS
 10
6.451720
 20
3.117400
  0
SEQEND
  8
0
  0
SOLID
  8
0
 62
     7
 10
4.566320
 20
1.722160
 11
5.209160
 21
2.098360
 12
4.577760
 22
1.702360
 13
5.220600
 23
2.078560
  0
POLYLINE
  8
0
  6
CONTINUOUS
 66
     1
 40
0.000000
 41
0.000000
  0
VERTEX
  8
0
  6
CONTINUOUS
 10
4.566320
 20
1.722160
  0
VERTEX
  8
0
  6
CONTINUOUS
 10
5.209160
 20
2.098360
  0
VERTEX
  8
0
  6
CONTINUOUS
 10
5.220600
 20
2.078560
  0
VERTEX
  8
0
  6
CONTINUOUS
 10
4.577760
 20
1.702360
  0
VERTEX
  8
0
  6
CONTINUOUS
 10
4.566320
 20
1.722160
  0
SEQEND
  8
0
  0
SOLID
  8
0
 62
    15
 10
4.615160
 20
2.350480
 11
5.258000
 21
2.726240
 12
4.533320
 22
2.289760
 13
5.176160
 23
2.665960
  0
POLYLINE
  8
0
  6
CONTINUOUS
 66
     1
 40
0.000000
 41
0.000000
  0
VERTEX
  8
0
  6
CONTINUOUS
 10
4.615160
 20
2.350480
  0
VERTEX
  8
0
  6
CONTINUOUS
 10
5.258000
 20
2.726240
  0
VERTEX
  8
0
  6
CONTINUOUS
 10
5.176160
 20
2.665960
  0
VERTEX
  8
0
  6
CONTINUOUS
 10
4.533320
 20
2.289760
  0
VERTEX
  8
0
  6
CONTINUOUS
 10
4.615160
 20
2.350480
  0
SEQEND
  8
0
  0
SOLID
  8
0
 62
    15
 10
4.533320
 20
2.289760
 11
5.176160
 21
2.665960
 12
4.494600
 22
2.255440
 13
5.137440
 23
2.631640
  0
POLYLINE
  8
0
  6
CONTINUOUS
 66
     1
 40
0.000000
 41
0.000000
  0
VERTEX
  8
0
  6
CONTINUOUS
 10
4.533320
 20
2.289760
  0
VERTEX
  8
0
  6
CONTINUOUS
 10
5.176160
 20
2.665960
  0
VERTEX
  8
0
  6
CONTINUOUS
 10
5.137440
 20
2.631640
  0
VERTEX
  8
0
  6
CONTINUOUS
 10
4.494600
 20
2.255440
  0
VERTEX
  8
0
  6
CONTINUOUS
 10
4.533320
 20
2.289760
  0
SEQEND
  8
0
  0
SOLID
  8
0
 62
    15
 10
4.494600
 20
2.255440
 11
5.137440
 21
2.631640
 12
4.458520
 22
2.219800
 13
5.101360
 23
2.595560
  0
POLYLINE
  8
0
  6
CONTINUOUS
 66
     1
 40
0.000000
 41
0.000000
  0
VERTEX
  8
0
  6
CONTINUOUS
 10
4.494600
 20
2.255440
  0
VERTEX
  8
0
  6
CONTINUOUS
 10
5.137440
 20
2.631640
  0
VERTEX
  8
0
  6
CONTINUOUS
 10
5.101360
 20
2.595560
  0
VERTEX
  8
0
  6
CONTINUOUS
 10
4.458520
 20
2.219800
  0
VERTEX
  8
0
  6
CONTINUOUS
 10
4.494600
 20
2.255440
  0
SEQEND
  8
0
  0
SOLID
  8
0
 62
    15
 10
4.458520
 20
2.219800
 11
5.101360
 21
2.595560
 12
4.426840
 22
2.181960
 13
5.069240
 23
2.558160
  0
POLYLINE
  8
0
  6
CONTINUOUS
 66
     1
 40
0.000000
 41
0.000000
  0
VERTEX
  8
0
  6
CONTINUOUS
 10
4.458520
 20
2.219800
  0
VERTEX
  8
0
  6
CONTINUOUS
 10
5.101360
 20
2.595560
  0
VERTEX
  8
0
  6
CONTINUOUS
 10
5.069240
 20
2.558160
  0
VERTEX
  8
0
  6
CONTINUOUS
 10
4.426840
 20
2.181960
  0
VERTEX
  8
0
  6
CONTINUOUS
 10
4.458520
 20
2.219800
  0
SEQEND
  8
0
  0
SOLID
  8
0
 62
    15
 10
4.426840
 20
2.181960
 11
5.069240
 21
2.558160
 12
4.399560
 22
2.143680
 13
5.042400
 23
2.519880
  0
POLYLINE
  8
0
  6
CONTINUOUS
 66
     1
 40
0.000000
 41
0.000000
  0
VERTEX
  8
0
  6
CONTINUOUS
 10
4.426840
 20
2.181960
  0
VERTEX
  8
0
  6
CONTINUOUS
 10
5.069240
 20
2.558160
  0
VERTEX
  8
0
  6
CONTINUOUS
 10
5.042400
 20
2.519880
  0
VERTEX
  8
0
  6
CONTINUOUS
 10
4.399560
 20
2.143680
  0
VERTEX
  8
0
  6
CONTINUOUS
 10
4.426840
 20
2.181960
  0
SEQEND
  8
0
  0
SOLID
  8
0
 62
    15
 10
4.399560
 20
2.143680
 11
5.042400
 21
2.519880
 12
4.378440
 22
2.105400
 13
5.021280
 23
2.481160
  0
POLYLINE
  8
0
  6
CONTINUOUS
 66
     1
 40
0.000000
 41
0.000000
  0
VERTEX
  8
0
  6
CONTINUOUS
 10
4.399560
 20
2.143680
  0
VERTEX
  8
0
  6
CONTINUOUS
 10
5.042400
 20
2.519880
  0
VERTEX
  8
0
  6
CONTINUOUS
 10
5.021280
 20
2.481160
  0
VERTEX
  8
0
  6
CONTINUOUS
 10
4.378440
 20
2.105400
  0
VERTEX
  8
0
  6
CONTINUOUS
 10
4.399560
 20
2.143680
  0
SEQEND
  8
0
  0
SOLID
  8
0
 62
    15
 10
4.378440
 20
2.105400
 11
5.021280
 21
2.481160
 12
4.363920
 22
2.066680
 13
5.006760
 23
2.442880
  0
POLYLINE
  8
0
  6
CONTINUOUS
 66
     1
 40
0.000000
 41
0.000000
  0
VERTEX
  8
0
  6
CONTINUOUS
 10
4.378440
 20
2.105400
  0
VERTEX
  8
0
  6
CONTINUOUS
 10
5.021280
 20
2.481160
  0
VERTEX
  8
0
  6
CONTINUOUS
 10
5.006760
 20
2.442880
  0
VERTEX
  8
0
  6
CONTINUOUS
 10
4.363920
 20
2.066680
  0
VERTEX
  8
0
  6
CONTINUOUS
 10
4.378440
 20
2.105400
  0
SEQEND
  8
0
  0
SOLID
  8
0
 62
    15
 10
4.363920
 20
2.066680
 11
5.006760
 21
2.442880
 12
4.357760
 22
2.028840
 13
5.000600
 23
2.405040
  0
POLYLINE
  8
0
  6
CONTINUOUS
 66
     1
 40
0.000000
 41
0.000000
  0
VERTEX
  8
0
  6
CONTINUOUS
 10
4.363920
 20
2.066680
  0
VERTEX
  8
0
  6
CONTINUOUS
 10
5.006760
 20
2.442880
  0
VERTEX
  8
0
  6
CONTINUOUS
 10
5.000600
 20
2.405040
  0
VERTEX
  8
0
  6
CONTINUOUS
 10
4.357760
 20
2.028840
  0
VERTEX
  8
0
  6
CONTINUOUS
 10
4.363920
 20
2.066680
  0
SEQEND
  8
0
  0
SOLID
  8
0
 62
    15
 10
4.357760
 20
2.028840
 11
5.000600
 21
2.405040
 12
4.360400
 22
1.992320
 13
5.003240
 23
2.368520
  0
POLYLINE
  8
0
  6
CONTINUOUS
 66
     1
 40
0.000000
 41
0.000000
  0
VERTEX
  8
0
  6
CONTINUOUS
 10
4.357760
 20
2.028840
  0
VERTEX
  8
0
  6
CONTINUOUS
 10
5.000600
 20
2.405040
  0
VERTEX
  8
0
  6
CONTINUOUS
 10
5.003240
 20
2.368520
  0
VERTEX
  8
0
  6
CONTINUOUS
 10
4.360400
 20
1.992320
  0
VERTEX
  8
0
  6
CONTINUOUS
 10
4.357760
 20
2.028840
  0
SEQEND
  8
0
  0
SOLID
  8
0
 62
     7
 10
4.360400
 20
1.992320
 11
5.003240
 21
2.368520
 12
4.372720
 22
1.957560
 13
5.015560
 23
2.333760
  0
POLYLINE
  8
0
  6
CONTINUOUS
 66
     1
 40
0.000000
 41
0.000000
  0
VERTEX
  8
0
  6
CONTINUOUS
 10
4.360400
 20
1.992320
  0
VERTEX
  8
0
  6
CONTINUOUS
 10
5.003240
 20
2.368520
  0
VERTEX
  8
0
  6
CONTINUOUS
 10
5.015560
 20
2.333760
  0
VERTEX
  8
0
  6
CONTINUOUS
 10
4.372720
 20
1.957560
  0
VERTEX
  8
0
  6
CONTINUOUS
 10
4.360400
 20
1.992320
  0
SEQEND
  8
0
  0
SOLID
  8
0
 62
     7
 10
4.372720
 20
1.957560
 11
5.015560
 21
2.333760
 12
4.396480
 22
1.925000
 13
5.039320
 23
2.301200
  0
POLYLINE
  8
0
  6
CONTINUOUS
 66
     1
 40
0.000000
 41
0.000000
  0
VERTEX
  8
0
  6
CONTINUOUS
 10
4.372720
 20
1.957560
  0
VERTEX
  8
0
  6
CONTINUOUS
 10
5.015560
 20
2.333760
  0
VERTEX
  8
0
  6
CONTINUOUS
 10
5.039320
 20
2.301200
  0
VERTEX
  8
0
  6
CONTINUOUS
 10
4.396480
 20
1.925000
  0
VERTEX
  8
0
  6
CONTINUOUS
 10
4.372720
 20
1.957560
  0
SEQEND
  8
0
  0
SOLID
  8
0
 62
     7
 10
4.396480
 20
1.925000
 11
5.039320
 21
2.301200
 12
4.432120
 22
1.895520
 13
5.074520
 23
2.271280
  0
POLYLINE
  8
0
  6
CONTINUOUS
 66
     1
 40
0.000000
 41
0.000000
  0
VERTEX
  8
0
  6
CONTINUOUS
 10
4.396480
 20
1.925000
  0
VERTEX
  8
0
  6
CONTINUOUS
 10
5.039320
 20
2.301200
  0
VERTEX
  8
0
  6
CONTINUOUS
 10
5.074520
 20
2.271280
  0
VERTEX
  8
0
  6
CONTINUOUS
 10
4.432120
 20
1.895520
  0
VERTEX
  8
0
  6
CONTINUOUS
 10
4.396480
 20
1.925000
  0
SEQEND
  8
0
  0
SOLID
  8
0
 62
     7
 10
4.432120
 20
1.895520
 11
5.074520
 21
2.271280
 12
4.454560
 22
1.881880
 13
5.097400
 23
2.257640
  0
POLYLINE
  8
0
  6
CONTINUOUS
 66
     1
 40
0.000000
 41
0.000000
  0
VERTEX
  8
0
  6
CONTINUOUS
 10
4.432120
 20
1.895520
  0
VERTEX
  8
0
  6
CONTINUOUS
 10
5.074520
 20
2.271280
  0
VERTEX
  8
0
  6
CONTINUOUS
 10
5.097400
 20
2.257640
  0
VERTEX
  8
0
  6
CONTINUOUS
 10
4.454560
 20
1.881880
  0
VERTEX
  8
0
  6
CONTINUOUS
 10
4.432120
 20
1.895520
  0
SEQEND
  8
0
  0
SOLID
  8
0
 62
     7
 10
4.454560
 20
1.881880
 11
5.097400
 21
2.257640
 12
4.480520
 22
1.869120
 13
5.123360
 23
2.244880
  0
POLYLINE
  8
0
  6
CONTINUOUS
 66
     1
 40
0.000000
 41
0.000000
  0
VERTEX
  8
0
  6
CONTINUOUS
 10
4.454560
 20
1.881880
  0
VERTEX
  8
0
  6
CONTINUOUS
 10
5.097400
 20
2.257640
  0
VERTEX
  8
0
  6
CONTINUOUS
 10
5.123360
 20
2.244880
  0
VERTEX
  8
0
  6
CONTINUOUS
 10
4.480520
 20
1.869120
  0
VERTEX
  8
0
  6
CONTINUOUS
 10
4.454560
 20
1.881880
  0
SEQEND
  8
0
  0
SOLID
  8
0
 62
    15
 10
4.480520
 20
1.869120
 11
5.123360
 21
2.244880
 12
4.480520
 22
1.773640
 13
5.123360
 23
2.149840
  0
POLYLINE
  8
0
  6
CONTINUOUS
 66
     1
 40
0.000000
 41
0.000000
  0
VERTEX
  8
0
  6
CONTINUOUS
 10
4.480520
 20
1.869120
  0
VERTEX
  8
0
  6
CONTINUOUS
 10
5.123360
 20
2.244880
  0
VERTEX
  8
0
  6
CONTINUOUS
 10
5.123360
 20
2.149840
  0
VERTEX
  8
0
  6
CONTINUOUS
 10
4.480520
 20
1.773640
  0
VERTEX
  8
0
  6
CONTINUOUS
 10
4.480520
 20
1.869120
  0
SEQEND
  8
0
  0
SOLID
  8
0
 62
    15
 10
4.480520
 20
1.773640
 11
5.123360
 21
2.149840
 12
4.507800
 22
1.766160
 13
5.150640
 23
2.142360
  0
POLYLINE
  8
0
  6
CONTINUOUS
 66
     1
 40
0.000000
 41
0.000000
  0
VERTEX
  8
0
  6
CONTINUOUS
 10
4.480520
 20
1.773640
  0
VERTEX
  8
0
  6
CONTINUOUS
 10
5.123360
 20
2.149840
  0
VERTEX
  8
0
  6
CONTINUOUS
 10
5.150640
 20
2.142360
  0
VERTEX
  8
0
  6
CONTINUOUS
 10
4.507800
 20
1.766160
  0
VERTEX
  8
0
  6
CONTINUOUS
 10
4.480520
 20
1.773640
  0
SEQEND
  8
0
  0
SOLID
  8
0
 62
     7
 10
4.507800
 20
1.766160
 11
5.150640
 21
2.142360
 12
4.531120
 22
1.754720
 13
5.173960
 23
2.130480
  0
POLYLINE
  8
0
  6
CONTINUOUS
 66
     1
 40
0.000000
 41
0.000000
  0
VERTEX
  8
0
  6
CONTINUOUS
 10
4.507800
 20
1.766160
  0
VERTEX
  8
0
  6
CONTINUOUS
 10
5.150640
 20
2.142360
  0
VERTEX
  8
0
  6
CONTINUOUS
 10
5.173960
 20
2.130480
  0
VERTEX
  8
0
  6
CONTINUOUS
 10
4.531120
 20
1.754720
  0
VERTEX
  8
0
  6
CONTINUOUS
 10
4.507800
 20
1.766160
  0
SEQEND
  8
0
  0
SOLID
  8
0
 62
     7
 10
4.531120
 20
1.754720
 11
5.173960
 21
2.130480
 12
4.550920
 22
1.739760
 13
5.193320
 23
2.115960
  0
POLYLINE
  8
0
  6
CONTINUOUS
 66
     1
 40
0.000000
 41
0.000000
  0
VERTEX
  8
0
  6
CONTINUOUS
 10
4.531120
 20
1.754720
  0
VERTEX
  8
0
  6
CONTINUOUS
 10
5.173960
 20
2.130480
  0
VERTEX
  8
0
  6
CONTINUOUS
 10
5.193320
 20
2.115960
  0
VERTEX
  8
0
  6
CONTINUOUS
 10
4.550920
 20
1.739760
  0
VERTEX
  8
0
  6
CONTINUOUS
 10
4.531120
 20
1.754720
  0
SEQEND
  8
0
  0
SOLID
  8
0
 62
     7
 10
4.550920
 20
1.739760
 11
5.193320
 21
2.115960
 12
4.566320
 22
1.722160
 13
5.209160
 23
2.098360
  0
POLYLINE
  8
0
  6
CONTINUOUS
 66
     1
 40
0.000000
 41
0.000000
  0
VERTEX
  8
0
  6
CONTINUOUS
 10
4.550920
 20
1.739760
  0
VERTEX
  8
0
  6
CONTINUOUS
 10
5.193320
 20
2.115960
  0
VERTEX
  8
0
  6
CONTINUOUS
 10
5.209160
 20
2.098360
  0
VERTEX
  8
0
  6
CONTINUOUS
 10
4.566320
 20
1.722160
  0
VERTEX
  8
0
  6
CONTINUOUS
 10
4.550920
 20
1.739760
  0
SEQEND
  8
0
  0
SOLID
  8
0
 62
    15
 10
4.656080
 20
2.376000
 11
5.298920
 21
2.751760
 12
4.615160
 22
2.350480
 13
5.258000
 23
2.726240
  0
POLYLINE
  8
0
  6
CONTINUOUS
 66
     1
 40
0.000000
 41
0.000000
  0
VERTEX
  8
0
  6
CONTINUOUS
 10
4.656080
 20
2.376000
  0
VERTEX
  8
0
  6
CONTINUOUS
 10
5.298920
 20
2.751760
  0
VERTEX
  8
0
  6
CONTINUOUS
 10
5.258000
 20
2.726240
  0
VERTEX
  8
0
  6
CONTINUOUS
 10
4.615160
 20
2.350480
  0
VERTEX
  8
0
  6
CONTINUOUS
 10
4.656080
 20
2.376000
  0
SEQEND
  8
0
  0
SOLID
  8
0
 62
     7
 10
4.577760
 20
1.702360
 11
5.220600
 21
2.078560
 12
4.585240
 22
1.681240
 13
5.228080
 23
2.057000
  0
POLYLINE
  8
0
  6
CONTINUOUS
 66
     1
 40
0.000000
 41
0.000000
  0
VERTEX
  8
0
  6
CONTINUOUS
 10
4.577760
 20
1.702360
  0
VERTEX
  8
0
  6
CONTINUOUS
 10
5.220600
 20
2.078560
  0
VERTEX
  8
0
  6
CONTINUOUS
 10
5.228080
 20
2.057000
  0
VERTEX
  8
0
  6
CONTINUOUS
 10
4.585240
 20
1.681240
  0
VERTEX
  8
0
  6
CONTINUOUS
 10
4.577760
 20
1.702360
  0
SEQEND
  8
0
  0
SOLID
  8
0
 62
    15
 10
4.585240
 20
1.681240
 11
5.228080
 21
2.057000
 12
4.588760
 22
1.658800
 13
5.231600
 23
2.035000
  0
POLYLINE
  8
0
  6
CONTINUOUS
 66
     1
 40
0.000000
 41
0.000000
  0
VERTEX
  8
0
  6
CONTINUOUS
 10
4.585240
 20
1.681240
  0
VERTEX
  8
0
  6
CONTINUOUS
 10
5.228080
 20
2.057000
  0
VERTEX
  8
0
  6
CONTINUOUS
 10
5.231600
 20
2.035000
  0
VERTEX
  8
0
  6
CONTINUOUS
 10
4.588760
 20
1.658800
  0
VERTEX
  8
0
  6
CONTINUOUS
 10
4.585240
 20
1.681240
  0
SEQEND
  8
0
  0
SOLID
  8
0
 62
    15
 10
4.588760
 20
1.658800
 11
5.231600
 21
2.035000
 12
4.588320
 22
1.636360
 13
5.230720
 23
2.012560
  0
POLYLINE
  8
0
  6
CONTINUOUS
 66
     1
 40
0.000000
 41
0.000000
  0
VERTEX
  8
0
  6
CONTINUOUS
 10
4.588760
 20
1.658800
  0
VERTEX
  8
0
  6
CONTINUOUS
 10
5.231600
 20
2.035000
  0
VERTEX
  8
0
  6
CONTINUOUS
 10
5.230720
 20
2.012560
  0
VERTEX
  8
0
  6
CONTINUOUS
 10
4.588320
 20
1.636360
  0
VERTEX
  8
0
  6
CONTINUOUS
 10
4.588760
 20
1.658800
  0
SEQEND
  8
0
  0
SOLID
  8
0
 62
    15
 10
4.588320
 20
1.636360
 11
5.230720
 21
2.012560
 12
4.583480
 22
1.614360
 13
5.225880
 23
1.990120
  0
POLYLINE
  8
0
  6
CONTINUOUS
 66
     1
 40
0.000000
 41
0.000000
  0
VERTEX
  8
0
  6
CONTINUOUS
 10
4.588320
 20
1.636360
  0
VERTEX
  8
0
  6
CONTINUOUS
 10
5.230720
 20
2.012560
  0
VERTEX
  8
0
  6
CONTINUOUS
 10
5.225880
 20
1.990120
  0
VERTEX
  8
0
  6
CONTINUOUS
 10
4.583480
 20
1.614360
  0
VERTEX
  8
0
  6
CONTINUOUS
 10
4.588320
 20
1.636360
  0
SEQEND
  8
0
  0
SOLID
  8
0
 62
    15
 10
4.296600
 20
1.267200
 11
4.939440
 21
1.642960
 12
4.291320
 22
1.222760
 13
4.933720
 23
1.598520
  0
POLYLINE
  8
0
  6
CONTINUOUS
 66
     1
 40
0.000000
 41
0.000000
  0
VERTEX
  8
0
  6
CONTINUOUS
 10
4.296600
 20
1.267200
  0
VERTEX
  8
0
  6
CONTINUOUS
 10
4.939440
 20
1.642960
  0
VERTEX
  8
0
  6
CONTINUOUS
 10
4.933720
 20
1.598520
  0
VERTEX
  8
0
  6
CONTINUOUS
 10
4.291320
 20
1.222760
  0
VERTEX
  8
0
  6
CONTINUOUS
 10
4.296600
 20
1.267200
  0
SEQEND
  8
0
  0
SOLID
  8
0
 62
    15
 10
4.429480
 20
1.520200
 11
5.072320
 21
1.896400
 12
4.429480
 22
1.313400
 13
5.072320
 23
1.689160
  0
POLYLINE
  8
0
  6
CONTINUOUS
 66
     1
 40
0.000000
 41
0.000000
  0
VERTEX
  8
0
  6
CONTINUOUS
 10
4.429480
 20
1.520200
  0
VERTEX
  8
0
  6
CONTINUOUS
 10
5.072320
 20
1.896400
  0
VERTEX
  8
0
  6
CONTINUOUS
 10
5.072320
 20
1.689160
  0
VERTEX
  8
0
  6
CONTINUOUS
 10
4.429480
 20
1.313400
  0
VERTEX
  8
0
  6
CONTINUOUS
 10
4.429480
 20
1.520200
  0
SEQEND
  8
0
  0
SOLID
  8
0
 62
    15
 10
4.561040
 20
1.573440
 11
5.203440
 21
1.949200
 12
4.543440
 22
1.555840
 13
5.186280
 23
1.932040
  0
POLYLINE
  8
0
  6
CONTINUOUS
 66
     1
 40
0.000000
 41
0.000000
  0
VERTEX
  8
0
  6
CONTINUOUS
 10
4.561040
 20
1.573440
  0
VERTEX
  8
0
  6
CONTINUOUS
 10
5.203440
 20
1.949200
  0
VERTEX
  8
0
  6
CONTINUOUS
 10
5.186280
 20
1.932040
  0
VERTEX
  8
0
  6
CONTINUOUS
 10
4.543440
 20
1.555840
  0
VERTEX
  8
0
  6
CONTINUOUS
 10
4.561040
 20
1.573440
  0
SEQEND
  8
0
  0
SOLID
  8
0
 62
    15
 10
4.543440
 20
1.555840
 11
5.186280
 21
1.932040
 12
4.521440
 22
1.541320
 13
5.164280
 23
1.917080
  0
POLYLINE
  8
0
  6
CONTINUOUS
 66
     1
 40
0.000000
 41
0.000000
  0
VERTEX
  8
0
  6
CONTINUOUS
 10
4.543440
 20
1.555840
  0
VERTEX
  8
0
  6
CONTINUOUS
 10
5.186280
 20
1.932040
  0
VERTEX
  8
0
  6
CONTINUOUS
 10
5.164280
 20
1.917080
  0
VERTEX
  8
0
  6
CONTINUOUS
 10
4.521440
 20
1.541320
  0
VERTEX
  8
0
  6
CONTINUOUS
 10
4.543440
 20
1.555840
  0
SEQEND
  8
0
  0
SOLID
  8
0
 62
    15
 10
4.583480
 20
1.614360
 11
5.225880
 21
1.990120
 12
4.574240
 22
1.593240
 13
5.217080
 23
1.969000
  0
POLYLINE
  8
0
  6
CONTINUOUS
 66
     1
 40
0.000000
 41
0.000000
  0
VERTEX
  8
0
  6
CONTINUOUS
 10
4.583480
 20
1.614360
  0
VERTEX
  8
0
  6
CONTINUOUS
 10
5.225880
 20
1.990120
  0
VERTEX
  8
0
  6
CONTINUOUS
 10
5.217080
 20
1.969000
  0
VERTEX
  8
0
  6
CONTINUOUS
 10
4.574240
 20
1.593240
  0
VERTEX
  8
0
  6
CONTINUOUS
 10
4.583480
 20
1.614360
  0
SEQEND
  8
0
  0
SOLID
  8
0
 62
    15
 10
4.574240
 20
1.593240
 11
5.217080
 21
1.969000
 12
4.561040
 22
1.573440
 13
5.203440
 23
1.949200
  0
POLYLINE
  8
0
  6
CONTINUOUS
 66
     1
 40
0.000000
 41
0.000000
  0
VERTEX
  8
0
  6
CONTINUOUS
 10
4.574240
 20
1.593240
  0
VERTEX
  8
0
  6
CONTINUOUS
 10
5.217080
 20
1.969000
  0
VERTEX
  8
0
  6
CONTINUOUS
 10
5.203440
 20
1.949200
  0
VERTEX
  8
0
  6
CONTINUOUS
 10
4.561040
 20
1.573440
  0
VERTEX
  8
0
  6
CONTINUOUS
 10
4.574240
 20
1.593240
  0
SEQEND
  8
0
  0
SOLID
  8
0
 62
    15
 10
4.291320
 20
1.222760
 11
4.933720
 21
1.598520
 12
4.280760
 22
1.184480
 13
4.923600
 23
1.560240
  0
POLYLINE
  8
0
  6
CONTINUOUS
 66
     1
 40
0.000000
 41
0.000000
  0
VERTEX
  8
0
  6
CONTINUOUS
 10
4.291320
 20
1.222760
  0
VERTEX
  8
0
  6
CONTINUOUS
 10
4.933720
 20
1.598520
  0
VERTEX
  8
0
  6
CONTINUOUS
 10
4.923600
 20
1.560240
  0
VERTEX
  8
0
  6
CONTINUOUS
 10
4.280760
 20
1.184480
  0
VERTEX
  8
0
  6
CONTINUOUS
 10
4.291320
 20
1.222760
  0
SEQEND
  8
0
  0
SOLID
  8
0
 62
    15
 10
4.280760
 20
1.184480
 11
4.923600
 21
1.560240
 12
4.267120
 22
1.151920
 13
4.909960
 23
1.527680
  0
POLYLINE
  8
0
  6
CONTINUOUS
 66
     1
 40
0.000000
 41
0.000000
  0
VERTEX
  8
0
  6
CONTINUOUS
 10
4.280760
 20
1.184480
  0
VERTEX
  8
0
  6
CONTINUOUS
 10
4.923600
 20
1.560240
  0
VERTEX
  8
0
  6
CONTINUOUS
 10
4.909960
 20
1.527680
  0
VERTEX
  8
0
  6
CONTINUOUS
 10
4.267120
 20
1.151920
  0
VERTEX
  8
0
  6
CONTINUOUS
 10
4.280760
 20
1.184480
  0
SEQEND
  8
0
  0
SOLID
  8
0
 62
    15
 10
4.267120
 20
1.151920
 11
4.909960
 21
1.527680
 12
4.252160
 22
1.125520
 13
4.895000
 23
1.501280
  0
POLYLINE
  8
0
  6
CONTINUOUS
 66
     1
 40
0.000000
 41
0.000000
  0
VERTEX
  8
0
  6
CONTINUOUS
 10
4.267120
 20
1.151920
  0
VERTEX
  8
0
  6
CONTINUOUS
 10
4.909960
 20
1.527680
  0
VERTEX
  8
0
  6
CONTINUOUS
 10
4.895000
 20
1.501280
  0
VERTEX
  8
0
  6
CONTINUOUS
 10
4.252160
 20
1.125520
  0
VERTEX
  8
0
  6
CONTINUOUS
 10
4.267120
 20
1.151920
  0
SEQEND
  8
0
  0
SOLID
  8
0
 62
    15
 10
4.252160
 20
1.125520
 11
4.895000
 21
1.501280
 12
4.237200
 22
1.104840
 13
4.880040
 23
1.480600
  0
POLYLINE
  8
0
  6
CONTINUOUS
 66
     1
 40
0.000000
 41
0.000000
  0
VERTEX
  8
0
  6
CONTINUOUS
 10
4.252160
 20
1.125520
  0
VERTEX
  8
0
  6
CONTINUOUS
 10
4.895000
 20
1.501280
  0
VERTEX
  8
0
  6
CONTINUOUS
 10
4.880040
 20
1.480600
  0
VERTEX
  8
0
  6
CONTINUOUS
 10
4.237200
 20
1.104840
  0
VERTEX
  8
0
  6
CONTINUOUS
 10
4.252160
 20
1.125520
  0
SEQEND
  8
0
  0
SOLID
  8
0
 62
    15
 10
4.237200
 20
1.104840
 11
4.880040
 21
1.480600
 12
4.224000
 22
1.089880
 13
4.866840
 23
1.465640
  0
POLYLINE
  8
0
  6
CONTINUOUS
 66
     1
 40
0.000000
 41
0.000000
  0
VERTEX
  8
0
  6
CONTINUOUS
 10
4.237200
 20
1.104840
  0
VERTEX
  8
0
  6
CONTINUOUS
 10
4.880040
 20
1.480600
  0
VERTEX
  8
0
  6
CONTINUOUS
 10
4.866840
 20
1.465640
  0
VERTEX
  8
0
  6
CONTINUOUS
 10
4.224000
 20
1.089880
  0
VERTEX
  8
0
  6
CONTINUOUS
 10
4.237200
 20
1.104840
  0
SEQEND
  8
0
  0
SOLID
  8
0
 62
    15
 10
4.224000
 20
1.089880
 11
4.866840
 21
1.465640
 12
4.213880
 22
1.080200
 13
4.856720
 23
1.456400
  0
POLYLINE
  8
0
  6
CONTINUOUS
 66
     1
 40
0.000000
 41
0.000000
  0
VERTEX
  8
0
  6
CONTINUOUS
 10
4.224000
 20
1.089880
  0
VERTEX
  8
0
  6
CONTINUOUS
 10
4.866840
 20
1.465640
  0
VERTEX
  8
0
  6
CONTINUOUS
 10
4.856720
 20
1.456400
  0
VERTEX
  8
0
  6
CONTINUOUS
 10
4.213880
 20
1.080200
  0
VERTEX
  8
0
  6
CONTINUOUS
 10
4.224000
 20
1.089880
  0
SEQEND
  8
0
  0
SOLID
  8
0
 62
    15
 10
4.213880
 20
1.080200
 11
4.856720
 21
1.456400
 12
4.209040
 22
1.076240
 13
4.851880
 23
1.452440
  0
POLYLINE
  8
0
  6
CONTINUOUS
 66
     1
 40
0.000000
 41
0.000000
  0
VERTEX
  8
0
  6
CONTINUOUS
 10
4.213880
 20
1.080200
  0
VERTEX
  8
0
  6
CONTINUOUS
 10
4.856720
 20
1.456400
  0
VERTEX
  8
0
  6
CONTINUOUS
 10
4.851880
 20
1.452440
  0
VERTEX
  8
0
  6
CONTINUOUS
 10
4.209040
 20
1.076240
  0
VERTEX
  8
0
  6
CONTINUOUS
 10
4.213880
 20
1.080200
  0
SEQEND
  8
0
  0
SOLID
  8
0
 62
    15
 10
3.954720
 20
2.956360
 11
4.597560
 21
3.332120
 12
4.697440
 22
2.956360
 13
5.340280
 23
3.332120
  0
POLYLINE
  8
0
  6
CONTINUOUS
 66
     1
 40
0.000000
 41
0.000000
  0
VERTEX
  8
0
  6
CONTINUOUS
 10
3.954720
 20
2.956360
  0
VERTEX
  8
0
  6
CONTINUOUS
 10
4.597560
 20
3.332120
  0
VERTEX
  8
0
  6
CONTINUOUS
 10
5.340280
 20
3.332120
  0
VERTEX
  8
0
  6
CONTINUOUS
 10
4.697440
 20
2.956360
  0
VERTEX
  8
0
  6
CONTINUOUS
 10
3.954720
 20
2.956360
  0
SEQEND
  8
0
  0
SOLID
  8
0
 62
    15
 10
4.697440
 20
2.956360
 11
5.340280
 21
3.332120
 12
4.697440
 22
2.396680
 13
5.340280
 23
2.772880
  0
POLYLINE
  8
0
  6
CONTINUOUS
 66
     1
 40
0.000000
 41
0.000000
  0
VERTEX
  8
0
  6
CONTINUOUS
 10
4.697440
 20
2.956360
  0
VERTEX
  8
0
  6
CONTINUOUS
 10
5.340280
 20
3.332120
  0
VERTEX
  8
0
  6
CONTINUOUS
 10
5.340280
 20
2.772880
  0
VERTEX
  8
0
  6
CONTINUOUS
 10
4.697440
 20
2.396680
  0
VERTEX
  8
0
  6
CONTINUOUS
 10
4.697440
 20
2.956360
  0
SEQEND
  8
0
  0
POLYLINE
  8
0
  6
CONTINUOUS
 66
     1
 40
0.000000
 41
0.000000
  0
VERTEX
  8
0
  6
CONTINUOUS
 10
4.696120
 20
2.397560
  0
VERTEX
  8
0
  6
CONTINUOUS
 10
4.656080
 20
2.376000
  0
VERTEX
  8
0
  6
CONTINUOUS
 10
4.615160
 20
2.350480
  0
VERTEX
  8
0
  6
CONTINUOUS
 10
4.533320
 20
2.289760
  0
VERTEX
  8
0
  6
CONTINUOUS
 10
4.494600
 20
2.255440
  0
VERTEX
  8
0
  6
CONTINUOUS
 10
4.458520
 20
2.219800
  0
VERTEX
  8
0
  6
CONTINUOUS
 10
4.426840
 20
2.181960
  0
VERTEX
  8
0
  6
CONTINUOUS
 10
4.399560
 20
2.143680
  0
VERTEX
  8
0
  6
CONTINUOUS
 10
4.378440
 20
2.105400
  0
VERTEX
  8
0
  6
CONTINUOUS
 10
4.363920
 20
2.066680
  0
VERTEX
  8
0
  6
CONTINUOUS
 10
4.357760
 20
2.028840
  0
VERTEX
  8
0
  6
CONTINUOUS
 10
4.360400
 20
1.992320
  0
VERTEX
  8
0
  6
CONTINUOUS
 10
4.372720
 20
1.957560
  0
VERTEX
  8
0
  6
CONTINUOUS
 10
4.396480
 20
1.925000
  0
VERTEX
  8
0
  6
CONTINUOUS
 10
4.432120
 20
1.895520
  0
VERTEX
  8
0
  6
CONTINUOUS
 10
4.454560
 20
1.881880
  0
VERTEX
  8
0
  6
CONTINUOUS
 10
4.480520
 20
1.869120
  0
VERTEX
  8
0
  6
CONTINUOUS
 10
4.480520
 20
1.773640
  0
VERTEX
  8
0
  6
CONTINUOUS
 10
4.507800
 20
1.766160
  0
VERTEX
  8
0
  6
CONTINUOUS
 10
4.531120
 20
1.754720
  0
VERTEX
  8
0
  6
CONTINUOUS
 10
4.550920
 20
1.739760
  0
VERTEX
  8
0
  6
CONTINUOUS
 10
4.566320
 20
1.722160
  0
VERTEX
  8
0
  6
CONTINUOUS
 10
4.577760
 20
1.702360
  0
VERTEX
  8
0
  6
CONTINUOUS
 10
4.585240
 20
1.681240
  0
VERTEX
  8
0
  6
CONTINUOUS
 10
4.588760
 20
1.658800
  0
VERTEX
  8
0
  6
CONTINUOUS
 10
4.588320
 20
1.636360
  0
VERTEX
  8
0
  6
CONTINUOUS
 10
4.583480
 20
1.614360
  0
VERTEX
  8
0
  6
CONTINUOUS
 10
4.574240
 20
1.593240
  0
VERTEX
  8
0
  6
CONTINUOUS
 10
4.561040
 20
1.573440
  0
VERTEX
  8
0
  6
CONTINUOUS
 10
4.543440
 20
1.555840
  0
VERTEX
  8
0
  6
CONTINUOUS
 10
4.521440
 20
1.541320
  0
VERTEX
  8
0
  6
CONTINUOUS
 10
4.495480
 20
1.530320
  0
VERTEX
  8
0
  6
CONTINUOUS
 10
4.464680
 20
1.522840
  0
VERTEX
  8
0
  6
CONTINUOUS
 10
4.429480
 20
1.520200
  0
VERTEX
  8
0
  6
CONTINUOUS
 10
4.429480
 20
1.313400
  0
VERTEX
  8
0
  6
CONTINUOUS
 10
4.296600
 20
1.267200
  0
VERTEX
  8
0
  6
CONTINUOUS
 10
4.291320
 20
1.222760
  0
VERTEX
  8
0
  6
CONTINUOUS
 10
4.280760
 20
1.184480
  0
VERTEX
  8
0
  6
CONTINUOUS
 10
4.267120
 20
1.151920
  0
VERTEX
  8
0
  6
CONTINUOUS
 10
4.252160
 20
1.125520
  0
VERTEX
  8
0
  6
CONTINUOUS
 10
4.237200
 20
1.104840
  0
VERTEX
  8
0
  6
CONTINUOUS
 10
4.224000
 20
1.089880
  0
VERTEX
  8
0
  6
CONTINUOUS
 10
4.213880
 20
1.080200
  0
VERTEX
  8
0
  6
CONTINUOUS
 10
4.209040
 20
1.076240
  0
VERTEX
  8
0
  6
CONTINUOUS
 10
3.954720
 20
1.076240
  0
VERTEX
  8
0
  6
CONTINUOUS
 10
3.954720
 20
2.956360
  0
VERTEX
  8
0
  6
CONTINUOUS
 10
4.697440
 20
2.956360
  0
VERTEX
  8
0
  6
CONTINUOUS
 10
4.697440
 20
2.396680
  0
VERTEX
  8
0
  6
CONTINUOUS
 10
4.696120
 20
2.397560
  0
SEQEND
  8
0
  0
TEXT
  8
0
 10
4.353360
 20
0.873400
 40
0.138180
  1
BA  632
 41
1.000000
  7
SN0
 71
     0
 72
     5
 11
4.943298
 21
0.873400
  0
TEXT
  8
0
 10
4.197600
 20
0.682000
 40
0.138180
  1
3/4" x 1-7/8"
 41
1.000000
  7
SN0
 71
     0
 72
     5
 11
5.098002
 21
0.682000
  0
ENDSEC
  0
EOF
