  0
SECTION
  2
HEADER
  9
$ACADVER
  1
AC1006
  9
$EXTMIN
 10
3.808200
 20
0.484880
  9
$EXTMAX
 10
8.008000
 20
3.705240
  9
$LTSCALE
 40
0.044000
  9
$PDMODE
 70
    35
  9
$PDSIZE
 40
0.035200
  0
ENDSEC
  0
SECTION
  2
TABLES
  0
TABLE
  2
LTYPE
 70
     9
  0
LTYPE
  2
CONTINUOUS
 70
    64
  3
Solid line
 72
    65
 73
     0
 40
0.000000
  0
LTYPE
  2
DASHED
 70
    64
  3
__ __ __ __ __ __ __ __ __ __ __ __ __ __ __
 72
    65
 73
     2
 40
0.000330
 49
0.000220
 49
-0.000110
  0
LTYPE
  2
HIDDEN
 70
    64
  3
 _ _ _ _ _ _ _ _ _ _ _ _ _ _ _ _ _ _ _ _ _ _
 72
    65
 73
     2
 40
0.000165
 49
0.000110
 49
-0.000055
  0
LTYPE
  2
CENTER
 70
    64
  3
____ _ ____ _ ____ _ ____ _ ____ _ ____ _ ____
 72
    65
 73
     4
 40
0.000880
 49
0.000550
 49
-0.000110
 49
0.000110
 49
-0.000110
  0
LTYPE
  2
PHANTOM
 70
    64
  3
_____ _ _ _____ _ _ _____ _ _ _____ _ _ ____
 72
    65
 73
     6
 40
0.001100
 49
0.000550
 49
-0.000110
 49
0.000110
 49
-0.000110
 49
0.000110
 49
-0.000110
  0
LTYPE
  2
DOT
 70
    64
  3
...............................................
 72
    65
 73
     2
 40
0.000110
 49
0.000000
 49
-0.000110
  0
LTYPE
  2
DASHDOT
 70
    64
  3
__ . __ . __ . __ . __ . __ . __ . __ . __ . __
 72
    65
 73
     4
 40
0.000440
 49
0.000220
 49
-0.000110
 49
0.000000
 49
-0.000110
  0
LTYPE
  2
BORDER
 70
    64
  3
__ __ . __ __ . __ __ . __ __ . __ __ . __ __
 72
    65
 73
     6
 40
0.000770
 49
0.000220
 49
-0.000110
 49
0.000220
 49
-0.000110
 49
0.000000
 49
-0.000110
  0
LTYPE
  2
DIVIDE
 70
    64
  3
__ . . __ . . __ . . __ . . __ . . __ . . __
 72
    65
 73
     6
 40
0.000550
 49
0.000220
 49
-0.000110
 49
0.000000
 49
-0.000110
 49
0.000000
 49
-0.000110
  0
LTYPE
  2
DOTDOT
 70
    64
  3
 . .  . .  . .  . .  . .  . . 
 72
    65
 73
     5
 40
0.000242
 49
-0.000110
 49
0.000000
 49
-0.000110
 49
0.000000
 49
-0.000110
  0
ENDTAB
  0
TABLE
  2
STYLE
 70
     2
  0
STYLE
 70
     0
  2
SN0
 40
0.000000
 41
0.000440
 50
0.000000
 71
     0
 42
0.000000
  3
ROMAND
  0
STYLE
 70
    68
  2
SV0
 40
0.000000
 41
0.000440
 50
0.000000
 71
     0
 42
0.000000
  3
ROMAND
  0
ENDTAB
  0
TABLE
  2
LAYER
 70
     3
  0
LAYER
  2
FOREGROUND
 70
    64
 62
     7
  6
CONTINUOUS
  0
LAYER
  2
BACKGROUND
 70
    65
 62
    -7
  6
CONTINUOUS
  0
LAYER
  2
0
 70
    64
 62
     7
  6
CONTINUOUS
  0
ENDTAB
  0
ENDSEC
  0
SECTION
  2
ENTITIES
  0
POLYLINE
  8
FOREGROUND
  6
CONTINUOUS
 66
     1
 40
0.000000
 41
0.000000
  0
VERTEX
  8
FOREGROUND
  6
CONTINUOUS
 10
0.000000
 20
4.190120
  0
VERTEX
  8
FOREGROUND
  6
CONTINUOUS
 10
8.499920
 20
4.190120
  0
VERTEX
  8
FOREGROUND
  6
CONTINUOUS
 10
8.499920
 20
-6.809880
  0
VERTEX
  8
FOREGROUND
  6
CONTINUOUS
 10
0.000000
 20
-6.809880
  0
VERTEX
  8
FOREGROUND
  6
CONTINUOUS
 10
0.000000
 20
4.190120
  0
SEQEND
  8
0
  0
POLYLINE
  8
FOREGROUND
  6
CONTINUOUS
 66
     1
 40
0.000000
 41
0.000000
  0
VERTEX
  8
FOREGROUND
  6
CONTINUOUS
 10
0.000000
 20
4.190120
  0
VERTEX
  8
FOREGROUND
  6
CONTINUOUS
 10
8.499920
 20
4.190120
  0
VERTEX
  8
FOREGROUND
  6
CONTINUOUS
 10
8.499920
 20
-6.809880
  0
VERTEX
  8
FOREGROUND
  6
CONTINUOUS
 10
0.000000
 20
-6.809880
  0
VERTEX
  8
FOREGROUND
  6
CONTINUOUS
 10
0.000000
 20
4.190120
  0
SEQEND
  8
0
  0
POLYLINE
  8
0
  6
CONTINUOUS
 66
     1
 40
0.014080
 41
0.014080
  0
VERTEX
  8
0
  6
CONTINUOUS
 10
7.944200
 20
2.979240
  0
VERTEX
  8
0
  6
CONTINUOUS
 10
7.944200
 20
2.948000
  0
VERTEX
  8
0
  6
CONTINUOUS
 10
3.816120
 20
2.948000
  0
VERTEX
  8
0
  6
CONTINUOUS
 10
3.816120
 20
3.142480
  0
VERTEX
  8
0
  6
CONTINUOUS
 10
3.853520
 20
3.142480
  0
VERTEX
  8
0
  6
CONTINUOUS
 10
3.886520
 20
3.147320
  0
VERTEX
  8
0
  6
CONTINUOUS
 10
3.901040
 20
3.151280
  0
VERTEX
  8
0
  6
CONTINUOUS
 10
3.927440
 20
3.164040
  0
VERTEX
  8
0
  6
CONTINUOUS
 10
3.949880
 20
3.182960
  0
VERTEX
  8
0
  6
CONTINUOUS
 10
3.959560
 20
3.194840
  0
VERTEX
  8
0
  6
CONTINUOUS
 10
3.976720
 20
3.224320
  0
VERTEX
  8
0
  6
CONTINUOUS
 10
3.990360
 20
3.261280
  0
VERTEX
  8
0
  6
CONTINUOUS
 10
4.001360
 20
3.307040
  0
VERTEX
  8
0
  6
CONTINUOUS
 10
4.072200
 20
3.307040
  0
VERTEX
  8
0
  6
CONTINUOUS
 10
4.074400
 20
3.309680
  0
VERTEX
  8
0
  6
CONTINUOUS
 10
4.089360
 20
3.660360
  0
VERTEX
  8
0
  6
CONTINUOUS
 10
4.091120
 20
3.671800
  0
VERTEX
  8
0
  6
CONTINUOUS
 10
4.096840
 20
3.684120
  0
VERTEX
  8
0
  6
CONTINUOUS
 10
4.106080
 20
3.692040
  0
VERTEX
  8
0
  6
CONTINUOUS
 10
4.114880
 20
3.695560
  0
VERTEX
  8
0
  6
CONTINUOUS
 10
4.132920
 20
3.697760
  0
VERTEX
  8
0
  6
CONTINUOUS
 10
4.453680
 20
3.694680
  0
VERTEX
  8
0
  6
CONTINUOUS
 10
4.483160
 20
3.659920
  0
VERTEX
  8
0
  6
CONTINUOUS
 10
4.563680
 20
3.659920
  0
VERTEX
  8
0
  6
CONTINUOUS
 10
4.577760
 20
3.625160
  0
VERTEX
  8
0
  6
CONTINUOUS
 10
4.595360
 20
3.594360
  0
VERTEX
  8
0
  6
CONTINUOUS
 10
4.616480
 20
3.567080
  0
VERTEX
  8
0
  6
CONTINUOUS
 10
4.653440
 20
3.532320
  0
VERTEX
  8
0
  6
CONTINUOUS
 10
4.681600
 20
3.512960
  0
VERTEX
  8
0
  6
CONTINUOUS
 10
4.726920
 20
3.489200
  0
VERTEX
  8
0
  6
CONTINUOUS
 10
4.759480
 20
3.476440
  0
VERTEX
  8
0
  6
CONTINUOUS
 10
4.827680
 20
3.457520
  0
VERTEX
  8
0
  6
CONTINUOUS
 10
4.897640
 20
3.445640
  0
VERTEX
  8
0
  6
CONTINUOUS
 10
4.932840
 20
3.441240
  0
VERTEX
  8
0
  6
CONTINUOUS
 10
5.033600
 20
3.434640
  0
VERTEX
  8
0
  6
CONTINUOUS
 10
5.039760
 20
3.462360
  0
VERTEX
  8
0
  6
CONTINUOUS
 10
5.048560
 20
3.485680
  0
VERTEX
  8
0
  6
CONTINUOUS
 10
5.059560
 20
3.505040
  0
VERTEX
  8
0
  6
CONTINUOUS
 10
5.072320
 20
3.520000
  0
VERTEX
  8
0
  6
CONTINUOUS
 10
5.086840
 20
3.531000
  0
VERTEX
  8
0
  6
CONTINUOUS
 10
5.102680
 20
3.538480
  0
VERTEX
  8
0
  6
CONTINUOUS
 10
5.118520
 20
3.542000
  0
VERTEX
  8
0
  6
CONTINUOUS
 10
5.135240
 20
3.542000
  0
VERTEX
  8
0
  6
CONTINUOUS
 10
5.151520
 20
3.538480
  0
VERTEX
  8
0
  6
CONTINUOUS
 10
5.174400
 20
3.527480
  0
VERTEX
  8
0
  6
CONTINUOUS
 10
5.194640
 20
3.509440
  0
VERTEX
  8
0
  6
CONTINUOUS
 10
5.210480
 20
3.485240
  0
VERTEX
  8
0
  6
CONTINUOUS
 10
5.218400
 20
3.465880
  0
VERTEX
  8
0
  6
CONTINUOUS
 10
5.222800
 20
3.443880
  0
VERTEX
  8
0
  6
CONTINUOUS
 10
5.224120
 20
3.432000
  0
VERTEX
  8
0
  6
CONTINUOUS
 10
5.426520
 20
3.432000
  0
VERTEX
  8
0
  6
CONTINUOUS
 10
5.444120
 20
3.337840
  0
VERTEX
  8
0
  6
CONTINUOUS
 10
6.996880
 20
3.337840
  0
VERTEX
  8
0
  6
CONTINUOUS
 10
7.000840
 20
3.365120
  0
VERTEX
  8
0
  6
CONTINUOUS
 10
7.007440
 20
3.388880
  0
VERTEX
  8
0
  6
CONTINUOUS
 10
7.017120
 20
3.409560
  0
VERTEX
  8
0
  6
CONTINUOUS
 10
7.035600
 20
3.434640
  0
VERTEX
  8
0
  6
CONTINUOUS
 10
7.049680
 20
3.446960
  0
VERTEX
  8
0
  6
CONTINUOUS
 10
7.065520
 20
3.455320
  0
VERTEX
  8
0
  6
CONTINUOUS
 10
7.081800
 20
3.460160
  0
VERTEX
  8
0
  6
CONTINUOUS
 10
7.098520
 20
3.461480
  0
VERTEX
  8
0
  6
CONTINUOUS
 10
7.115240
 20
3.458400
  0
VERTEX
  8
0
  6
CONTINUOUS
 10
7.131080
 20
3.451800
  0
VERTEX
  8
0
  6
CONTINUOUS
 10
7.146480
 20
3.440360
  0
VERTEX
  8
0
  6
CONTINUOUS
 10
7.160560
 20
3.424960
  0
VERTEX
  8
0
  6
CONTINUOUS
 10
7.172440
 20
3.405600
  0
VERTEX
  8
0
  6
CONTINUOUS
 10
7.182560
 20
3.380960
  0
VERTEX
  8
0
  6
CONTINUOUS
 10
7.189600
 20
3.352360
  0
VERTEX
  8
0
  6
CONTINUOUS
 10
7.192240
 20
3.336080
  0
VERTEX
  8
0
  6
CONTINUOUS
 10
7.384520
 20
3.336080
  0
VERTEX
  8
0
  6
CONTINUOUS
 10
7.418840
 20
3.252480
  0
VERTEX
  8
0
  6
CONTINUOUS
 10
7.830240
 20
3.245000
  0
VERTEX
  8
0
  6
CONTINUOUS
 10
7.836840
 20
3.221680
  0
VERTEX
  8
0
  6
CONTINUOUS
 10
7.846960
 20
3.198800
  0
VERTEX
  8
0
  6
CONTINUOUS
 10
7.868080
 20
3.166240
  0
VERTEX
  8
0
  6
CONTINUOUS
 10
7.893160
 20
3.138960
  0
VERTEX
  8
0
  6
CONTINUOUS
 10
7.919560
 20
3.118280
  0
VERTEX
  8
0
  6
CONTINUOUS
 10
7.936280
 20
3.109480
  0
VERTEX
  8
0
  6
CONTINUOUS
 10
7.944200
 20
3.106840
  0
VERTEX
  8
0
  6
CONTINUOUS
 10
7.944200
 20
2.966480
  0
VERTEX
  8
0
  6
CONTINUOUS
 10
7.944200
 20
2.979240
  0
SEQEND
  8
0
  0
SOLID
  8
0
 62
    15
 10
5.149760
 20
1.533400
 11
5.150640
 21
2.292400
 12
5.165160
 22
1.540440
 13
5.166040
 23
2.299880
  0
POLYLINE
  8
0
  6
CONTINUOUS
 66
     1
 40
0.000000
 41
0.000000
  0
VERTEX
  8
0
  6
CONTINUOUS
 10
5.149760
 20
1.533400
  0
VERTEX
  8
0
  6
CONTINUOUS
 10
5.150640
 20
2.292400
  0
VERTEX
  8
0
  6
CONTINUOUS
 10
5.166040
 20
2.299880
  0
VERTEX
  8
0
  6
CONTINUOUS
 10
5.165160
 20
1.540440
  0
VERTEX
  8
0
  6
CONTINUOUS
 10
5.149760
 20
1.533400
  0
SEQEND
  8
0
  0
SOLID
  8
0
 62
    15
 10
3.878600
 20
1.144880
 11
3.879480
 21
1.903880
 12
3.916000
 22
1.144880
 13
3.916880
 23
1.904320
  0
POLYLINE
  8
0
  6
CONTINUOUS
 66
     1
 40
0.000000
 41
0.000000
  0
VERTEX
  8
0
  6
CONTINUOUS
 10
3.878600
 20
1.144880
  0
VERTEX
  8
0
  6
CONTINUOUS
 10
3.879480
 20
1.903880
  0
VERTEX
  8
0
  6
CONTINUOUS
 10
3.916880
 20
1.904320
  0
VERTEX
  8
0
  6
CONTINUOUS
 10
3.916000
 20
1.144880
  0
VERTEX
  8
0
  6
CONTINUOUS
 10
3.878600
 20
1.144880
  0
SEQEND
  8
0
  0
SOLID
  8
0
 62
    15
 10
3.916000
 20
1.144880
 11
3.916880
 21
1.904320
 12
3.949000
 22
1.149720
 13
3.949880
 23
1.908720
  0
POLYLINE
  8
0
  6
CONTINUOUS
 66
     1
 40
0.000000
 41
0.000000
  0
VERTEX
  8
0
  6
CONTINUOUS
 10
3.916000
 20
1.144880
  0
VERTEX
  8
0
  6
CONTINUOUS
 10
3.916880
 20
1.904320
  0
VERTEX
  8
0
  6
CONTINUOUS
 10
3.949880
 20
1.908720
  0
VERTEX
  8
0
  6
CONTINUOUS
 10
3.949000
 20
1.149720
  0
VERTEX
  8
0
  6
CONTINUOUS
 10
3.916000
 20
1.144880
  0
SEQEND
  8
0
  0
SOLID
  8
0
 62
    15
 10
3.949000
 20
1.149720
 11
3.949880
 21
1.908720
 12
3.977600
 22
1.159840
 13
3.978480
 23
1.918840
  0
POLYLINE
  8
0
  6
CONTINUOUS
 66
     1
 40
0.000000
 41
0.000000
  0
VERTEX
  8
0
  6
CONTINUOUS
 10
3.949000
 20
1.149720
  0
VERTEX
  8
0
  6
CONTINUOUS
 10
3.949880
 20
1.908720
  0
VERTEX
  8
0
  6
CONTINUOUS
 10
3.978480
 20
1.918840
  0
VERTEX
  8
0
  6
CONTINUOUS
 10
3.977600
 20
1.159840
  0
VERTEX
  8
0
  6
CONTINUOUS
 10
3.949000
 20
1.149720
  0
SEQEND
  8
0
  0
SOLID
  8
0
 62
    15
 10
3.977600
 20
1.159840
 11
3.978480
 21
1.918840
 12
4.001800
 22
1.175240
 13
4.002680
 23
1.934680
  0
POLYLINE
  8
0
  6
CONTINUOUS
 66
     1
 40
0.000000
 41
0.000000
  0
VERTEX
  8
0
  6
CONTINUOUS
 10
3.977600
 20
1.159840
  0
VERTEX
  8
0
  6
CONTINUOUS
 10
3.978480
 20
1.918840
  0
VERTEX
  8
0
  6
CONTINUOUS
 10
4.002680
 20
1.934680
  0
VERTEX
  8
0
  6
CONTINUOUS
 10
4.001800
 20
1.175240
  0
VERTEX
  8
0
  6
CONTINUOUS
 10
3.977600
 20
1.159840
  0
SEQEND
  8
0
  0
SOLID
  8
0
 62
    15
 10
4.001800
 20
1.175240
 11
4.002680
 21
1.934680
 12
4.022040
 22
1.197680
 13
4.022920
 23
1.956680
  0
POLYLINE
  8
0
  6
CONTINUOUS
 66
     1
 40
0.000000
 41
0.000000
  0
VERTEX
  8
0
  6
CONTINUOUS
 10
4.001800
 20
1.175240
  0
VERTEX
  8
0
  6
CONTINUOUS
 10
4.002680
 20
1.934680
  0
VERTEX
  8
0
  6
CONTINUOUS
 10
4.022920
 20
1.956680
  0
VERTEX
  8
0
  6
CONTINUOUS
 10
4.022040
 20
1.197680
  0
VERTEX
  8
0
  6
CONTINUOUS
 10
4.001800
 20
1.175240
  0
SEQEND
  8
0
  0
SOLID
  8
0
 62
    15
 10
4.022040
 20
1.197680
 11
4.022920
 21
1.956680
 12
4.039200
 22
1.226720
 13
4.040080
 23
1.986160
  0
POLYLINE
  8
0
  6
CONTINUOUS
 66
     1
 40
0.000000
 41
0.000000
  0
VERTEX
  8
0
  6
CONTINUOUS
 10
4.022040
 20
1.197680
  0
VERTEX
  8
0
  6
CONTINUOUS
 10
4.022920
 20
1.956680
  0
VERTEX
  8
0
  6
CONTINUOUS
 10
4.040080
 20
1.986160
  0
VERTEX
  8
0
  6
CONTINUOUS
 10
4.039200
 20
1.226720
  0
VERTEX
  8
0
  6
CONTINUOUS
 10
4.022040
 20
1.197680
  0
SEQEND
  8
0
  0
SOLID
  8
0
 62
    15
 10
4.039200
 20
1.226720
 11
4.040080
 21
1.986160
 12
4.052840
 22
1.264120
 13
4.053720
 23
2.023120
  0
POLYLINE
  8
0
  6
CONTINUOUS
 66
     1
 40
0.000000
 41
0.000000
  0
VERTEX
  8
0
  6
CONTINUOUS
 10
4.039200
 20
1.226720
  0
VERTEX
  8
0
  6
CONTINUOUS
 10
4.040080
 20
1.986160
  0
VERTEX
  8
0
  6
CONTINUOUS
 10
4.053720
 20
2.023120
  0
VERTEX
  8
0
  6
CONTINUOUS
 10
4.052840
 20
1.264120
  0
VERTEX
  8
0
  6
CONTINUOUS
 10
4.039200
 20
1.226720
  0
SEQEND
  8
0
  0
SOLID
  8
0
 62
    15
 10
4.052840
 20
1.264120
 11
4.053720
 21
2.023120
 12
4.064280
 22
1.309440
 13
4.065160
 23
2.068880
  0
POLYLINE
  8
0
  6
CONTINUOUS
 66
     1
 40
0.000000
 41
0.000000
  0
VERTEX
  8
0
  6
CONTINUOUS
 10
4.052840
 20
1.264120
  0
VERTEX
  8
0
  6
CONTINUOUS
 10
4.053720
 20
2.023120
  0
VERTEX
  8
0
  6
CONTINUOUS
 10
4.065160
 20
2.068880
  0
VERTEX
  8
0
  6
CONTINUOUS
 10
4.064280
 20
1.309440
  0
VERTEX
  8
0
  6
CONTINUOUS
 10
4.052840
 20
1.264120
  0
SEQEND
  8
0
  0
SOLID
  8
0
 62
    15
 10
4.064280
 20
1.309440
 11
4.065160
 21
2.068880
 12
4.134680
 22
1.309440
 13
4.135560
 23
2.068880
  0
POLYLINE
  8
0
  6
CONTINUOUS
 66
     1
 40
0.000000
 41
0.000000
  0
VERTEX
  8
0
  6
CONTINUOUS
 10
4.064280
 20
1.309440
  0
VERTEX
  8
0
  6
CONTINUOUS
 10
4.065160
 20
2.068880
  0
VERTEX
  8
0
  6
CONTINUOUS
 10
4.135560
 20
2.068880
  0
VERTEX
  8
0
  6
CONTINUOUS
 10
4.134680
 20
1.309440
  0
VERTEX
  8
0
  6
CONTINUOUS
 10
4.064280
 20
1.309440
  0
SEQEND
  8
0
  0
SOLID
  8
0
 62
    15
 10
4.134680
 20
1.309440
 11
4.135560
 21
2.068880
 12
4.137320
 22
1.312080
 13
4.138200
 23
2.071520
  0
POLYLINE
  8
0
  6
CONTINUOUS
 66
     1
 40
0.000000
 41
0.000000
  0
VERTEX
  8
0
  6
CONTINUOUS
 10
4.134680
 20
1.309440
  0
VERTEX
  8
0
  6
CONTINUOUS
 10
4.135560
 20
2.068880
  0
VERTEX
  8
0
  6
CONTINUOUS
 10
4.138200
 20
2.071520
  0
VERTEX
  8
0
  6
CONTINUOUS
 10
4.137320
 20
1.312080
  0
VERTEX
  8
0
  6
CONTINUOUS
 10
4.134680
 20
1.309440
  0
SEQEND
  8
0
  0
SOLID
  8
0
 62
    15
 10
4.137320
 20
1.312080
 11
4.138200
 21
2.071520
 12
4.151840
 22
1.649120
 13
4.152720
 23
2.408560
  0
POLYLINE
  8
0
  6
CONTINUOUS
 66
     1
 40
0.000000
 41
0.000000
  0
VERTEX
  8
0
  6
CONTINUOUS
 10
4.137320
 20
1.312080
  0
VERTEX
  8
0
  6
CONTINUOUS
 10
4.138200
 20
2.071520
  0
VERTEX
  8
0
  6
CONTINUOUS
 10
4.152720
 20
2.408560
  0
VERTEX
  8
0
  6
CONTINUOUS
 10
4.151840
 20
1.649120
  0
VERTEX
  8
0
  6
CONTINUOUS
 10
4.137320
 20
1.312080
  0
SEQEND
  8
0
  0
SOLID
  8
0
 62
    15
 10
4.151840
 20
1.649120
 11
4.152720
 21
2.408560
 12
4.154040
 22
1.674200
 13
4.154920
 23
2.433200
  0
POLYLINE
  8
0
  6
CONTINUOUS
 66
     1
 40
0.000000
 41
0.000000
  0
VERTEX
  8
0
  6
CONTINUOUS
 10
4.151840
 20
1.649120
  0
VERTEX
  8
0
  6
CONTINUOUS
 10
4.152720
 20
2.408560
  0
VERTEX
  8
0
  6
CONTINUOUS
 10
4.154920
 20
2.433200
  0
VERTEX
  8
0
  6
CONTINUOUS
 10
4.154040
 20
1.674200
  0
VERTEX
  8
0
  6
CONTINUOUS
 10
4.151840
 20
1.649120
  0
SEQEND
  8
0
  0
SOLID
  8
0
 62
    15
 10
4.154040
 20
1.674200
 11
4.154920
 21
2.433200
 12
4.161960
 22
1.689600
 13
4.162840
 23
2.449040
  0
POLYLINE
  8
0
  6
CONTINUOUS
 66
     1
 40
0.000000
 41
0.000000
  0
VERTEX
  8
0
  6
CONTINUOUS
 10
4.154040
 20
1.674200
  0
VERTEX
  8
0
  6
CONTINUOUS
 10
4.154920
 20
2.433200
  0
VERTEX
  8
0
  6
CONTINUOUS
 10
4.162840
 20
2.449040
  0
VERTEX
  8
0
  6
CONTINUOUS
 10
4.161960
 20
1.689600
  0
VERTEX
  8
0
  6
CONTINUOUS
 10
4.154040
 20
1.674200
  0
SEQEND
  8
0
  0
SOLID
  8
0
 62
    15
 10
4.161960
 20
1.689600
 11
4.162840
 21
2.449040
 12
4.177800
 22
1.697960
 13
4.178680
 23
2.456960
  0
POLYLINE
  8
0
  6
CONTINUOUS
 66
     1
 40
0.000000
 41
0.000000
  0
VERTEX
  8
0
  6
CONTINUOUS
 10
4.161960
 20
1.689600
  0
VERTEX
  8
0
  6
CONTINUOUS
 10
4.162840
 20
2.449040
  0
VERTEX
  8
0
  6
CONTINUOUS
 10
4.178680
 20
2.456960
  0
VERTEX
  8
0
  6
CONTINUOUS
 10
4.177800
 20
1.697960
  0
VERTEX
  8
0
  6
CONTINUOUS
 10
4.161960
 20
1.689600
  0
SEQEND
  8
0
  0
SOLID
  8
0
 62
    15
 10
4.177800
 20
1.697960
 11
4.178680
 21
2.456960
 12
4.202440
 22
1.700160
 13
4.203320
 23
2.459160
  0
POLYLINE
  8
0
  6
CONTINUOUS
 66
     1
 40
0.000000
 41
0.000000
  0
VERTEX
  8
0
  6
CONTINUOUS
 10
4.177800
 20
1.697960
  0
VERTEX
  8
0
  6
CONTINUOUS
 10
4.178680
 20
2.456960
  0
VERTEX
  8
0
  6
CONTINUOUS
 10
4.203320
 20
2.459160
  0
VERTEX
  8
0
  6
CONTINUOUS
 10
4.202440
 20
1.700160
  0
VERTEX
  8
0
  6
CONTINUOUS
 10
4.177800
 20
1.697960
  0
SEQEND
  8
0
  0
SOLID
  8
0
 62
    15
 10
4.202440
 20
1.700160
 11
4.203320
 21
2.459160
 12
4.516160
 22
1.697080
 13
4.517040
 23
2.456080
  0
POLYLINE
  8
0
  6
CONTINUOUS
 66
     1
 40
0.000000
 41
0.000000
  0
VERTEX
  8
0
  6
CONTINUOUS
 10
4.202440
 20
1.700160
  0
VERTEX
  8
0
  6
CONTINUOUS
 10
4.203320
 20
2.459160
  0
VERTEX
  8
0
  6
CONTINUOUS
 10
4.517040
 20
2.456080
  0
VERTEX
  8
0
  6
CONTINUOUS
 10
4.516160
 20
1.697080
  0
VERTEX
  8
0
  6
CONTINUOUS
 10
4.202440
 20
1.700160
  0
SEQEND
  8
0
  0
SOLID
  8
0
 62
    15
 10
4.516160
 20
1.697080
 11
4.517040
 21
2.456080
 12
4.545640
 22
1.662320
 13
4.546520
 23
2.421760
  0
POLYLINE
  8
0
  6
CONTINUOUS
 66
     1
 40
0.000000
 41
0.000000
  0
VERTEX
  8
0
  6
CONTINUOUS
 10
4.516160
 20
1.697080
  0
VERTEX
  8
0
  6
CONTINUOUS
 10
4.517040
 20
2.456080
  0
VERTEX
  8
0
  6
CONTINUOUS
 10
4.546520
 20
2.421760
  0
VERTEX
  8
0
  6
CONTINUOUS
 10
4.545640
 20
1.662320
  0
VERTEX
  8
0
  6
CONTINUOUS
 10
4.516160
 20
1.697080
  0
SEQEND
  8
0
  0
SOLID
  8
0
 62
    15
 10
4.545640
 20
1.662320
 11
4.546520
 21
2.421760
 12
4.626160
 22
1.662320
 13
4.627040
 23
2.421760
  0
POLYLINE
  8
0
  6
CONTINUOUS
 66
     1
 40
0.000000
 41
0.000000
  0
VERTEX
  8
0
  6
CONTINUOUS
 10
4.545640
 20
1.662320
  0
VERTEX
  8
0
  6
CONTINUOUS
 10
4.546520
 20
2.421760
  0
VERTEX
  8
0
  6
CONTINUOUS
 10
4.627040
 20
2.421760
  0
VERTEX
  8
0
  6
CONTINUOUS
 10
4.626160
 20
1.662320
  0
VERTEX
  8
0
  6
CONTINUOUS
 10
4.545640
 20
1.662320
  0
SEQEND
  8
0
  0
SOLID
  8
0
 62
    15
 10
4.626160
 20
1.662320
 11
4.627040
 21
2.421760
 12
4.640240
 22
1.627560
 13
4.641120
 23
2.387000
  0
POLYLINE
  8
0
  6
CONTINUOUS
 66
     1
 40
0.000000
 41
0.000000
  0
VERTEX
  8
0
  6
CONTINUOUS
 10
4.626160
 20
1.662320
  0
VERTEX
  8
0
  6
CONTINUOUS
 10
4.627040
 20
2.421760
  0
VERTEX
  8
0
  6
CONTINUOUS
 10
4.641120
 20
2.387000
  0
VERTEX
  8
0
  6
CONTINUOUS
 10
4.640240
 20
1.627560
  0
VERTEX
  8
0
  6
CONTINUOUS
 10
4.626160
 20
1.662320
  0
SEQEND
  8
0
  0
SOLID
  8
0
 62
    15
 10
4.640240
 20
1.627560
 11
4.641120
 21
2.387000
 12
4.658280
 22
1.596760
 13
4.659160
 23
2.356200
  0
POLYLINE
  8
0
  6
CONTINUOUS
 66
     1
 40
0.000000
 41
0.000000
  0
VERTEX
  8
0
  6
CONTINUOUS
 10
4.640240
 20
1.627560
  0
VERTEX
  8
0
  6
CONTINUOUS
 10
4.641120
 20
2.387000
  0
VERTEX
  8
0
  6
CONTINUOUS
 10
4.659160
 20
2.356200
  0
VERTEX
  8
0
  6
CONTINUOUS
 10
4.658280
 20
1.596760
  0
VERTEX
  8
0
  6
CONTINUOUS
 10
4.640240
 20
1.627560
  0
SEQEND
  8
0
  0
SOLID
  8
0
 62
    15
 10
4.658280
 20
1.596760
 11
4.659160
 21
2.356200
 12
4.678960
 22
1.569480
 13
4.679840
 23
2.328920
  0
POLYLINE
  8
0
  6
CONTINUOUS
 66
     1
 40
0.000000
 41
0.000000
  0
VERTEX
  8
0
  6
CONTINUOUS
 10
4.658280
 20
1.596760
  0
VERTEX
  8
0
  6
CONTINUOUS
 10
4.659160
 20
2.356200
  0
VERTEX
  8
0
  6
CONTINUOUS
 10
4.679840
 20
2.328920
  0
VERTEX
  8
0
  6
CONTINUOUS
 10
4.678960
 20
1.569480
  0
VERTEX
  8
0
  6
CONTINUOUS
 10
4.658280
 20
1.596760
  0
SEQEND
  8
0
  0
SOLID
  8
0
 62
    15
 10
4.678960
 20
1.569480
 11
4.679840
 21
2.328920
 12
4.703160
 22
1.545720
 13
4.704040
 23
2.304720
  0
POLYLINE
  8
0
  6
CONTINUOUS
 66
     1
 40
0.000000
 41
0.000000
  0
VERTEX
  8
0
  6
CONTINUOUS
 10
4.678960
 20
1.569480
  0
VERTEX
  8
0
  6
CONTINUOUS
 10
4.679840
 20
2.328920
  0
VERTEX
  8
0
  6
CONTINUOUS
 10
4.704040
 20
2.304720
  0
VERTEX
  8
0
  6
CONTINUOUS
 10
4.703160
 20
1.545720
  0
VERTEX
  8
0
  6
CONTINUOUS
 10
4.678960
 20
1.569480
  0
SEQEND
  8
0
  0
SOLID
  8
0
 62
    15
 10
4.703160
 20
1.545720
 11
4.704040
 21
2.304720
 12
4.729560
 22
1.525040
 13
4.730880
 23
2.284040
  0
POLYLINE
  8
0
  6
CONTINUOUS
 66
     1
 40
0.000000
 41
0.000000
  0
VERTEX
  8
0
  6
CONTINUOUS
 10
4.703160
 20
1.545720
  0
VERTEX
  8
0
  6
CONTINUOUS
 10
4.704040
 20
2.304720
  0
VERTEX
  8
0
  6
CONTINUOUS
 10
4.730880
 20
2.284040
  0
VERTEX
  8
0
  6
CONTINUOUS
 10
4.729560
 20
1.525040
  0
VERTEX
  8
0
  6
CONTINUOUS
 10
4.703160
 20
1.545720
  0
SEQEND
  8
0
  0
SOLID
  8
0
 62
    15
 10
4.729560
 20
1.525040
 11
4.730880
 21
2.284040
 12
4.758600
 22
1.507000
 13
4.759480
 23
2.266440
  0
POLYLINE
  8
0
  6
CONTINUOUS
 66
     1
 40
0.000000
 41
0.000000
  0
VERTEX
  8
0
  6
CONTINUOUS
 10
4.729560
 20
1.525040
  0
VERTEX
  8
0
  6
CONTINUOUS
 10
4.730880
 20
2.284040
  0
VERTEX
  8
0
  6
CONTINUOUS
 10
4.759480
 20
2.266440
  0
VERTEX
  8
0
  6
CONTINUOUS
 10
4.758600
 20
1.507000
  0
VERTEX
  8
0
  6
CONTINUOUS
 10
4.729560
 20
1.525040
  0
SEQEND
  8
0
  0
SOLID
  8
0
 62
    15
 10
4.758600
 20
1.507000
 11
4.759480
 21
2.266440
 12
4.821960
 22
1.479280
 13
4.822840
 23
2.238280
  0
POLYLINE
  8
0
  6
CONTINUOUS
 66
     1
 40
0.000000
 41
0.000000
  0
VERTEX
  8
0
  6
CONTINUOUS
 10
4.758600
 20
1.507000
  0
VERTEX
  8
0
  6
CONTINUOUS
 10
4.759480
 20
2.266440
  0
VERTEX
  8
0
  6
CONTINUOUS
 10
4.822840
 20
2.238280
  0
VERTEX
  8
0
  6
CONTINUOUS
 10
4.821960
 20
1.479280
  0
VERTEX
  8
0
  6
CONTINUOUS
 10
4.758600
 20
1.507000
  0
SEQEND
  8
0
  0
SOLID
  8
0
 62
    15
 10
4.821960
 20
1.479280
 11
4.822840
 21
2.238280
 12
4.890160
 22
1.459920
 13
4.891040
 23
2.219360
  0
POLYLINE
  8
0
  6
CONTINUOUS
 66
     1
 40
0.000000
 41
0.000000
  0
VERTEX
  8
0
  6
CONTINUOUS
 10
4.821960
 20
1.479280
  0
VERTEX
  8
0
  6
CONTINUOUS
 10
4.822840
 20
2.238280
  0
VERTEX
  8
0
  6
CONTINUOUS
 10
4.891040
 20
2.219360
  0
VERTEX
  8
0
  6
CONTINUOUS
 10
4.890160
 20
1.459920
  0
VERTEX
  8
0
  6
CONTINUOUS
 10
4.821960
 20
1.479280
  0
SEQEND
  8
0
  0
SOLID
  8
0
 62
    15
 10
4.890160
 20
1.459920
 11
4.891040
 21
2.219360
 12
4.960560
 22
1.448040
 13
4.961440
 23
2.207040
  0
POLYLINE
  8
0
  6
CONTINUOUS
 66
     1
 40
0.000000
 41
0.000000
  0
VERTEX
  8
0
  6
CONTINUOUS
 10
4.890160
 20
1.459920
  0
VERTEX
  8
0
  6
CONTINUOUS
 10
4.891040
 20
2.219360
  0
VERTEX
  8
0
  6
CONTINUOUS
 10
4.961440
 20
2.207040
  0
VERTEX
  8
0
  6
CONTINUOUS
 10
4.960560
 20
1.448040
  0
VERTEX
  8
0
  6
CONTINUOUS
 10
4.890160
 20
1.459920
  0
SEQEND
  8
0
  0
SOLID
  8
0
 62
    15
 10
4.960560
 20
1.448040
 11
4.961440
 21
2.207040
 12
5.030080
 22
1.441000
 13
5.030960
 23
2.200000
  0
POLYLINE
  8
0
  6
CONTINUOUS
 66
     1
 40
0.000000
 41
0.000000
  0
VERTEX
  8
0
  6
CONTINUOUS
 10
4.960560
 20
1.448040
  0
VERTEX
  8
0
  6
CONTINUOUS
 10
4.961440
 20
2.207040
  0
VERTEX
  8
0
  6
CONTINUOUS
 10
5.030960
 20
2.200000
  0
VERTEX
  8
0
  6
CONTINUOUS
 10
5.030080
 20
1.441000
  0
VERTEX
  8
0
  6
CONTINUOUS
 10
4.960560
 20
1.448040
  0
SEQEND
  8
0
  0
SOLID
  8
0
 62
    15
 10
5.030080
 20
1.441000
 11
5.030960
 21
2.200000
 12
5.096080
 22
1.437040
 13
5.096960
 23
2.196040
  0
POLYLINE
  8
0
  6
CONTINUOUS
 66
     1
 40
0.000000
 41
0.000000
  0
VERTEX
  8
0
  6
CONTINUOUS
 10
5.030080
 20
1.441000
  0
VERTEX
  8
0
  6
CONTINUOUS
 10
5.030960
 20
2.200000
  0
VERTEX
  8
0
  6
CONTINUOUS
 10
5.096960
 20
2.196040
  0
VERTEX
  8
0
  6
CONTINUOUS
 10
5.096080
 20
1.437040
  0
VERTEX
  8
0
  6
CONTINUOUS
 10
5.030080
 20
1.441000
  0
SEQEND
  8
0
  0
SOLID
  8
0
 62
    15
 10
5.096080
 20
1.437040
 11
5.096960
 21
2.196040
 12
5.102240
 22
1.464760
 13
5.103120
 23
2.223760
  0
POLYLINE
  8
0
  6
CONTINUOUS
 66
     1
 40
0.000000
 41
0.000000
  0
VERTEX
  8
0
  6
CONTINUOUS
 10
5.096080
 20
1.437040
  0
VERTEX
  8
0
  6
CONTINUOUS
 10
5.096960
 20
2.196040
  0
VERTEX
  8
0
  6
CONTINUOUS
 10
5.103120
 20
2.223760
  0
VERTEX
  8
0
  6
CONTINUOUS
 10
5.102240
 20
1.464760
  0
VERTEX
  8
0
  6
CONTINUOUS
 10
5.096080
 20
1.437040
  0
SEQEND
  8
0
  0
SOLID
  8
0
 62
    15
 10
5.102240
 20
1.464760
 11
5.103120
 21
2.223760
 12
5.111040
 22
1.488080
 13
5.111920
 23
2.247520
  0
POLYLINE
  8
0
  6
CONTINUOUS
 66
     1
 40
0.000000
 41
0.000000
  0
VERTEX
  8
0
  6
CONTINUOUS
 10
5.102240
 20
1.464760
  0
VERTEX
  8
0
  6
CONTINUOUS
 10
5.103120
 20
2.223760
  0
VERTEX
  8
0
  6
CONTINUOUS
 10
5.111920
 20
2.247520
  0
VERTEX
  8
0
  6
CONTINUOUS
 10
5.111040
 20
1.488080
  0
VERTEX
  8
0
  6
CONTINUOUS
 10
5.102240
 20
1.464760
  0
SEQEND
  8
0
  0
SOLID
  8
0
 62
    15
 10
5.111040
 20
1.488080
 11
5.111920
 21
2.247520
 12
5.122040
 22
1.507440
 13
5.122920
 23
2.266440
  0
POLYLINE
  8
0
  6
CONTINUOUS
 66
     1
 40
0.000000
 41
0.000000
  0
VERTEX
  8
0
  6
CONTINUOUS
 10
5.111040
 20
1.488080
  0
VERTEX
  8
0
  6
CONTINUOUS
 10
5.111920
 20
2.247520
  0
VERTEX
  8
0
  6
CONTINUOUS
 10
5.122920
 20
2.266440
  0
VERTEX
  8
0
  6
CONTINUOUS
 10
5.122040
 20
1.507440
  0
VERTEX
  8
0
  6
CONTINUOUS
 10
5.111040
 20
1.488080
  0
SEQEND
  8
0
  0
SOLID
  8
0
 62
    15
 10
5.122040
 20
1.507440
 11
5.122920
 21
2.266440
 12
5.135240
 22
1.522400
 13
5.136120
 23
2.281400
  0
POLYLINE
  8
0
  6
CONTINUOUS
 66
     1
 40
0.000000
 41
0.000000
  0
VERTEX
  8
0
  6
CONTINUOUS
 10
5.122040
 20
1.507440
  0
VERTEX
  8
0
  6
CONTINUOUS
 10
5.122920
 20
2.266440
  0
VERTEX
  8
0
  6
CONTINUOUS
 10
5.136120
 20
2.281400
  0
VERTEX
  8
0
  6
CONTINUOUS
 10
5.135240
 20
1.522400
  0
VERTEX
  8
0
  6
CONTINUOUS
 10
5.122040
 20
1.507440
  0
SEQEND
  8
0
  0
SOLID
  8
0
 62
    15
 10
5.135240
 20
1.522400
 11
5.136120
 21
2.281400
 12
5.149760
 22
1.533400
 13
5.150640
 23
2.292400
  0
POLYLINE
  8
0
  6
CONTINUOUS
 66
     1
 40
0.000000
 41
0.000000
  0
VERTEX
  8
0
  6
CONTINUOUS
 10
5.135240
 20
1.522400
  0
VERTEX
  8
0
  6
CONTINUOUS
 10
5.136120
 20
2.281400
  0
VERTEX
  8
0
  6
CONTINUOUS
 10
5.150640
 20
2.292400
  0
VERTEX
  8
0
  6
CONTINUOUS
 10
5.149760
 20
1.533400
  0
VERTEX
  8
0
  6
CONTINUOUS
 10
5.135240
 20
1.522400
  0
SEQEND
  8
0
  0
SOLID
  8
0
 62
    15
 10
8.006680
 20
1.109680
 11
8.007560
 21
1.868680
 12
8.006680
 22
0.969320
 13
8.007560
 23
1.728320
  0
POLYLINE
  8
0
  6
CONTINUOUS
 66
     1
 40
0.000000
 41
0.000000
  0
VERTEX
  8
0
  6
CONTINUOUS
 10
8.006680
 20
1.109680
  0
VERTEX
  8
0
  6
CONTINUOUS
 10
8.007560
 20
1.868680
  0
VERTEX
  8
0
  6
CONTINUOUS
 10
8.007560
 20
1.728320
  0
VERTEX
  8
0
  6
CONTINUOUS
 10
8.006680
 20
0.969320
  0
VERTEX
  8
0
  6
CONTINUOUS
 10
8.006680
 20
1.109680
  0
SEQEND
  8
0
  0
SOLID
  8
0
 62
    15
 10
5.165160
 20
1.540440
 11
5.166040
 21
2.299880
 12
5.197720
 22
1.544400
 13
5.198600
 23
2.303400
  0
POLYLINE
  8
0
  6
CONTINUOUS
 66
     1
 40
0.000000
 41
0.000000
  0
VERTEX
  8
0
  6
CONTINUOUS
 10
5.165160
 20
1.540440
  0
VERTEX
  8
0
  6
CONTINUOUS
 10
5.166040
 20
2.299880
  0
VERTEX
  8
0
  6
CONTINUOUS
 10
5.198600
 20
2.303400
  0
VERTEX
  8
0
  6
CONTINUOUS
 10
5.197720
 20
1.544400
  0
VERTEX
  8
0
  6
CONTINUOUS
 10
5.165160
 20
1.540440
  0
SEQEND
  8
0
  0
SOLID
  8
0
 62
    15
 10
5.197720
 20
1.544400
 11
5.198600
 21
2.303400
 12
5.229400
 22
1.534280
 13
5.230280
 23
2.293280
  0
POLYLINE
  8
0
  6
CONTINUOUS
 66
     1
 40
0.000000
 41
0.000000
  0
VERTEX
  8
0
  6
CONTINUOUS
 10
5.197720
 20
1.544400
  0
VERTEX
  8
0
  6
CONTINUOUS
 10
5.198600
 20
2.303400
  0
VERTEX
  8
0
  6
CONTINUOUS
 10
5.230280
 20
2.293280
  0
VERTEX
  8
0
  6
CONTINUOUS
 10
5.229400
 20
1.534280
  0
VERTEX
  8
0
  6
CONTINUOUS
 10
5.197720
 20
1.544400
  0
SEQEND
  8
0
  0
SOLID
  8
0
 62
    15
 10
5.229400
 20
1.534280
 11
5.230280
 21
2.293280
 12
5.257120
 22
1.511840
 13
5.258000
 23
2.271280
  0
POLYLINE
  8
0
  6
CONTINUOUS
 66
     1
 40
0.000000
 41
0.000000
  0
VERTEX
  8
0
  6
CONTINUOUS
 10
5.229400
 20
1.534280
  0
VERTEX
  8
0
  6
CONTINUOUS
 10
5.230280
 20
2.293280
  0
VERTEX
  8
0
  6
CONTINUOUS
 10
5.258000
 20
2.271280
  0
VERTEX
  8
0
  6
CONTINUOUS
 10
5.257120
 20
1.511840
  0
VERTEX
  8
0
  6
CONTINUOUS
 10
5.229400
 20
1.534280
  0
SEQEND
  8
0
  0
SOLID
  8
0
 62
    15
 10
5.257120
 20
1.511840
 11
5.258000
 21
2.271280
 12
5.277360
 22
1.478400
 13
5.278240
 23
2.237400
  0
POLYLINE
  8
0
  6
CONTINUOUS
 66
     1
 40
0.000000
 41
0.000000
  0
VERTEX
  8
0
  6
CONTINUOUS
 10
5.257120
 20
1.511840
  0
VERTEX
  8
0
  6
CONTINUOUS
 10
5.258000
 20
2.271280
  0
VERTEX
  8
0
  6
CONTINUOUS
 10
5.278240
 20
2.237400
  0
VERTEX
  8
0
  6
CONTINUOUS
 10
5.277360
 20
1.478400
  0
VERTEX
  8
0
  6
CONTINUOUS
 10
5.257120
 20
1.511840
  0
SEQEND
  8
0
  0
SOLID
  8
0
 62
    15
 10
5.277360
 20
1.478400
 11
5.278240
 21
2.237400
 12
5.283960
 22
1.457720
 13
5.284840
 23
2.216720
  0
POLYLINE
  8
0
  6
CONTINUOUS
 66
     1
 40
0.000000
 41
0.000000
  0
VERTEX
  8
0
  6
CONTINUOUS
 10
5.277360
 20
1.478400
  0
VERTEX
  8
0
  6
CONTINUOUS
 10
5.278240
 20
2.237400
  0
VERTEX
  8
0
  6
CONTINUOUS
 10
5.284840
 20
2.216720
  0
VERTEX
  8
0
  6
CONTINUOUS
 10
5.283960
 20
1.457720
  0
VERTEX
  8
0
  6
CONTINUOUS
 10
5.277360
 20
1.478400
  0
SEQEND
  8
0
  0
SOLID
  8
0
 62
    15
 10
5.283960
 20
1.457720
 11
5.284840
 21
2.216720
 12
5.287040
 22
1.434400
 13
5.287920
 23
2.193840
  0
POLYLINE
  8
0
  6
CONTINUOUS
 66
     1
 40
0.000000
 41
0.000000
  0
VERTEX
  8
0
  6
CONTINUOUS
 10
5.283960
 20
1.457720
  0
VERTEX
  8
0
  6
CONTINUOUS
 10
5.284840
 20
2.216720
  0
VERTEX
  8
0
  6
CONTINUOUS
 10
5.287920
 20
2.193840
  0
VERTEX
  8
0
  6
CONTINUOUS
 10
5.287040
 20
1.434400
  0
VERTEX
  8
0
  6
CONTINUOUS
 10
5.283960
 20
1.457720
  0
SEQEND
  8
0
  0
SOLID
  8
0
 62
    15
 10
5.287040
 20
1.434400
 11
5.287920
 21
2.193840
 12
5.489440
 22
1.434400
 13
5.490320
 23
2.193840
  0
POLYLINE
  8
0
  6
CONTINUOUS
 66
     1
 40
0.000000
 41
0.000000
  0
VERTEX
  8
0
  6
CONTINUOUS
 10
5.287040
 20
1.434400
  0
VERTEX
  8
0
  6
CONTINUOUS
 10
5.287920
 20
2.193840
  0
VERTEX
  8
0
  6
CONTINUOUS
 10
5.490320
 20
2.193840
  0
VERTEX
  8
0
  6
CONTINUOUS
 10
5.489440
 20
1.434400
  0
VERTEX
  8
0
  6
CONTINUOUS
 10
5.287040
 20
1.434400
  0
SEQEND
  8
0
  0
SOLID
  8
0
 62
    15
 10
5.489440
 20
1.434400
 11
5.490320
 21
2.193840
 12
5.507040
 22
1.340240
 13
5.507920
 23
2.099240
  0
POLYLINE
  8
0
  6
CONTINUOUS
 66
     1
 40
0.000000
 41
0.000000
  0
VERTEX
  8
0
  6
CONTINUOUS
 10
5.489440
 20
1.434400
  0
VERTEX
  8
0
  6
CONTINUOUS
 10
5.490320
 20
2.193840
  0
VERTEX
  8
0
  6
CONTINUOUS
 10
5.507920
 20
2.099240
  0
VERTEX
  8
0
  6
CONTINUOUS
 10
5.507040
 20
1.340240
  0
VERTEX
  8
0
  6
CONTINUOUS
 10
5.489440
 20
1.434400
  0
SEQEND
  8
0
  0
SOLID
  8
0
 62
    15
 10
5.507040
 20
1.340240
 11
5.507920
 21
2.099240
 12
7.059800
 22
1.340240
 13
7.060680
 23
2.099240
  0
POLYLINE
  8
0
  6
CONTINUOUS
 66
     1
 40
0.000000
 41
0.000000
  0
VERTEX
  8
0
  6
CONTINUOUS
 10
5.507040
 20
1.340240
  0
VERTEX
  8
0
  6
CONTINUOUS
 10
5.507920
 20
2.099240
  0
VERTEX
  8
0
  6
CONTINUOUS
 10
7.060680
 20
2.099240
  0
VERTEX
  8
0
  6
CONTINUOUS
 10
7.059800
 20
1.340240
  0
VERTEX
  8
0
  6
CONTINUOUS
 10
5.507040
 20
1.340240
  0
SEQEND
  8
0
  0
SOLID
  8
0
 62
    15
 10
7.059800
 20
1.340240
 11
7.060680
 21
2.099240
 12
7.063320
 22
1.367520
 13
7.064200
 23
2.126520
  0
POLYLINE
  8
0
  6
CONTINUOUS
 66
     1
 40
0.000000
 41
0.000000
  0
VERTEX
  8
0
  6
CONTINUOUS
 10
7.059800
 20
1.340240
  0
VERTEX
  8
0
  6
CONTINUOUS
 10
7.060680
 20
2.099240
  0
VERTEX
  8
0
  6
CONTINUOUS
 10
7.064200
 20
2.126520
  0
VERTEX
  8
0
  6
CONTINUOUS
 10
7.063320
 20
1.367520
  0
VERTEX
  8
0
  6
CONTINUOUS
 10
7.059800
 20
1.340240
  0
SEQEND
  8
0
  0
SOLID
  8
0
 62
    15
 10
7.063320
 20
1.367520
 11
7.064200
 21
2.126520
 12
7.070360
 22
1.391280
 13
7.071240
 23
2.150720
  0
POLYLINE
  8
0
  6
CONTINUOUS
 66
     1
 40
0.000000
 41
0.000000
  0
VERTEX
  8
0
  6
CONTINUOUS
 10
7.063320
 20
1.367520
  0
VERTEX
  8
0
  6
CONTINUOUS
 10
7.064200
 20
2.126520
  0
VERTEX
  8
0
  6
CONTINUOUS
 10
7.071240
 20
2.150720
  0
VERTEX
  8
0
  6
CONTINUOUS
 10
7.070360
 20
1.391280
  0
VERTEX
  8
0
  6
CONTINUOUS
 10
7.063320
 20
1.367520
  0
SEQEND
  8
0
  0
SOLID
  8
0
 62
    15
 10
7.070360
 20
1.391280
 11
7.071240
 21
2.150720
 12
7.079600
 22
1.411960
 13
7.080480
 23
2.171400
  0
POLYLINE
  8
0
  6
CONTINUOUS
 66
     1
 40
0.000000
 41
0.000000
  0
VERTEX
  8
0
  6
CONTINUOUS
 10
7.070360
 20
1.391280
  0
VERTEX
  8
0
  6
CONTINUOUS
 10
7.071240
 20
2.150720
  0
VERTEX
  8
0
  6
CONTINUOUS
 10
7.080480
 20
2.171400
  0
VERTEX
  8
0
  6
CONTINUOUS
 10
7.079600
 20
1.411960
  0
VERTEX
  8
0
  6
CONTINUOUS
 10
7.070360
 20
1.391280
  0
SEQEND
  8
0
  0
SOLID
  8
0
 62
    15
 10
7.079600
 20
1.411960
 11
7.080480
 21
2.171400
 12
7.091480
 22
1.429560
 13
7.092360
 23
2.188560
  0
POLYLINE
  8
0
  6
CONTINUOUS
 66
     1
 40
0.000000
 41
0.000000
  0
VERTEX
  8
0
  6
CONTINUOUS
 10
7.079600
 20
1.411960
  0
VERTEX
  8
0
  6
CONTINUOUS
 10
7.080480
 20
2.171400
  0
VERTEX
  8
0
  6
CONTINUOUS
 10
7.092360
 20
2.188560
  0
VERTEX
  8
0
  6
CONTINUOUS
 10
7.091480
 20
1.429560
  0
VERTEX
  8
0
  6
CONTINUOUS
 10
7.079600
 20
1.411960
  0
SEQEND
  8
0
  0
SOLID
  8
0
 62
    15
 10
7.091480
 20
1.429560
 11
7.092360
 21
2.188560
 12
7.105120
 22
1.443640
 13
7.106000
 23
2.202640
  0
POLYLINE
  8
0
  6
CONTINUOUS
 66
     1
 40
0.000000
 41
0.000000
  0
VERTEX
  8
0
  6
CONTINUOUS
 10
7.091480
 20
1.429560
  0
VERTEX
  8
0
  6
CONTINUOUS
 10
7.092360
 20
2.188560
  0
VERTEX
  8
0
  6
CONTINUOUS
 10
7.106000
 20
2.202640
  0
VERTEX
  8
0
  6
CONTINUOUS
 10
7.105120
 20
1.443640
  0
VERTEX
  8
0
  6
CONTINUOUS
 10
7.091480
 20
1.429560
  0
SEQEND
  8
0
  0
SOLID
  8
0
 62
    15
 10
7.105120
 20
1.443640
 11
7.106000
 21
2.202640
 12
7.120080
 22
1.454200
 13
7.120960
 23
2.213200
  0
POLYLINE
  8
0
  6
CONTINUOUS
 66
     1
 40
0.000000
 41
0.000000
  0
VERTEX
  8
0
  6
CONTINUOUS
 10
7.105120
 20
1.443640
  0
VERTEX
  8
0
  6
CONTINUOUS
 10
7.106000
 20
2.202640
  0
VERTEX
  8
0
  6
CONTINUOUS
 10
7.120960
 20
2.213200
  0
VERTEX
  8
0
  6
CONTINUOUS
 10
7.120080
 20
1.454200
  0
VERTEX
  8
0
  6
CONTINUOUS
 10
7.105120
 20
1.443640
  0
SEQEND
  8
0
  0
SOLID
  8
0
 62
    15
 10
7.120080
 20
1.454200
 11
7.120960
 21
2.213200
 12
7.136360
 22
1.460800
 13
7.137240
 23
2.220240
  0
POLYLINE
  8
0
  6
CONTINUOUS
 66
     1
 40
0.000000
 41
0.000000
  0
VERTEX
  8
0
  6
CONTINUOUS
 10
7.120080
 20
1.454200
  0
VERTEX
  8
0
  6
CONTINUOUS
 10
7.120960
 20
2.213200
  0
VERTEX
  8
0
  6
CONTINUOUS
 10
7.137240
 20
2.220240
  0
VERTEX
  8
0
  6
CONTINUOUS
 10
7.136360
 20
1.460800
  0
VERTEX
  8
0
  6
CONTINUOUS
 10
7.120080
 20
1.454200
  0
SEQEND
  8
0
  0
SOLID
  8
0
 62
    15
 10
7.136360
 20
1.460800
 11
7.137240
 21
2.220240
 12
7.152640
 22
1.463880
 13
7.153960
 23
2.222880
  0
POLYLINE
  8
0
  6
CONTINUOUS
 66
     1
 40
0.000000
 41
0.000000
  0
VERTEX
  8
0
  6
CONTINUOUS
 10
7.136360
 20
1.460800
  0
VERTEX
  8
0
  6
CONTINUOUS
 10
7.137240
 20
2.220240
  0
VERTEX
  8
0
  6
CONTINUOUS
 10
7.153960
 20
2.222880
  0
VERTEX
  8
0
  6
CONTINUOUS
 10
7.152640
 20
1.463880
  0
VERTEX
  8
0
  6
CONTINUOUS
 10
7.136360
 20
1.460800
  0
SEQEND
  8
0
  0
SOLID
  8
0
 62
    15
 10
7.152640
 20
1.463880
 11
7.153960
 21
2.222880
 12
7.169360
 22
1.463000
 13
7.170240
 23
2.222000
  0
POLYLINE
  8
0
  6
CONTINUOUS
 66
     1
 40
0.000000
 41
0.000000
  0
VERTEX
  8
0
  6
CONTINUOUS
 10
7.152640
 20
1.463880
  0
VERTEX
  8
0
  6
CONTINUOUS
 10
7.153960
 20
2.222880
  0
VERTEX
  8
0
  6
CONTINUOUS
 10
7.170240
 20
2.222000
  0
VERTEX
  8
0
  6
CONTINUOUS
 10
7.169360
 20
1.463000
  0
VERTEX
  8
0
  6
CONTINUOUS
 10
7.152640
 20
1.463880
  0
SEQEND
  8
0
  0
SOLID
  8
0
 62
    15
 10
7.169360
 20
1.463000
 11
7.170240
 21
2.222000
 12
7.186080
 22
1.458160
 13
7.186960
 23
2.217160
  0
POLYLINE
  8
0
  6
CONTINUOUS
 66
     1
 40
0.000000
 41
0.000000
  0
VERTEX
  8
0
  6
CONTINUOUS
 10
7.169360
 20
1.463000
  0
VERTEX
  8
0
  6
CONTINUOUS
 10
7.170240
 20
2.222000
  0
VERTEX
  8
0
  6
CONTINUOUS
 10
7.186960
 20
2.217160
  0
VERTEX
  8
0
  6
CONTINUOUS
 10
7.186080
 20
1.458160
  0
VERTEX
  8
0
  6
CONTINUOUS
 10
7.169360
 20
1.463000
  0
SEQEND
  8
0
  0
SOLID
  8
0
 62
    15
 10
7.186080
 20
1.458160
 11
7.186960
 21
2.217160
 12
7.201920
 22
1.449360
 13
7.202800
 23
2.208360
  0
POLYLINE
  8
0
  6
CONTINUOUS
 66
     1
 40
0.000000
 41
0.000000
  0
VERTEX
  8
0
  6
CONTINUOUS
 10
7.186080
 20
1.458160
  0
VERTEX
  8
0
  6
CONTINUOUS
 10
7.186960
 20
2.217160
  0
VERTEX
  8
0
  6
CONTINUOUS
 10
7.202800
 20
2.208360
  0
VERTEX
  8
0
  6
CONTINUOUS
 10
7.201920
 20
1.449360
  0
VERTEX
  8
0
  6
CONTINUOUS
 10
7.186080
 20
1.458160
  0
SEQEND
  8
0
  0
SOLID
  8
0
 62
    15
 10
7.201920
 20
1.449360
 11
7.202800
 21
2.208360
 12
7.216440
 22
1.436160
 13
7.217320
 23
2.195160
  0
POLYLINE
  8
0
  6
CONTINUOUS
 66
     1
 40
0.000000
 41
0.000000
  0
VERTEX
  8
0
  6
CONTINUOUS
 10
7.201920
 20
1.449360
  0
VERTEX
  8
0
  6
CONTINUOUS
 10
7.202800
 20
2.208360
  0
VERTEX
  8
0
  6
CONTINUOUS
 10
7.217320
 20
2.195160
  0
VERTEX
  8
0
  6
CONTINUOUS
 10
7.216440
 20
1.436160
  0
VERTEX
  8
0
  6
CONTINUOUS
 10
7.201920
 20
1.449360
  0
SEQEND
  8
0
  0
SOLID
  8
0
 62
    15
 10
7.216440
 20
1.436160
 11
7.217320
 21
2.195160
 12
7.229200
 22
1.418560
 13
7.230520
 23
2.177560
  0
POLYLINE
  8
0
  6
CONTINUOUS
 66
     1
 40
0.000000
 41
0.000000
  0
VERTEX
  8
0
  6
CONTINUOUS
 10
7.216440
 20
1.436160
  0
VERTEX
  8
0
  6
CONTINUOUS
 10
7.217320
 20
2.195160
  0
VERTEX
  8
0
  6
CONTINUOUS
 10
7.230520
 20
2.177560
  0
VERTEX
  8
0
  6
CONTINUOUS
 10
7.229200
 20
1.418560
  0
VERTEX
  8
0
  6
CONTINUOUS
 10
7.216440
 20
1.436160
  0
SEQEND
  8
0
  0
SOLID
  8
0
 62
    15
 10
7.229200
 20
1.418560
 11
7.230520
 21
2.177560
 12
7.240640
 22
1.396560
 13
7.241520
 23
2.155560
  0
POLYLINE
  8
0
  6
CONTINUOUS
 66
     1
 40
0.000000
 41
0.000000
  0
VERTEX
  8
0
  6
CONTINUOUS
 10
7.229200
 20
1.418560
  0
VERTEX
  8
0
  6
CONTINUOUS
 10
7.230520
 20
2.177560
  0
VERTEX
  8
0
  6
CONTINUOUS
 10
7.241520
 20
2.155560
  0
VERTEX
  8
0
  6
CONTINUOUS
 10
7.240640
 20
1.396560
  0
VERTEX
  8
0
  6
CONTINUOUS
 10
7.229200
 20
1.418560
  0
SEQEND
  8
0
  0
SOLID
  8
0
 62
    15
 10
7.255160
 20
1.338920
 11
7.256040
 21
2.097920
 12
7.447440
 22
1.338920
 13
7.448320
 23
2.097920
  0
POLYLINE
  8
0
  6
CONTINUOUS
 66
     1
 40
0.000000
 41
0.000000
  0
VERTEX
  8
0
  6
CONTINUOUS
 10
7.255160
 20
1.338920
  0
VERTEX
  8
0
  6
CONTINUOUS
 10
7.256040
 20
2.097920
  0
VERTEX
  8
0
  6
CONTINUOUS
 10
7.448320
 20
2.097920
  0
VERTEX
  8
0
  6
CONTINUOUS
 10
7.447440
 20
1.338920
  0
VERTEX
  8
0
  6
CONTINUOUS
 10
7.255160
 20
1.338920
  0
SEQEND
  8
0
  0
SOLID
  8
0
 62
    15
 10
7.249000
 20
1.370160
 11
7.249880
 21
2.129160
 12
7.255160
 22
1.338920
 13
7.256040
 23
2.097920
  0
POLYLINE
  8
0
  6
CONTINUOUS
 66
     1
 40
0.000000
 41
0.000000
  0
VERTEX
  8
0
  6
CONTINUOUS
 10
7.249000
 20
1.370160
  0
VERTEX
  8
0
  6
CONTINUOUS
 10
7.249880
 20
2.129160
  0
VERTEX
  8
0
  6
CONTINUOUS
 10
7.256040
 20
2.097920
  0
VERTEX
  8
0
  6
CONTINUOUS
 10
7.255160
 20
1.338920
  0
VERTEX
  8
0
  6
CONTINUOUS
 10
7.249000
 20
1.370160
  0
SEQEND
  8
0
  0
SOLID
  8
0
 62
    15
 10
7.240640
 20
1.396560
 11
7.241520
 21
2.155560
 12
7.249000
 22
1.370160
 13
7.249880
 23
2.129160
  0
POLYLINE
  8
0
  6
CONTINUOUS
 66
     1
 40
0.000000
 41
0.000000
  0
VERTEX
  8
0
  6
CONTINUOUS
 10
7.240640
 20
1.396560
  0
VERTEX
  8
0
  6
CONTINUOUS
 10
7.241520
 20
2.155560
  0
VERTEX
  8
0
  6
CONTINUOUS
 10
7.249880
 20
2.129160
  0
VERTEX
  8
0
  6
CONTINUOUS
 10
7.249000
 20
1.370160
  0
VERTEX
  8
0
  6
CONTINUOUS
 10
7.240640
 20
1.396560
  0
SEQEND
  8
0
  0
SOLID
  8
0
 62
    15
 10
7.447440
 20
1.338920
 11
7.448320
 21
2.097920
 12
7.481320
 22
1.254880
 13
7.482640
 23
2.014320
  0
POLYLINE
  8
0
  6
CONTINUOUS
 66
     1
 40
0.000000
 41
0.000000
  0
VERTEX
  8
0
  6
CONTINUOUS
 10
7.447440
 20
1.338920
  0
VERTEX
  8
0
  6
CONTINUOUS
 10
7.448320
 20
2.097920
  0
VERTEX
  8
0
  6
CONTINUOUS
 10
7.482640
 20
2.014320
  0
VERTEX
  8
0
  6
CONTINUOUS
 10
7.481320
 20
1.254880
  0
VERTEX
  8
0
  6
CONTINUOUS
 10
7.447440
 20
1.338920
  0
SEQEND
  8
0
  0
SOLID
  8
0
 62
    15
 10
7.899320
 20
1.224080
 11
7.900200
 21
1.983080
 12
7.909880
 22
1.201200
 13
7.910760
 23
1.960200
  0
POLYLINE
  8
0
  6
CONTINUOUS
 66
     1
 40
0.000000
 41
0.000000
  0
VERTEX
  8
0
  6
CONTINUOUS
 10
7.899320
 20
1.224080
  0
VERTEX
  8
0
  6
CONTINUOUS
 10
7.900200
 20
1.983080
  0
VERTEX
  8
0
  6
CONTINUOUS
 10
7.910760
 20
1.960200
  0
VERTEX
  8
0
  6
CONTINUOUS
 10
7.909880
 20
1.201200
  0
VERTEX
  8
0
  6
CONTINUOUS
 10
7.899320
 20
1.224080
  0
SEQEND
  8
0
  0
SOLID
  8
0
 62
    15
 10
7.893160
 20
1.247400
 11
7.894040
 21
2.006400
 12
7.899320
 22
1.224080
 13
7.900200
 23
1.983080
  0
POLYLINE
  8
0
  6
CONTINUOUS
 66
     1
 40
0.000000
 41
0.000000
  0
VERTEX
  8
0
  6
CONTINUOUS
 10
7.893160
 20
1.247400
  0
VERTEX
  8
0
  6
CONTINUOUS
 10
7.894040
 20
2.006400
  0
VERTEX
  8
0
  6
CONTINUOUS
 10
7.900200
 20
1.983080
  0
VERTEX
  8
0
  6
CONTINUOUS
 10
7.899320
 20
1.224080
  0
VERTEX
  8
0
  6
CONTINUOUS
 10
7.893160
 20
1.247400
  0
SEQEND
  8
0
  0
SOLID
  8
0
 62
    15
 10
7.481320
 20
1.254880
 11
7.482640
 21
2.014320
 12
7.893160
 22
1.247400
 13
7.894040
 23
2.006400
  0
POLYLINE
  8
0
  6
CONTINUOUS
 66
     1
 40
0.000000
 41
0.000000
  0
VERTEX
  8
0
  6
CONTINUOUS
 10
7.481320
 20
1.254880
  0
VERTEX
  8
0
  6
CONTINUOUS
 10
7.482640
 20
2.014320
  0
VERTEX
  8
0
  6
CONTINUOUS
 10
7.894040
 20
2.006400
  0
VERTEX
  8
0
  6
CONTINUOUS
 10
7.893160
 20
1.247400
  0
VERTEX
  8
0
  6
CONTINUOUS
 10
7.481320
 20
1.254880
  0
SEQEND
  8
0
  0
SOLID
  8
0
 62
    15
 10
7.909880
 20
1.201200
 11
7.910760
 21
1.960200
 12
7.938920
 22
1.159400
 13
7.939800
 23
1.918400
  0
POLYLINE
  8
0
  6
CONTINUOUS
 66
     1
 40
0.000000
 41
0.000000
  0
VERTEX
  8
0
  6
CONTINUOUS
 10
7.909880
 20
1.201200
  0
VERTEX
  8
0
  6
CONTINUOUS
 10
7.910760
 20
1.960200
  0
VERTEX
  8
0
  6
CONTINUOUS
 10
7.939800
 20
1.918400
  0
VERTEX
  8
0
  6
CONTINUOUS
 10
7.938920
 20
1.159400
  0
VERTEX
  8
0
  6
CONTINUOUS
 10
7.909880
 20
1.201200
  0
SEQEND
  8
0
  0
SOLID
  8
0
 62
    15
 10
7.938920
 20
1.159400
 11
7.939800
 21
1.918400
 12
7.973240
 22
1.126840
 13
7.974120
 23
1.886280
  0
POLYLINE
  8
0
  6
CONTINUOUS
 66
     1
 40
0.000000
 41
0.000000
  0
VERTEX
  8
0
  6
CONTINUOUS
 10
7.938920
 20
1.159400
  0
VERTEX
  8
0
  6
CONTINUOUS
 10
7.939800
 20
1.918400
  0
VERTEX
  8
0
  6
CONTINUOUS
 10
7.974120
 20
1.886280
  0
VERTEX
  8
0
  6
CONTINUOUS
 10
7.973240
 20
1.126840
  0
VERTEX
  8
0
  6
CONTINUOUS
 10
7.938920
 20
1.159400
  0
SEQEND
  8
0
  0
SOLID
  8
0
 62
    15
 10
7.973240
 20
1.126840
 11
7.974120
 21
1.886280
 12
7.990840
 22
1.116280
 13
7.991720
 23
1.875280
  0
POLYLINE
  8
0
  6
CONTINUOUS
 66
     1
 40
0.000000
 41
0.000000
  0
VERTEX
  8
0
  6
CONTINUOUS
 10
7.973240
 20
1.126840
  0
VERTEX
  8
0
  6
CONTINUOUS
 10
7.974120
 20
1.886280
  0
VERTEX
  8
0
  6
CONTINUOUS
 10
7.991720
 20
1.875280
  0
VERTEX
  8
0
  6
CONTINUOUS
 10
7.990840
 20
1.116280
  0
VERTEX
  8
0
  6
CONTINUOUS
 10
7.973240
 20
1.126840
  0
SEQEND
  8
0
  0
SOLID
  8
0
 62
    15
 10
7.990840
 20
1.116280
 11
7.991720
 21
1.875280
 12
8.006680
 22
1.109680
 13
8.007560
 23
1.868680
  0
POLYLINE
  8
0
  6
CONTINUOUS
 66
     1
 40
0.000000
 41
0.000000
  0
VERTEX
  8
0
  6
CONTINUOUS
 10
7.990840
 20
1.116280
  0
VERTEX
  8
0
  6
CONTINUOUS
 10
7.991720
 20
1.875280
  0
VERTEX
  8
0
  6
CONTINUOUS
 10
8.007560
 20
1.868680
  0
VERTEX
  8
0
  6
CONTINUOUS
 10
8.006680
 20
1.109680
  0
VERTEX
  8
0
  6
CONTINUOUS
 10
7.990840
 20
1.116280
  0
SEQEND
  8
0
  0
SOLID
  8
0
 62
    15
 10
8.006680
 20
0.982080
 11
8.007560
 21
1.741080
 12
8.006680
 22
0.950400
 13
8.007560
 23
1.709400
  0
POLYLINE
  8
0
  6
CONTINUOUS
 66
     1
 40
0.000000
 41
0.000000
  0
VERTEX
  8
0
  6
CONTINUOUS
 10
8.006680
 20
0.982080
  0
VERTEX
  8
0
  6
CONTINUOUS
 10
8.007560
 20
1.741080
  0
VERTEX
  8
0
  6
CONTINUOUS
 10
8.007560
 20
1.709400
  0
VERTEX
  8
0
  6
CONTINUOUS
 10
8.006680
 20
0.950400
  0
VERTEX
  8
0
  6
CONTINUOUS
 10
8.006680
 20
0.982080
  0
SEQEND
  8
0
  0
POLYLINE
  8
0
  6
CONTINUOUS
 66
     1
 40
0.000000
 41
0.000000
  0
VERTEX
  8
0
  6
CONTINUOUS
 10
8.006680
 20
0.982080
  0
VERTEX
  8
0
  6
CONTINUOUS
 10
8.006680
 20
0.950400
  0
VERTEX
  8
0
  6
CONTINUOUS
 10
3.878600
 20
0.950400
  0
VERTEX
  8
0
  6
CONTINUOUS
 10
3.878600
 20
1.144880
  0
VERTEX
  8
0
  6
CONTINUOUS
 10
3.916000
 20
1.144880
  0
VERTEX
  8
0
  6
CONTINUOUS
 10
3.949000
 20
1.149720
  0
VERTEX
  8
0
  6
CONTINUOUS
 10
3.977600
 20
1.159840
  0
VERTEX
  8
0
  6
CONTINUOUS
 10
4.001800
 20
1.175240
  0
VERTEX
  8
0
  6
CONTINUOUS
 10
4.022040
 20
1.197680
  0
VERTEX
  8
0
  6
CONTINUOUS
 10
4.039200
 20
1.226720
  0
VERTEX
  8
0
  6
CONTINUOUS
 10
4.052840
 20
1.264120
  0
VERTEX
  8
0
  6
CONTINUOUS
 10
4.064280
 20
1.309440
  0
VERTEX
  8
0
  6
CONTINUOUS
 10
4.134680
 20
1.309440
  0
VERTEX
  8
0
  6
CONTINUOUS
 10
4.137320
 20
1.312080
  0
VERTEX
  8
0
  6
CONTINUOUS
 10
4.151840
 20
1.649120
  0
VERTEX
  8
0
  6
CONTINUOUS
 10
4.154040
 20
1.674200
  0
VERTEX
  8
0
  6
CONTINUOUS
 10
4.161960
 20
1.689600
  0
VERTEX
  8
0
  6
CONTINUOUS
 10
4.177800
 20
1.697960
  0
VERTEX
  8
0
  6
CONTINUOUS
 10
4.202440
 20
1.700160
  0
VERTEX
  8
0
  6
CONTINUOUS
 10
4.516160
 20
1.697080
  0
VERTEX
  8
0
  6
CONTINUOUS
 10
4.545640
 20
1.662320
  0
VERTEX
  8
0
  6
CONTINUOUS
 10
4.626160
 20
1.662320
  0
VERTEX
  8
0
  6
CONTINUOUS
 10
4.640240
 20
1.627560
  0
VERTEX
  8
0
  6
CONTINUOUS
 10
4.658280
 20
1.596760
  0
VERTEX
  8
0
  6
CONTINUOUS
 10
4.678960
 20
1.569480
  0
VERTEX
  8
0
  6
CONTINUOUS
 10
4.703160
 20
1.545720
  0
VERTEX
  8
0
  6
CONTINUOUS
 10
4.729560
 20
1.525040
  0
VERTEX
  8
0
  6
CONTINUOUS
 10
4.758600
 20
1.507000
  0
VERTEX
  8
0
  6
CONTINUOUS
 10
4.821960
 20
1.479280
  0
VERTEX
  8
0
  6
CONTINUOUS
 10
4.890160
 20
1.459920
  0
VERTEX
  8
0
  6
CONTINUOUS
 10
4.960560
 20
1.448040
  0
VERTEX
  8
0
  6
CONTINUOUS
 10
5.030080
 20
1.441000
  0
VERTEX
  8
0
  6
CONTINUOUS
 10
5.096080
 20
1.437040
  0
VERTEX
  8
0
  6
CONTINUOUS
 10
5.102240
 20
1.464760
  0
VERTEX
  8
0
  6
CONTINUOUS
 10
5.111040
 20
1.488080
  0
VERTEX
  8
0
  6
CONTINUOUS
 10
5.122040
 20
1.507440
  0
VERTEX
  8
0
  6
CONTINUOUS
 10
5.135240
 20
1.522400
  0
VERTEX
  8
0
  6
CONTINUOUS
 10
5.149760
 20
1.533400
  0
VERTEX
  8
0
  6
CONTINUOUS
 10
5.165160
 20
1.540440
  0
VERTEX
  8
0
  6
CONTINUOUS
 10
5.197720
 20
1.544400
  0
VERTEX
  8
0
  6
CONTINUOUS
 10
5.229400
 20
1.534280
  0
VERTEX
  8
0
  6
CONTINUOUS
 10
5.257120
 20
1.511840
  0
VERTEX
  8
0
  6
CONTINUOUS
 10
5.277360
 20
1.478400
  0
VERTEX
  8
0
  6
CONTINUOUS
 10
5.283960
 20
1.457720
  0
VERTEX
  8
0
  6
CONTINUOUS
 10
5.287040
 20
1.434400
  0
VERTEX
  8
0
  6
CONTINUOUS
 10
5.489440
 20
1.434400
  0
VERTEX
  8
0
  6
CONTINUOUS
 10
5.507040
 20
1.340240
  0
VERTEX
  8
0
  6
CONTINUOUS
 10
7.059800
 20
1.340240
  0
VERTEX
  8
0
  6
CONTINUOUS
 10
7.063320
 20
1.367520
  0
VERTEX
  8
0
  6
CONTINUOUS
 10
7.070360
 20
1.391280
  0
VERTEX
  8
0
  6
CONTINUOUS
 10
7.079600
 20
1.411960
  0
VERTEX
  8
0
  6
CONTINUOUS
 10
7.091480
 20
1.429560
  0
VERTEX
  8
0
  6
CONTINUOUS
 10
7.105120
 20
1.443640
  0
VERTEX
  8
0
  6
CONTINUOUS
 10
7.120080
 20
1.454200
  0
VERTEX
  8
0
  6
CONTINUOUS
 10
7.136360
 20
1.460800
  0
VERTEX
  8
0
  6
CONTINUOUS
 10
7.152640
 20
1.463880
  0
VERTEX
  8
0
  6
CONTINUOUS
 10
7.169360
 20
1.463000
  0
VERTEX
  8
0
  6
CONTINUOUS
 10
7.186080
 20
1.458160
  0
VERTEX
  8
0
  6
CONTINUOUS
 10
7.201920
 20
1.449360
  0
VERTEX
  8
0
  6
CONTINUOUS
 10
7.216440
 20
1.436160
  0
VERTEX
  8
0
  6
CONTINUOUS
 10
7.229200
 20
1.418560
  0
VERTEX
  8
0
  6
CONTINUOUS
 10
7.240640
 20
1.396560
  0
VERTEX
  8
0
  6
CONTINUOUS
 10
7.249000
 20
1.370160
  0
VERTEX
  8
0
  6
CONTINUOUS
 10
7.255160
 20
1.338920
  0
VERTEX
  8
0
  6
CONTINUOUS
 10
7.447440
 20
1.338920
  0
VERTEX
  8
0
  6
CONTINUOUS
 10
7.481320
 20
1.254880
  0
VERTEX
  8
0
  6
CONTINUOUS
 10
7.893160
 20
1.247400
  0
VERTEX
  8
0
  6
CONTINUOUS
 10
7.899320
 20
1.224080
  0
VERTEX
  8
0
  6
CONTINUOUS
 10
7.909880
 20
1.201200
  0
VERTEX
  8
0
  6
CONTINUOUS
 10
7.938920
 20
1.159400
  0
VERTEX
  8
0
  6
CONTINUOUS
 10
7.973240
 20
1.126840
  0
VERTEX
  8
0
  6
CONTINUOUS
 10
7.990840
 20
1.116280
  0
VERTEX
  8
0
  6
CONTINUOUS
 10
8.006680
 20
1.109680
  0
VERTEX
  8
0
  6
CONTINUOUS
 10
8.006680
 20
0.969320
  0
VERTEX
  8
0
  6
CONTINUOUS
 10
8.006680
 20
0.982080
  0
SEQEND
  8
0
  0
TEXT
  8
0
 10
5.647840
 20
0.720720
 40
0.138213
  1
BA  631
 41
1.000000
  7
SN0
 71
     0
 72
     5
 11
6.237702
 21
0.720720
  0
TEXT
  8
0
 10
5.492080
 20
0.529320
 40
0.138213
  1
3/4" x 4-1/8"
 41
1.000000
  7
SN0
 71
     0
 72
     5
 11
6.391677
 21
0.529320
  0
ENDSEC
  0
EOF
