  0
SECTION
  2
HEADER
  9
$ACADVER
  1
AC1006
  9
$EXTMIN
 10
3.134120
 20
0.454080
  9
$EXTMAX
 10
7.886560
 20
4.433000
  9
$LTSCALE
 40
0.044000
  9
$PDMODE
 70
    35
  9
$PDSIZE
 40
0.035200
  0
ENDSEC
  0
SECTION
  2
TABLES
  0
TABLE
  2
LTYPE
 70
     9
  0
LTYPE
  2
CONTINUOUS
 70
    64
  3
Solid line
 72
    65
 73
     0
 40
0.000000
  0
LTYPE
  2
DASHED
 70
    64
  3
__ __ __ __ __ __ __ __ __ __ __ __ __ __ __
 72
    65
 73
     2
 40
0.000330
 49
0.000220
 49
-0.000110
  0
LTYPE
  2
HIDDEN
 70
    64
  3
 _ _ _ _ _ _ _ _ _ _ _ _ _ _ _ _ _ _ _ _ _ _
 72
    65
 73
     2
 40
0.000165
 49
0.000110
 49
-0.000055
  0
LTYPE
  2
CENTER
 70
    64
  3
____ _ ____ _ ____ _ ____ _ ____ _ ____ _ ____
 72
    65
 73
     4
 40
0.000880
 49
0.000550
 49
-0.000110
 49
0.000110
 49
-0.000110
  0
LTYPE
  2
PHANTOM
 70
    64
  3
_____ _ _ _____ _ _ _____ _ _ _____ _ _ ____
 72
    65
 73
     6
 40
0.001100
 49
0.000550
 49
-0.000110
 49
0.000110
 49
-0.000110
 49
0.000110
 49
-0.000110
  0
LTYPE
  2
DOT
 70
    64
  3
...............................................
 72
    65
 73
     2
 40
0.000110
 49
0.000000
 49
-0.000110
  0
LTYPE
  2
DASHDOT
 70
    64
  3
__ . __ . __ . __ . __ . __ . __ . __ . __ . __
 72
    65
 73
     4
 40
0.000440
 49
0.000220
 49
-0.000110
 49
0.000000
 49
-0.000110
  0
LTYPE
  2
BORDER
 70
    64
  3
__ __ . __ __ . __ __ . __ __ . __ __ . __ __
 72
    65
 73
     6
 40
0.000770
 49
0.000220
 49
-0.000110
 49
0.000220
 49
-0.000110
 49
0.000000
 49
-0.000110
  0
LTYPE
  2
DIVIDE
 70
    64
  3
__ . . __ . . __ . . __ . . __ . . __ . . __
 72
    65
 73
     6
 40
0.000550
 49
0.000220
 49
-0.000110
 49
0.000000
 49
-0.000110
 49
0.000000
 49
-0.000110
  0
LTYPE
  2
DOTDOT
 70
    64
  3
 . .  . .  . .  . .  . .  . . 
 72
    65
 73
     5
 40
0.000242
 49
-0.000110
 49
0.000000
 49
-0.000110
 49
0.000000
 49
-0.000110
  0
ENDTAB
  0
TABLE
  2
STYLE
 70
     2
  0
STYLE
 70
     0
  2
SN0
 40
0.000000
 41
0.000440
 50
0.000000
 71
     0
 42
0.000000
  3
ROMAND
  0
STYLE
 70
    68
  2
SV0
 40
0.000000
 41
0.000440
 50
0.000000
 71
     0
 42
0.000000
  3
ROMAND
  0
ENDTAB
  0
TABLE
  2
LAYER
 70
     3
  0
LAYER
  2
FOREGROUND
 70
    64
 62
     7
  6
CONTINUOUS
  0
LAYER
  2
BACKGROUND
 70
    65
 62
    -7
  6
CONTINUOUS
  0
LAYER
  2
0
 70
    64
 62
     7
  6
CONTINUOUS
  0
ENDTAB
  0
ENDSEC
  0
SECTION
  2
ENTITIES
  0
POLYLINE
  8
FOREGROUND
  6
CONTINUOUS
 66
     1
 40
0.000000
 41
0.000000
  0
VERTEX
  8
FOREGROUND
  6
CONTINUOUS
 10
0.000000
 20
4.887080
  0
VERTEX
  8
FOREGROUND
  6
CONTINUOUS
 10
8.499920
 20
4.887080
  0
VERTEX
  8
FOREGROUND
  6
CONTINUOUS
 10
8.499920
 20
-6.112920
  0
VERTEX
  8
FOREGROUND
  6
CONTINUOUS
 10
0.000000
 20
-6.112920
  0
VERTEX
  8
FOREGROUND
  6
CONTINUOUS
 10
0.000000
 20
4.887080
  0
SEQEND
  8
0
  0
POLYLINE
  8
FOREGROUND
  6
CONTINUOUS
 66
     1
 40
0.000000
 41
0.000000
  0
VERTEX
  8
FOREGROUND
  6
CONTINUOUS
 10
0.000000
 20
4.887080
  0
VERTEX
  8
FOREGROUND
  6
CONTINUOUS
 10
8.499920
 20
4.887080
  0
VERTEX
  8
FOREGROUND
  6
CONTINUOUS
 10
8.499920
 20
-6.112920
  0
VERTEX
  8
FOREGROUND
  6
CONTINUOUS
 10
0.000000
 20
-6.112920
  0
VERTEX
  8
FOREGROUND
  6
CONTINUOUS
 10
0.000000
 20
4.887080
  0
SEQEND
  8
0
  0
POLYLINE
  8
0
  6
CONTINUOUS
 66
     1
 40
0.014080
 41
0.014080
  0
VERTEX
  8
0
  6
CONTINUOUS
 10
6.244040
 20
4.314200
  0
VERTEX
  8
0
  6
CONTINUOUS
 10
6.608800
 20
4.314200
  0
VERTEX
  8
0
  6
CONTINUOUS
 10
6.608800
 20
4.133800
  0
VERTEX
  8
0
  6
CONTINUOUS
 10
6.801960
 20
4.133800
  0
VERTEX
  8
0
  6
CONTINUOUS
 10
6.804160
 20
4.059880
  0
VERTEX
  8
0
  6
CONTINUOUS
 10
6.810760
 20
3.982000
  0
VERTEX
  8
0
  6
CONTINUOUS
 10
6.820880
 20
3.923040
  0
VERTEX
  8
0
  6
CONTINUOUS
 10
6.831000
 20
3.884760
  0
VERTEX
  8
0
  6
CONTINUOUS
 10
6.845080
 20
3.847800
  0
VERTEX
  8
0
  6
CONTINUOUS
 10
6.862680
 20
3.812600
  0
VERTEX
  8
0
  6
CONTINUOUS
 10
6.884680
 20
3.779160
  0
VERTEX
  8
0
  6
CONTINUOUS
 10
6.911960
 20
3.748800
  0
VERTEX
  8
0
  6
CONTINUOUS
 10
6.944960
 20
3.721520
  0
VERTEX
  8
0
  6
CONTINUOUS
 10
6.963440
 20
3.709200
  0
VERTEX
  8
0
  6
CONTINUOUS
 10
7.005680
 20
3.687640
  0
VERTEX
  8
0
  6
CONTINUOUS
 10
7.029000
 20
3.678400
  0
VERTEX
  8
0
  6
CONTINUOUS
 10
7.054520
 20
3.670480
  0
VERTEX
  8
0
  6
CONTINUOUS
 10
7.081800
 20
3.663880
  0
VERTEX
  8
0
  6
CONTINUOUS
 10
7.142080
 20
3.654200
  0
VERTEX
  8
0
  6
CONTINUOUS
 10
7.175080
 20
3.651560
  0
VERTEX
  8
0
  6
CONTINUOUS
 10
7.175080
 20
3.542440
  0
VERTEX
  8
0
  6
CONTINUOUS
 10
7.222600
 20
3.535840
  0
VERTEX
  8
0
  6
CONTINUOUS
 10
7.267480
 20
3.524840
  0
VERTEX
  8
0
  6
CONTINUOUS
 10
7.309720
 20
3.510320
  0
VERTEX
  8
0
  6
CONTINUOUS
 10
7.349760
 20
3.491840
  0
VERTEX
  8
0
  6
CONTINUOUS
 10
7.386720
 20
3.470280
  0
VERTEX
  8
0
  6
CONTINUOUS
 10
7.420600
 20
3.445640
  0
VERTEX
  8
0
  6
CONTINUOUS
 10
7.451840
 20
3.417920
  0
VERTEX
  8
0
  6
CONTINUOUS
 10
7.480000
 20
3.387120
  0
VERTEX
  8
0
  6
CONTINUOUS
 10
7.493200
 20
3.371280
  0
VERTEX
  8
0
  6
CONTINUOUS
 10
7.516520
 20
3.336960
  0
VERTEX
  8
0
  6
CONTINUOUS
 10
7.537200
 20
3.300440
  0
VERTEX
  8
0
  6
CONTINUOUS
 10
7.561840
 20
3.241920
  0
VERTEX
  8
0
  6
CONTINUOUS
 10
7.574160
 20
3.200560
  0
VERTEX
  8
0
  6
CONTINUOUS
 10
7.582960
 20
3.157880
  0
VERTEX
  8
0
  6
CONTINUOUS
 10
7.588240
 20
3.113880
  0
VERTEX
  8
0
  6
CONTINUOUS
 10
7.590000
 20
3.068560
  0
VERTEX
  8
0
  6
CONTINUOUS
 10
3.475120
 20
3.068560
  0
VERTEX
  8
0
  6
CONTINUOUS
 10
3.475120
 20
4.425520
  0
VERTEX
  8
0
  6
CONTINUOUS
 10
6.240960
 20
4.425520
  0
VERTEX
  8
0
  6
CONTINUOUS
 10
6.240960
 20
4.314200
  0
VERTEX
  8
0
  6
CONTINUOUS
 10
6.244040
 20
4.314200
  0
SEQEND
  8
0
  0
SOLID
  8
0
 62
    15
 10
6.770280
 20
2.042920
 11
7.406960
 21
1.682120
 12
6.834520
 22
2.049960
 13
7.471200
 23
1.688720
  0
POLYLINE
  8
0
  6
CONTINUOUS
 66
     1
 40
0.000000
 41
0.000000
  0
VERTEX
  8
0
  6
CONTINUOUS
 10
6.770280
 20
2.042920
  0
VERTEX
  8
0
  6
CONTINUOUS
 10
7.406960
 20
1.682120
  0
VERTEX
  8
0
  6
CONTINUOUS
 10
7.471200
 20
1.688720
  0
VERTEX
  8
0
  6
CONTINUOUS
 10
6.834520
 20
2.049960
  0
VERTEX
  8
0
  6
CONTINUOUS
 10
6.770280
 20
2.042920
  0
SEQEND
  8
0
  0
SOLID
  8
0
 62
    15
 10
6.268680
 20
1.387320
 11
6.904920
 21
1.026080
 12
6.268680
 22
1.567720
 13
6.904920
 23
1.206480
  0
POLYLINE
  8
0
  6
CONTINUOUS
 66
     1
 40
0.000000
 41
0.000000
  0
VERTEX
  8
0
  6
CONTINUOUS
 10
6.268680
 20
1.387320
  0
VERTEX
  8
0
  6
CONTINUOUS
 10
6.904920
 20
1.026080
  0
VERTEX
  8
0
  6
CONTINUOUS
 10
6.904920
 20
1.206480
  0
VERTEX
  8
0
  6
CONTINUOUS
 10
6.268680
 20
1.567720
  0
VERTEX
  8
0
  6
CONTINUOUS
 10
6.268680
 20
1.387320
  0
SEQEND
  8
0
  0
SOLID
  8
0
 62
    15
 10
6.268680
 20
1.567720
 11
6.904920
 21
1.206480
 12
6.461400
 22
1.567720
 13
7.098080
 23
1.206480
  0
POLYLINE
  8
0
  6
CONTINUOUS
 66
     1
 40
0.000000
 41
0.000000
  0
VERTEX
  8
0
  6
CONTINUOUS
 10
6.268680
 20
1.567720
  0
VERTEX
  8
0
  6
CONTINUOUS
 10
6.904920
 20
1.206480
  0
VERTEX
  8
0
  6
CONTINUOUS
 10
7.098080
 20
1.206480
  0
VERTEX
  8
0
  6
CONTINUOUS
 10
6.461400
 20
1.567720
  0
VERTEX
  8
0
  6
CONTINUOUS
 10
6.268680
 20
1.567720
  0
SEQEND
  8
0
  0
SOLID
  8
0
 62
    15
 10
6.461400
 20
1.567720
 11
7.098080
 21
1.206480
 12
6.470200
 22
1.719520
 13
7.106880
 23
1.358720
  0
POLYLINE
  8
0
  6
CONTINUOUS
 66
     1
 40
0.000000
 41
0.000000
  0
VERTEX
  8
0
  6
CONTINUOUS
 10
6.461400
 20
1.567720
  0
VERTEX
  8
0
  6
CONTINUOUS
 10
7.098080
 20
1.206480
  0
VERTEX
  8
0
  6
CONTINUOUS
 10
7.106880
 20
1.358720
  0
VERTEX
  8
0
  6
CONTINUOUS
 10
6.470200
 20
1.719520
  0
VERTEX
  8
0
  6
CONTINUOUS
 10
6.461400
 20
1.567720
  0
SEQEND
  8
0
  0
SOLID
  8
0
 62
    15
 10
6.470200
 20
1.719520
 11
7.106880
 21
1.358720
 12
6.485160
 22
1.797400
 13
7.121400
 23
1.436600
  0
POLYLINE
  8
0
  6
CONTINUOUS
 66
     1
 40
0.000000
 41
0.000000
  0
VERTEX
  8
0
  6
CONTINUOUS
 10
6.470200
 20
1.719520
  0
VERTEX
  8
0
  6
CONTINUOUS
 10
7.106880
 20
1.358720
  0
VERTEX
  8
0
  6
CONTINUOUS
 10
7.121400
 20
1.436600
  0
VERTEX
  8
0
  6
CONTINUOUS
 10
6.485160
 20
1.797400
  0
VERTEX
  8
0
  6
CONTINUOUS
 10
6.470200
 20
1.719520
  0
SEQEND
  8
0
  0
SOLID
  8
0
 62
    15
 10
6.485160
 20
1.797400
 11
7.121400
 21
1.436600
 12
6.512880
 22
1.871760
 13
7.149120
 23
1.510520
  0
POLYLINE
  8
0
  6
CONTINUOUS
 66
     1
 40
0.000000
 41
0.000000
  0
VERTEX
  8
0
  6
CONTINUOUS
 10
6.485160
 20
1.797400
  0
VERTEX
  8
0
  6
CONTINUOUS
 10
7.121400
 20
1.436600
  0
VERTEX
  8
0
  6
CONTINUOUS
 10
7.149120
 20
1.510520
  0
VERTEX
  8
0
  6
CONTINUOUS
 10
6.512880
 20
1.871760
  0
VERTEX
  8
0
  6
CONTINUOUS
 10
6.485160
 20
1.797400
  0
SEQEND
  8
0
  0
SOLID
  8
0
 62
    15
 10
6.512880
 20
1.871760
 11
7.149120
 21
1.510520
 12
6.557320
 22
1.937760
 13
7.193560
 23
1.576960
  0
POLYLINE
  8
0
  6
CONTINUOUS
 66
     1
 40
0.000000
 41
0.000000
  0
VERTEX
  8
0
  6
CONTINUOUS
 10
6.512880
 20
1.871760
  0
VERTEX
  8
0
  6
CONTINUOUS
 10
7.149120
 20
1.510520
  0
VERTEX
  8
0
  6
CONTINUOUS
 10
7.193560
 20
1.576960
  0
VERTEX
  8
0
  6
CONTINUOUS
 10
6.557320
 20
1.937760
  0
VERTEX
  8
0
  6
CONTINUOUS
 10
6.512880
 20
1.871760
  0
SEQEND
  8
0
  0
SOLID
  8
0
 62
    15
 10
6.557320
 20
1.937760
 11
7.193560
 21
1.576960
 12
6.587240
 22
1.966800
 13
7.223920
 23
1.605560
  0
POLYLINE
  8
0
  6
CONTINUOUS
 66
     1
 40
0.000000
 41
0.000000
  0
VERTEX
  8
0
  6
CONTINUOUS
 10
6.557320
 20
1.937760
  0
VERTEX
  8
0
  6
CONTINUOUS
 10
7.193560
 20
1.576960
  0
VERTEX
  8
0
  6
CONTINUOUS
 10
7.223920
 20
1.605560
  0
VERTEX
  8
0
  6
CONTINUOUS
 10
6.587240
 20
1.966800
  0
VERTEX
  8
0
  6
CONTINUOUS
 10
6.557320
 20
1.937760
  0
SEQEND
  8
0
  0
SOLID
  8
0
 62
    15
 10
6.587240
 20
1.966800
 11
7.223920
 21
1.605560
 12
6.622880
 22
1.992320
 13
7.259560
 23
1.631080
  0
POLYLINE
  8
0
  6
CONTINUOUS
 66
     1
 40
0.000000
 41
0.000000
  0
VERTEX
  8
0
  6
CONTINUOUS
 10
6.587240
 20
1.966800
  0
VERTEX
  8
0
  6
CONTINUOUS
 10
7.223920
 20
1.605560
  0
VERTEX
  8
0
  6
CONTINUOUS
 10
7.259560
 20
1.631080
  0
VERTEX
  8
0
  6
CONTINUOUS
 10
6.622880
 20
1.992320
  0
VERTEX
  8
0
  6
CONTINUOUS
 10
6.587240
 20
1.966800
  0
SEQEND
  8
0
  0
SOLID
  8
0
 62
    15
 10
6.622880
 20
1.992320
 11
7.259560
 21
1.631080
 12
6.665120
 22
2.013440
 13
7.301360
 23
1.652640
  0
POLYLINE
  8
0
  6
CONTINUOUS
 66
     1
 40
0.000000
 41
0.000000
  0
VERTEX
  8
0
  6
CONTINUOUS
 10
6.622880
 20
1.992320
  0
VERTEX
  8
0
  6
CONTINUOUS
 10
7.259560
 20
1.631080
  0
VERTEX
  8
0
  6
CONTINUOUS
 10
7.301360
 20
1.652640
  0
VERTEX
  8
0
  6
CONTINUOUS
 10
6.665120
 20
2.013440
  0
VERTEX
  8
0
  6
CONTINUOUS
 10
6.622880
 20
1.992320
  0
SEQEND
  8
0
  0
SOLID
  8
0
 62
    15
 10
6.665120
 20
2.013440
 11
7.301360
 21
1.652640
 12
6.713960
 22
2.030600
 13
7.350640
 23
1.669800
  0
POLYLINE
  8
0
  6
CONTINUOUS
 66
     1
 40
0.000000
 41
0.000000
  0
VERTEX
  8
0
  6
CONTINUOUS
 10
6.665120
 20
2.013440
  0
VERTEX
  8
0
  6
CONTINUOUS
 10
7.301360
 20
1.652640
  0
VERTEX
  8
0
  6
CONTINUOUS
 10
7.350640
 20
1.669800
  0
VERTEX
  8
0
  6
CONTINUOUS
 10
6.713960
 20
2.030600
  0
VERTEX
  8
0
  6
CONTINUOUS
 10
6.665120
 20
2.013440
  0
SEQEND
  8
0
  0
SOLID
  8
0
 62
    15
 10
6.713960
 20
2.030600
 11
7.350640
 21
1.669800
 12
6.770280
 22
2.042920
 13
7.406960
 23
1.682120
  0
POLYLINE
  8
0
  6
CONTINUOUS
 66
     1
 40
0.000000
 41
0.000000
  0
VERTEX
  8
0
  6
CONTINUOUS
 10
6.713960
 20
2.030600
  0
VERTEX
  8
0
  6
CONTINUOUS
 10
7.350640
 20
1.669800
  0
VERTEX
  8
0
  6
CONTINUOUS
 10
7.406960
 20
1.682120
  0
VERTEX
  8
0
  6
CONTINUOUS
 10
6.770280
 20
2.042920
  0
VERTEX
  8
0
  6
CONTINUOUS
 10
6.713960
 20
2.030600
  0
SEQEND
  8
0
  0
SOLID
  8
0
 62
    15
 10
5.903480
 20
1.387320
 11
6.540160
 21
1.026080
 12
6.268680
 22
1.387320
 13
6.904920
 23
1.026080
  0
POLYLINE
  8
0
  6
CONTINUOUS
 66
     1
 40
0.000000
 41
0.000000
  0
VERTEX
  8
0
  6
CONTINUOUS
 10
5.903480
 20
1.387320
  0
VERTEX
  8
0
  6
CONTINUOUS
 10
6.540160
 20
1.026080
  0
VERTEX
  8
0
  6
CONTINUOUS
 10
6.904920
 20
1.026080
  0
VERTEX
  8
0
  6
CONTINUOUS
 10
6.268680
 20
1.387320
  0
VERTEX
  8
0
  6
CONTINUOUS
 10
5.903480
 20
1.387320
  0
SEQEND
  8
0
  0
SOLID
  8
0
 62
    15
 10
6.834520
 20
2.049960
 11
7.471200
 21
1.688720
 12
6.834520
 22
2.158640
 13
7.471200
 23
1.797840
  0
POLYLINE
  8
0
  6
CONTINUOUS
 66
     1
 40
0.000000
 41
0.000000
  0
VERTEX
  8
0
  6
CONTINUOUS
 10
6.834520
 20
2.049960
  0
VERTEX
  8
0
  6
CONTINUOUS
 10
7.471200
 20
1.688720
  0
VERTEX
  8
0
  6
CONTINUOUS
 10
7.471200
 20
1.797840
  0
VERTEX
  8
0
  6
CONTINUOUS
 10
6.834520
 20
2.158640
  0
VERTEX
  8
0
  6
CONTINUOUS
 10
6.834520
 20
2.049960
  0
SEQEND
  8
0
  0
SOLID
  8
0
 62
    15
 10
6.834520
 20
2.158640
 11
7.471200
 21
1.797840
 12
6.926920
 22
2.176240
 13
7.563600
 23
1.815440
  0
POLYLINE
  8
0
  6
CONTINUOUS
 66
     1
 40
0.000000
 41
0.000000
  0
VERTEX
  8
0
  6
CONTINUOUS
 10
6.834520
 20
2.158640
  0
VERTEX
  8
0
  6
CONTINUOUS
 10
7.471200
 20
1.797840
  0
VERTEX
  8
0
  6
CONTINUOUS
 10
7.563600
 20
1.815440
  0
VERTEX
  8
0
  6
CONTINUOUS
 10
6.926920
 20
2.176240
  0
VERTEX
  8
0
  6
CONTINUOUS
 10
6.834520
 20
2.158640
  0
SEQEND
  8
0
  0
SOLID
  8
0
 62
    15
 10
6.926920
 20
2.176240
 11
7.563600
 21
1.815440
 12
7.009200
 22
2.209240
 13
7.645880
 23
1.848440
  0
POLYLINE
  8
0
  6
CONTINUOUS
 66
     1
 40
0.000000
 41
0.000000
  0
VERTEX
  8
0
  6
CONTINUOUS
 10
6.926920
 20
2.176240
  0
VERTEX
  8
0
  6
CONTINUOUS
 10
7.563600
 20
1.815440
  0
VERTEX
  8
0
  6
CONTINUOUS
 10
7.645880
 20
1.848440
  0
VERTEX
  8
0
  6
CONTINUOUS
 10
7.009200
 20
2.209240
  0
VERTEX
  8
0
  6
CONTINUOUS
 10
6.926920
 20
2.176240
  0
SEQEND
  8
0
  0
SOLID
  8
0
 62
    15
 10
7.009200
 20
2.209240
 11
7.645880
 21
1.848440
 12
7.080040
 22
2.255440
 13
7.716720
 23
1.894640
  0
POLYLINE
  8
0
  6
CONTINUOUS
 66
     1
 40
0.000000
 41
0.000000
  0
VERTEX
  8
0
  6
CONTINUOUS
 10
7.009200
 20
2.209240
  0
VERTEX
  8
0
  6
CONTINUOUS
 10
7.645880
 20
1.848440
  0
VERTEX
  8
0
  6
CONTINUOUS
 10
7.716720
 20
1.894640
  0
VERTEX
  8
0
  6
CONTINUOUS
 10
7.080040
 20
2.255440
  0
VERTEX
  8
0
  6
CONTINUOUS
 10
7.009200
 20
2.209240
  0
SEQEND
  8
0
  0
SOLID
  8
0
 62
    15
 10
7.080040
 20
2.255440
 11
7.716720
 21
1.894640
 12
7.139440
 22
2.313960
 13
7.776120
 23
1.953160
  0
POLYLINE
  8
0
  6
CONTINUOUS
 66
     1
 40
0.000000
 41
0.000000
  0
VERTEX
  8
0
  6
CONTINUOUS
 10
7.080040
 20
2.255440
  0
VERTEX
  8
0
  6
CONTINUOUS
 10
7.716720
 20
1.894640
  0
VERTEX
  8
0
  6
CONTINUOUS
 10
7.776120
 20
1.953160
  0
VERTEX
  8
0
  6
CONTINUOUS
 10
7.139440
 20
2.313960
  0
VERTEX
  8
0
  6
CONTINUOUS
 10
7.080040
 20
2.255440
  0
SEQEND
  8
0
  0
SOLID
  8
0
 62
    15
 10
7.139440
 20
2.313960
 11
7.776120
 21
1.953160
 12
7.186960
 22
2.382600
 13
7.823640
 23
2.021360
  0
POLYLINE
  8
0
  6
CONTINUOUS
 66
     1
 40
0.000000
 41
0.000000
  0
VERTEX
  8
0
  6
CONTINUOUS
 10
7.139440
 20
2.313960
  0
VERTEX
  8
0
  6
CONTINUOUS
 10
7.776120
 20
1.953160
  0
VERTEX
  8
0
  6
CONTINUOUS
 10
7.823640
 20
2.021360
  0
VERTEX
  8
0
  6
CONTINUOUS
 10
7.186960
 20
2.382600
  0
VERTEX
  8
0
  6
CONTINUOUS
 10
7.139440
 20
2.313960
  0
SEQEND
  8
0
  0
SOLID
  8
0
 62
    15
 10
7.186960
 20
2.382600
 11
7.823640
 21
2.021360
 12
7.221280
 22
2.459600
 13
7.857960
 23
2.098800
  0
POLYLINE
  8
0
  6
CONTINUOUS
 66
     1
 40
0.000000
 41
0.000000
  0
VERTEX
  8
0
  6
CONTINUOUS
 10
7.186960
 20
2.382600
  0
VERTEX
  8
0
  6
CONTINUOUS
 10
7.823640
 20
2.021360
  0
VERTEX
  8
0
  6
CONTINUOUS
 10
7.857960
 20
2.098800
  0
VERTEX
  8
0
  6
CONTINUOUS
 10
7.221280
 20
2.459600
  0
VERTEX
  8
0
  6
CONTINUOUS
 10
7.186960
 20
2.382600
  0
SEQEND
  8
0
  0
SOLID
  8
0
 62
    15
 10
7.221280
 20
2.459600
 11
7.857960
 21
2.098800
 12
7.242400
 22
2.543640
 13
7.879080
 23
2.182400
  0
POLYLINE
  8
0
  6
CONTINUOUS
 66
     1
 40
0.000000
 41
0.000000
  0
VERTEX
  8
0
  6
CONTINUOUS
 10
7.221280
 20
2.459600
  0
VERTEX
  8
0
  6
CONTINUOUS
 10
7.857960
 20
2.098800
  0
VERTEX
  8
0
  6
CONTINUOUS
 10
7.879080
 20
2.182400
  0
VERTEX
  8
0
  6
CONTINUOUS
 10
7.242400
 20
2.543640
  0
VERTEX
  8
0
  6
CONTINUOUS
 10
7.221280
 20
2.459600
  0
SEQEND
  8
0
  0
SOLID
  8
0
 62
    15
 10
7.242400
 20
2.543640
 11
7.879080
 21
2.182400
 12
7.249880
 22
2.632520
 13
7.886120
 23
2.271720
  0
POLYLINE
  8
0
  6
CONTINUOUS
 66
     1
 40
0.000000
 41
0.000000
  0
VERTEX
  8
0
  6
CONTINUOUS
 10
7.242400
 20
2.543640
  0
VERTEX
  8
0
  6
CONTINUOUS
 10
7.879080
 20
2.182400
  0
VERTEX
  8
0
  6
CONTINUOUS
 10
7.886120
 20
2.271720
  0
VERTEX
  8
0
  6
CONTINUOUS
 10
7.249880
 20
2.632520
  0
VERTEX
  8
0
  6
CONTINUOUS
 10
7.242400
 20
2.543640
  0
SEQEND
  8
0
  0
SOLID
  8
0
 62
    15
 10
3.134560
 20
1.276000
 11
3.771240
 21
0.915200
 12
5.900400
 22
1.276000
 13
6.537080
 23
0.915200
  0
POLYLINE
  8
0
  6
CONTINUOUS
 66
     1
 40
0.000000
 41
0.000000
  0
VERTEX
  8
0
  6
CONTINUOUS
 10
3.134560
 20
1.276000
  0
VERTEX
  8
0
  6
CONTINUOUS
 10
3.771240
 20
0.915200
  0
VERTEX
  8
0
  6
CONTINUOUS
 10
6.537080
 20
0.915200
  0
VERTEX
  8
0
  6
CONTINUOUS
 10
5.900400
 20
1.276000
  0
VERTEX
  8
0
  6
CONTINUOUS
 10
3.134560
 20
1.276000
  0
SEQEND
  8
0
  0
SOLID
  8
0
 62
    15
 10
5.900400
 20
1.276000
 11
6.537080
 21
0.915200
 12
5.900400
 22
1.387320
 13
6.537080
 23
1.026080
  0
POLYLINE
  8
0
  6
CONTINUOUS
 66
     1
 40
0.000000
 41
0.000000
  0
VERTEX
  8
0
  6
CONTINUOUS
 10
5.900400
 20
1.276000
  0
VERTEX
  8
0
  6
CONTINUOUS
 10
6.537080
 20
0.915200
  0
VERTEX
  8
0
  6
CONTINUOUS
 10
6.537080
 20
1.026080
  0
VERTEX
  8
0
  6
CONTINUOUS
 10
5.900400
 20
1.387320
  0
VERTEX
  8
0
  6
CONTINUOUS
 10
5.900400
 20
1.276000
  0
SEQEND
  8
0
  0
SOLID
  8
0
 62
    15
 10
5.900400
 20
1.387320
 11
6.537080
 21
1.026080
 12
5.903480
 22
1.387320
 13
6.540160
 23
1.026080
  0
POLYLINE
  8
0
  6
CONTINUOUS
 66
     1
 40
0.000000
 41
0.000000
  0
VERTEX
  8
0
  6
CONTINUOUS
 10
5.900400
 20
1.387320
  0
VERTEX
  8
0
  6
CONTINUOUS
 10
6.537080
 20
1.026080
  0
VERTEX
  8
0
  6
CONTINUOUS
 10
6.540160
 20
1.026080
  0
VERTEX
  8
0
  6
CONTINUOUS
 10
5.903480
 20
1.387320
  0
VERTEX
  8
0
  6
CONTINUOUS
 10
5.900400
 20
1.387320
  0
SEQEND
  8
0
  0
POLYLINE
  8
0
  6
CONTINUOUS
 66
     1
 40
0.000000
 41
0.000000
  0
VERTEX
  8
0
  6
CONTINUOUS
 10
5.903480
 20
1.387320
  0
VERTEX
  8
0
  6
CONTINUOUS
 10
6.268680
 20
1.387320
  0
VERTEX
  8
0
  6
CONTINUOUS
 10
6.268680
 20
1.567720
  0
VERTEX
  8
0
  6
CONTINUOUS
 10
6.461400
 20
1.567720
  0
VERTEX
  8
0
  6
CONTINUOUS
 10
6.470200
 20
1.719520
  0
VERTEX
  8
0
  6
CONTINUOUS
 10
6.485160
 20
1.797400
  0
VERTEX
  8
0
  6
CONTINUOUS
 10
6.512880
 20
1.871760
  0
VERTEX
  8
0
  6
CONTINUOUS
 10
6.557320
 20
1.937760
  0
VERTEX
  8
0
  6
CONTINUOUS
 10
6.587240
 20
1.966800
  0
VERTEX
  8
0
  6
CONTINUOUS
 10
6.622880
 20
1.992320
  0
VERTEX
  8
0
  6
CONTINUOUS
 10
6.665120
 20
2.013440
  0
VERTEX
  8
0
  6
CONTINUOUS
 10
6.713960
 20
2.030600
  0
VERTEX
  8
0
  6
CONTINUOUS
 10
6.770280
 20
2.042920
  0
VERTEX
  8
0
  6
CONTINUOUS
 10
6.834520
 20
2.049960
  0
VERTEX
  8
0
  6
CONTINUOUS
 10
6.834520
 20
2.158640
  0
VERTEX
  8
0
  6
CONTINUOUS
 10
6.926920
 20
2.176240
  0
VERTEX
  8
0
  6
CONTINUOUS
 10
7.009200
 20
2.209240
  0
VERTEX
  8
0
  6
CONTINUOUS
 10
7.080040
 20
2.255440
  0
VERTEX
  8
0
  6
CONTINUOUS
 10
7.139440
 20
2.313960
  0
VERTEX
  8
0
  6
CONTINUOUS
 10
7.186960
 20
2.382600
  0
VERTEX
  8
0
  6
CONTINUOUS
 10
7.221280
 20
2.459600
  0
VERTEX
  8
0
  6
CONTINUOUS
 10
7.242400
 20
2.543640
  0
VERTEX
  8
0
  6
CONTINUOUS
 10
7.249880
 20
2.632520
  0
VERTEX
  8
0
  6
CONTINUOUS
 10
3.134560
 20
2.632520
  0
VERTEX
  8
0
  6
CONTINUOUS
 10
3.134560
 20
1.276000
  0
VERTEX
  8
0
  6
CONTINUOUS
 10
5.900400
 20
1.276000
  0
VERTEX
  8
0
  6
CONTINUOUS
 10
5.900400
 20
1.387320
  0
VERTEX
  8
0
  6
CONTINUOUS
 10
5.903480
 20
1.387320
  0
SEQEND
  8
0
  0
TEXT
  8
0
 10
5.214880
 20
0.688600
 40
0.138103
  1
BA  630
 41
1.000000
  7
SN0
 71
     0
 72
     5
 11
5.804895
 21
0.688600
  0
TEXT
  8
0
 10
4.985200
 20
0.497200
 40
0.138103
  1
1-3/8" x 4-1/8"
 41
1.000000
  7
SN0
 71
     0
 72
     5
 11
6.032638
 21
0.497200
  0
ENDSEC
  0
EOF
