  0
SECTION
  2
HEADER
  9
$ACADVER
  1
AC1006
  9
$EXTMIN
 10
2.299880
 20
3.495360
  9
$EXTMAX
 10
6.200040
 20
8.318200
  9
$LTSCALE
 40
0.044000
  9
$PDMODE
 70
    35
  9
$PDSIZE
 40
0.035200
  0
ENDSEC
  0
SECTION
  2
TABLES
  0
TABLE
  2
LTYPE
 70
     9
  0
LTYPE
  2
CONTINUOUS
 70
    64
  3
Solid line
 72
    65
 73
     0
 40
0.000000
  0
LTYPE
  2
DASHED
 70
    64
  3
__ __ __ __ __ __ __ __ __ __ __ __ __ __ __
 72
    65
 73
     2
 40
0.000330
 49
0.000220
 49
-0.000110
  0
LTYPE
  2
HIDDEN
 70
    64
  3
 _ _ _ _ _ _ _ _ _ _ _ _ _ _ _ _ _ _ _ _ _ _
 72
    65
 73
     2
 40
0.000165
 49
0.000110
 49
-0.000055
  0
LTYPE
  2
CENTER
 70
    64
  3
____ _ ____ _ ____ _ ____ _ ____ _ ____ _ ____
 72
    65
 73
     4
 40
0.000880
 49
0.000550
 49
-0.000110
 49
0.000110
 49
-0.000110
  0
LTYPE
  2
PHANTOM
 70
    64
  3
_____ _ _ _____ _ _ _____ _ _ _____ _ _ ____
 72
    65
 73
     6
 40
0.001100
 49
0.000550
 49
-0.000110
 49
0.000110
 49
-0.000110
 49
0.000110
 49
-0.000110
  0
LTYPE
  2
DOT
 70
    64
  3
...............................................
 72
    65
 73
     2
 40
0.000110
 49
0.000000
 49
-0.000110
  0
LTYPE
  2
DASHDOT
 70
    64
  3
__ . __ . __ . __ . __ . __ . __ . __ . __ . __
 72
    65
 73
     4
 40
0.000440
 49
0.000220
 49
-0.000110
 49
0.000000
 49
-0.000110
  0
LTYPE
  2
BORDER
 70
    64
  3
__ __ . __ __ . __ __ . __ __ . __ __ . __ __
 72
    65
 73
     6
 40
0.000770
 49
0.000220
 49
-0.000110
 49
0.000220
 49
-0.000110
 49
0.000000
 49
-0.000110
  0
LTYPE
  2
DIVIDE
 70
    64
  3
__ . . __ . . __ . . __ . . __ . . __ . . __
 72
    65
 73
     6
 40
0.000550
 49
0.000220
 49
-0.000110
 49
0.000000
 49
-0.000110
 49
0.000000
 49
-0.000110
  0
LTYPE
  2
DOTDOT
 70
    64
  3
 . .  . .  . .  . .  . .  . . 
 72
    65
 73
     5
 40
0.000242
 49
-0.000110
 49
0.000000
 49
-0.000110
 49
0.000000
 49
-0.000110
  0
ENDTAB
  0
TABLE
  2
STYLE
 70
     2
  0
STYLE
 70
     0
  2
SN0
 40
0.000000
 41
0.000440
 50
0.000000
 71
     0
 42
0.000000
  3
ROMAND
  0
STYLE
 70
    68
  2
SV0
 40
0.000000
 41
0.000440
 50
0.000000
 71
     0
 42
0.000000
  3
ROMAND
  0
ENDTAB
  0
TABLE
  2
LAYER
 70
     3
  0
LAYER
  2
FOREGROUND
 70
    64
 62
     7
  6
CONTINUOUS
  0
LAYER
  2
BACKGROUND
 70
    65
 62
    -7
  6
CONTINUOUS
  0
LAYER
  2
0
 70
    64
 62
     7
  6
CONTINUOUS
  0
ENDTAB
  0
ENDSEC
  0
SECTION
  2
ENTITIES
  0
POLYLINE
  8
FOREGROUND
  6
CONTINUOUS
 66
     1
 40
0.000000
 41
0.000000
  0
VERTEX
  8
FOREGROUND
  6
CONTINUOUS
 10
0.000000
 20
11.813560
  0
VERTEX
  8
FOREGROUND
  6
CONTINUOUS
 10
8.499920
 20
11.813560
  0
VERTEX
  8
FOREGROUND
  6
CONTINUOUS
 10
8.499920
 20
0.813560
  0
VERTEX
  8
FOREGROUND
  6
CONTINUOUS
 10
0.000000
 20
0.813560
  0
VERTEX
  8
FOREGROUND
  6
CONTINUOUS
 10
0.000000
 20
11.813560
  0
SEQEND
  8
0
  0
POLYLINE
  8
FOREGROUND
  6
CONTINUOUS
 66
     1
 40
0.000000
 41
0.000000
  0
VERTEX
  8
FOREGROUND
  6
CONTINUOUS
 10
0.000000
 20
11.813560
  0
VERTEX
  8
FOREGROUND
  6
CONTINUOUS
 10
8.499920
 20
11.813560
  0
VERTEX
  8
FOREGROUND
  6
CONTINUOUS
 10
8.499920
 20
0.813560
  0
VERTEX
  8
FOREGROUND
  6
CONTINUOUS
 10
0.000000
 20
0.813560
  0
VERTEX
  8
FOREGROUND
  6
CONTINUOUS
 10
0.000000
 20
11.813560
  0
SEQEND
  8
0
  0
POLYLINE
  8
0
  6
CONTINUOUS
 66
     1
 40
0.000000
 41
0.000000
  0
VERTEX
  8
0
  6
CONTINUOUS
 10
6.200040
 20
7.105560
  0
VERTEX
  8
0
  6
CONTINUOUS
 10
6.198720
 20
7.129760
  0
VERTEX
  8
0
  6
CONTINUOUS
 10
6.195640
 20
7.153080
  0
VERTEX
  8
0
  6
CONTINUOUS
 10
6.189920
 20
7.175080
  0
VERTEX
  8
0
  6
CONTINUOUS
 10
6.182440
 20
7.196640
  0
VERTEX
  8
0
  6
CONTINUOUS
 10
6.173200
 20
7.216880
  0
VERTEX
  8
0
  6
CONTINUOUS
 10
6.162200
 20
7.235800
  0
VERTEX
  8
0
  6
CONTINUOUS
 10
6.149440
 20
7.253840
  0
VERTEX
  8
0
  6
CONTINUOUS
 10
6.120400
 20
7.285520
  0
VERTEX
  8
0
  6
CONTINUOUS
 10
6.086080
 20
7.311480
  0
VERTEX
  8
0
  6
CONTINUOUS
 10
6.067600
 20
7.322480
  0
VERTEX
  8
0
  6
CONTINUOUS
 10
6.048240
 20
7.331720
  0
VERTEX
  8
0
  6
CONTINUOUS
 10
6.007760
 20
7.344480
  0
VERTEX
  8
0
  6
CONTINUOUS
 10
5.987080
 20
7.348440
  0
VERTEX
  8
0
  6
CONTINUOUS
 10
5.965960
 20
7.350200
  0
VERTEX
  8
0
  6
CONTINUOUS
 10
5.944400
 20
7.350200
  0
VERTEX
  8
0
  6
CONTINUOUS
 10
5.923280
 20
7.348000
  0
VERTEX
  8
0
  6
CONTINUOUS
 10
5.902160
 20
7.343600
  0
VERTEX
  8
0
  6
CONTINUOUS
 10
5.881040
 20
7.337000
  0
VERTEX
  8
0
  6
CONTINUOUS
 10
5.860360
 20
7.328200
  0
VERTEX
  8
0
  6
CONTINUOUS
 10
5.830880
 20
7.310600
  0
VERTEX
  8
0
  6
CONTINUOUS
 10
5.802720
 20
7.287720
  0
VERTEX
  8
0
  6
CONTINUOUS
 10
5.776320
 20
7.258680
  0
VERTEX
  8
0
  6
CONTINUOUS
 10
5.753000
 20
7.223920
  0
VERTEX
  8
0
  6
CONTINUOUS
 10
5.732320
 20
7.183000
  0
VERTEX
  8
0
  6
CONTINUOUS
 10
5.714720
 20
7.135040
  0
VERTEX
  8
0
  6
CONTINUOUS
 10
5.705480
 20
7.099840
  0
VERTEX
  8
0
  6
CONTINUOUS
 10
5.627600
 20
7.101160
  0
VERTEX
  8
0
  6
CONTINUOUS
 10
5.569960
 20
7.107320
  0
VERTEX
  8
0
  6
CONTINUOUS
 10
5.531240
 20
7.114360
  0
VERTEX
  8
0
  6
CONTINUOUS
 10
5.492080
 20
7.124480
  0
VERTEX
  8
0
  6
CONTINUOUS
 10
5.452920
 20
7.138560
  0
VERTEX
  8
0
  6
CONTINUOUS
 10
5.413760
 20
7.157040
  0
VERTEX
  8
0
  6
CONTINUOUS
 10
5.373720
 20
7.179920
  0
VERTEX
  8
0
  6
CONTINUOUS
 10
5.333240
 20
7.208520
  0
VERTEX
  8
0
  6
CONTINUOUS
 10
5.292320
 20
7.242400
  0
VERTEX
  8
0
  6
CONTINUOUS
 10
5.250960
 20
7.282880
  0
VERTEX
  8
0
  6
CONTINUOUS
 10
5.208720
 20
7.329960
  0
VERTEX
  8
0
  6
CONTINUOUS
 10
5.165160
 20
7.384520
  0
VERTEX
  8
0
  6
CONTINUOUS
 10
5.121160
 20
7.447000
  0
VERTEX
  8
0
  6
CONTINUOUS
 10
5.075840
 20
7.517400
  0
VERTEX
  8
0
  6
CONTINUOUS
 10
5.017320
 20
7.612440
  0
VERTEX
  8
0
  6
CONTINUOUS
 10
4.979920
 20
7.661720
  0
VERTEX
  8
0
  6
CONTINUOUS
 10
4.941200
 20
7.704400
  0
VERTEX
  8
0
  6
CONTINUOUS
 10
4.900720
 20
7.740480
  0
VERTEX
  8
0
  6
CONTINUOUS
 10
4.859800
 20
7.770400
  0
VERTEX
  8
0
  6
CONTINUOUS
 10
4.818000
 20
7.794160
  0
VERTEX
  8
0
  6
CONTINUOUS
 10
4.789840
 20
7.806920
  0
VERTEX
  8
0
  6
CONTINUOUS
 10
4.761680
 20
7.817040
  0
VERTEX
  8
0
  6
CONTINUOUS
 10
4.733080
 20
7.824520
  0
VERTEX
  8
0
  6
CONTINUOUS
 10
4.704920
 20
7.829800
  0
VERTEX
  8
0
  6
CONTINUOUS
 10
4.676760
 20
7.832440
  0
VERTEX
  8
0
  6
CONTINUOUS
 10
4.648600
 20
7.832880
  0
VERTEX
  8
0
  6
CONTINUOUS
 10
4.620880
 20
7.831120
  0
VERTEX
  8
0
  6
CONTINUOUS
 10
4.593160
 20
7.827600
  0
VERTEX
  8
0
  6
CONTINUOUS
 10
4.566320
 20
7.821440
  0
VERTEX
  8
0
  6
CONTINUOUS
 10
4.539480
 20
7.813080
  0
VERTEX
  8
0
  6
CONTINUOUS
 10
4.513520
 20
7.802960
  0
VERTEX
  8
0
  6
CONTINUOUS
 10
4.488000
 20
7.790640
  0
VERTEX
  8
0
  6
CONTINUOUS
 10
4.439160
 20
7.760720
  0
VERTEX
  8
0
  6
CONTINUOUS
 10
4.416280
 20
7.743120
  0
VERTEX
  8
0
  6
CONTINUOUS
 10
4.372720
 20
7.702640
  0
VERTEX
  8
0
  6
CONTINUOUS
 10
4.334000
 20
7.655560
  0
VERTEX
  8
0
  6
CONTINUOUS
 10
4.315960
 20
7.630040
  0
VERTEX
  8
0
  6
CONTINUOUS
 10
4.284720
 20
7.574160
  0
VERTEX
  8
0
  6
CONTINUOUS
 10
4.271080
 20
7.544240
  0
VERTEX
  8
0
  6
CONTINUOUS
 10
4.249080
 20
7.546000
  0
VERTEX
  8
0
  6
CONTINUOUS
 10
4.222680
 20
7.552160
  0
VERTEX
  8
0
  6
CONTINUOUS
 10
4.203320
 20
7.558760
  0
VERTEX
  8
0
  6
CONTINUOUS
 10
4.163280
 20
7.578120
  0
VERTEX
  8
0
  6
CONTINUOUS
 10
4.132480
 20
7.598800
  0
VERTEX
  8
0
  6
CONTINUOUS
 10
4.103440
 20
7.624320
  0
VERTEX
  8
0
  6
CONTINUOUS
 10
4.077480
 20
7.656000
  0
VERTEX
  8
0
  6
CONTINUOUS
 10
4.055040
 20
7.693840
  0
VERTEX
  8
0
  6
CONTINUOUS
 10
4.043600
 20
7.722440
  0
VERTEX
  8
0
  6
CONTINUOUS
 10
4.034360
 20
7.753680
  0
VERTEX
  8
0
  6
CONTINUOUS
 10
4.028640
 20
7.788440
  0
VERTEX
  8
0
  6
CONTINUOUS
 10
4.026880
 20
7.825840
  0
VERTEX
  8
0
  6
CONTINUOUS
 10
3.283280
 20
7.825840
  0
VERTEX
  8
0
  6
CONTINUOUS
 10
3.283280
 20
6.696800
  0
VERTEX
  8
0
  6
CONTINUOUS
 10
6.199160
 20
6.696800
  0
VERTEX
  8
0
  6
CONTINUOUS
 10
6.199160
 20
7.105560
  0
VERTEX
  8
0
  6
CONTINUOUS
 10
6.200040
 20
7.105560
  0
SEQEND
  8
0
  0
POLYLINE
  8
0
  6
CONTINUOUS
 66
     1
 40
0.000000
 41
0.000000
  0
VERTEX
  8
0
  6
CONTINUOUS
 10
2.300320
 20
8.317760
  0
VERTEX
  8
0
  6
CONTINUOUS
 10
2.300320
 20
6.677000
  0
VERTEX
  8
0
  6
CONTINUOUS
 10
2.792240
 20
6.677000
  0
VERTEX
  8
0
  6
CONTINUOUS
 10
2.792240
 20
6.798880
  0
VERTEX
  8
0
  6
CONTINUOUS
 10
2.792240
 20
7.803400
  0
VERTEX
  8
0
  6
CONTINUOUS
 10
2.935240
 20
7.803400
  0
VERTEX
  8
0
  6
CONTINUOUS
 10
2.938320
 20
7.807800
  0
VERTEX
  8
0
  6
CONTINUOUS
 10
2.940080
 20
7.813080
  0
VERTEX
  8
0
  6
CONTINUOUS
 10
2.940080
 20
7.819680
  0
VERTEX
  8
0
  6
CONTINUOUS
 10
2.938760
 20
7.826720
  0
VERTEX
  8
0
  6
CONTINUOUS
 10
2.936120
 20
7.834640
  0
VERTEX
  8
0
  6
CONTINUOUS
 10
2.931720
 20
7.843440
  0
VERTEX
  8
0
  6
CONTINUOUS
 10
2.926000
 20
7.853120
  0
VERTEX
  8
0
  6
CONTINUOUS
 10
2.918520
 20
7.863240
  0
VERTEX
  8
0
  6
CONTINUOUS
 10
2.909720
 20
7.873800
  0
VERTEX
  8
0
  6
CONTINUOUS
 10
2.899160
 20
7.884800
  0
VERTEX
  8
0
  6
CONTINUOUS
 10
2.887280
 20
7.896240
  0
VERTEX
  8
0
  6
CONTINUOUS
 10
2.873640
 20
7.908120
  0
VERTEX
  8
0
  6
CONTINUOUS
 10
2.858240
 20
7.920000
  0
VERTEX
  8
0
  6
CONTINUOUS
 10
2.841080
 20
7.931880
  0
VERTEX
  8
0
  6
CONTINUOUS
 10
2.822600
 20
7.944200
  0
VERTEX
  8
0
  6
CONTINUOUS
 10
2.802360
 20
7.956520
  0
VERTEX
  8
0
  6
CONTINUOUS
 10
2.791800
 20
7.963120
  0
VERTEX
  8
0
  6
CONTINUOUS
 10
2.781680
 20
7.970160
  0
VERTEX
  8
0
  6
CONTINUOUS
 10
2.771560
 20
7.977640
  0
VERTEX
  8
0
  6
CONTINUOUS
 10
2.761880
 20
7.986440
  0
VERTEX
  8
0
  6
CONTINUOUS
 10
2.742960
 20
8.004920
  0
VERTEX
  8
0
  6
CONTINUOUS
 10
2.724920
 20
8.025160
  0
VERTEX
  8
0
  6
CONTINUOUS
 10
2.707760
 20
8.047600
  0
VERTEX
  8
0
  6
CONTINUOUS
 10
2.691920
 20
8.070920
  0
VERTEX
  8
0
  6
CONTINUOUS
 10
2.676960
 20
8.096000
  0
VERTEX
  8
0
  6
CONTINUOUS
 10
2.663320
 20
8.121520
  0
VERTEX
  8
0
  6
CONTINUOUS
 10
2.651440
 20
8.147480
  0
VERTEX
  8
0
  6
CONTINUOUS
 10
2.640440
 20
8.173440
  0
VERTEX
  8
0
  6
CONTINUOUS
 10
2.631200
 20
8.199400
  0
VERTEX
  8
0
  6
CONTINUOUS
 10
2.623280
 20
8.224920
  0
VERTEX
  8
0
  6
CONTINUOUS
 10
2.617120
 20
8.250000
  0
VERTEX
  8
0
  6
CONTINUOUS
 10
2.612280
 20
8.273760
  0
VERTEX
  8
0
  6
CONTINUOUS
 10
2.609640
 20
8.296200
  0
VERTEX
  8
0
  6
CONTINUOUS
 10
2.609200
 20
8.306760
  0
VERTEX
  8
0
  6
CONTINUOUS
 10
2.608760
 20
8.316880
  0
VERTEX
  8
0
  6
CONTINUOUS
 10
2.302520
 20
8.316880
  0
VERTEX
  8
0
  6
CONTINUOUS
 10
2.300320
 20
8.317760
  0
SEQEND
  8
0
  0
TEXT
  8
0
 10
3.336520
 20
3.731640
 40
0.138159
  1
BA  626 1-1/8" X 2-15/16"
 41
1.000000
  7
SN0
 71
     0
 72
     5
 11
5.235272
 21
3.731640
  0
TEXT
  8
0
 10
3.502840
 20
3.539800
 40
0.138159
  1
BA  627 5/8" X 1-5/8"
 41
1.000000
  7
SN0
 71
     0
 72
     5
 11
5.069298
 21
3.539800
  0
SOLID
  8
0
 62
    15
 10
4.881360
 20
4.748920
 11
4.878720
 21
5.471840
 12
4.926240
 22
4.682480
 13
4.923600
 23
5.405400
  0
POLYLINE
  8
0
  6
CONTINUOUS
 66
     1
 40
0.000000
 41
0.000000
  0
VERTEX
  8
0
  6
CONTINUOUS
 10
4.881360
 20
4.748920
  0
VERTEX
  8
0
  6
CONTINUOUS
 10
4.878720
 20
5.471840
  0
VERTEX
  8
0
  6
CONTINUOUS
 10
4.923600
 20
5.405400
  0
VERTEX
  8
0
  6
CONTINUOUS
 10
4.926240
 20
4.682480
  0
VERTEX
  8
0
  6
CONTINUOUS
 10
4.881360
 20
4.748920
  0
SEQEND
  8
0
  0
SOLID
  8
0
 62
    15
 10
3.066360
 20
3.964400
 11
3.063720
 21
4.687320
 12
3.066360
 22
5.093880
 13
3.063720
 23
5.816800
  0
POLYLINE
  8
0
  6
CONTINUOUS
 66
     1
 40
0.000000
 41
0.000000
  0
VERTEX
  8
0
  6
CONTINUOUS
 10
3.066360
 20
3.964400
  0
VERTEX
  8
0
  6
CONTINUOUS
 10
3.063720
 20
4.687320
  0
VERTEX
  8
0
  6
CONTINUOUS
 10
3.063720
 20
5.816800
  0
VERTEX
  8
0
  6
CONTINUOUS
 10
3.066360
 20
5.093880
  0
VERTEX
  8
0
  6
CONTINUOUS
 10
3.066360
 20
3.964400
  0
SEQEND
  8
0
  0
SOLID
  8
0
 62
    15
 10
3.809520
 20
5.093880
 11
3.806880
 21
5.816800
 12
3.817000
 22
5.021720
 13
3.814360
 23
5.744640
  0
POLYLINE
  8
0
  6
CONTINUOUS
 66
     1
 40
0.000000
 41
0.000000
  0
VERTEX
  8
0
  6
CONTINUOUS
 10
3.809520
 20
5.093880
  0
VERTEX
  8
0
  6
CONTINUOUS
 10
3.806880
 20
5.816800
  0
VERTEX
  8
0
  6
CONTINUOUS
 10
3.814360
 20
5.744640
  0
VERTEX
  8
0
  6
CONTINUOUS
 10
3.817000
 20
5.021720
  0
VERTEX
  8
0
  6
CONTINUOUS
 10
3.809520
 20
5.093880
  0
SEQEND
  8
0
  0
SOLID
  8
0
 62
    15
 10
3.817000
 20
5.021720
 11
3.814360
 21
5.744640
 12
3.837680
 22
4.961880
 13
3.835040
 23
5.684800
  0
POLYLINE
  8
0
  6
CONTINUOUS
 66
     1
 40
0.000000
 41
0.000000
  0
VERTEX
  8
0
  6
CONTINUOUS
 10
3.817000
 20
5.021720
  0
VERTEX
  8
0
  6
CONTINUOUS
 10
3.814360
 20
5.744640
  0
VERTEX
  8
0
  6
CONTINUOUS
 10
3.835040
 20
5.684800
  0
VERTEX
  8
0
  6
CONTINUOUS
 10
3.837680
 20
4.961880
  0
VERTEX
  8
0
  6
CONTINUOUS
 10
3.817000
 20
5.021720
  0
SEQEND
  8
0
  0
SOLID
  8
0
 62
    15
 10
3.837680
 20
4.961880
 11
3.835040
 21
5.684800
 12
3.868480
 22
4.913040
 13
3.865400
 23
5.635960
  0
POLYLINE
  8
0
  6
CONTINUOUS
 66
     1
 40
0.000000
 41
0.000000
  0
VERTEX
  8
0
  6
CONTINUOUS
 10
3.837680
 20
4.961880
  0
VERTEX
  8
0
  6
CONTINUOUS
 10
3.835040
 20
5.684800
  0
VERTEX
  8
0
  6
CONTINUOUS
 10
3.865400
 20
5.635960
  0
VERTEX
  8
0
  6
CONTINUOUS
 10
3.868480
 20
4.913040
  0
VERTEX
  8
0
  6
CONTINUOUS
 10
3.837680
 20
4.961880
  0
SEQEND
  8
0
  0
SOLID
  8
0
 62
    15
 10
3.868480
 20
4.913040
 11
3.865400
 21
5.635960
 12
3.905440
 22
4.874760
 13
3.902800
 23
5.597680
  0
POLYLINE
  8
0
  6
CONTINUOUS
 66
     1
 40
0.000000
 41
0.000000
  0
VERTEX
  8
0
  6
CONTINUOUS
 10
3.868480
 20
4.913040
  0
VERTEX
  8
0
  6
CONTINUOUS
 10
3.865400
 20
5.635960
  0
VERTEX
  8
0
  6
CONTINUOUS
 10
3.902800
 20
5.597680
  0
VERTEX
  8
0
  6
CONTINUOUS
 10
3.905440
 20
4.874760
  0
VERTEX
  8
0
  6
CONTINUOUS
 10
3.868480
 20
4.913040
  0
SEQEND
  8
0
  0
SOLID
  8
0
 62
    15
 10
3.905440
 20
4.874760
 11
3.902800
 21
5.597680
 12
3.945920
 22
4.846160
 13
3.942840
 23
5.569080
  0
POLYLINE
  8
0
  6
CONTINUOUS
 66
     1
 40
0.000000
 41
0.000000
  0
VERTEX
  8
0
  6
CONTINUOUS
 10
3.905440
 20
4.874760
  0
VERTEX
  8
0
  6
CONTINUOUS
 10
3.902800
 20
5.597680
  0
VERTEX
  8
0
  6
CONTINUOUS
 10
3.942840
 20
5.569080
  0
VERTEX
  8
0
  6
CONTINUOUS
 10
3.945920
 20
4.846160
  0
VERTEX
  8
0
  6
CONTINUOUS
 10
3.905440
 20
4.874760
  0
SEQEND
  8
0
  0
SOLID
  8
0
 62
    15
 10
3.945920
 20
4.846160
 11
3.942840
 21
5.569080
 12
3.986400
 22
4.826800
 13
3.983320
 23
5.549720
  0
POLYLINE
  8
0
  6
CONTINUOUS
 66
     1
 40
0.000000
 41
0.000000
  0
VERTEX
  8
0
  6
CONTINUOUS
 10
3.945920
 20
4.846160
  0
VERTEX
  8
0
  6
CONTINUOUS
 10
3.942840
 20
5.569080
  0
VERTEX
  8
0
  6
CONTINUOUS
 10
3.983320
 20
5.549720
  0
VERTEX
  8
0
  6
CONTINUOUS
 10
3.986400
 20
4.826800
  0
VERTEX
  8
0
  6
CONTINUOUS
 10
3.945920
 20
4.846160
  0
SEQEND
  8
0
  0
SOLID
  8
0
 62
    15
 10
3.986400
 20
4.826800
 11
3.983320
 21
5.549720
 12
4.023360
 22
4.815360
 13
4.020720
 23
5.538720
  0
POLYLINE
  8
0
  6
CONTINUOUS
 66
     1
 40
0.000000
 41
0.000000
  0
VERTEX
  8
0
  6
CONTINUOUS
 10
3.986400
 20
4.826800
  0
VERTEX
  8
0
  6
CONTINUOUS
 10
3.983320
 20
5.549720
  0
VERTEX
  8
0
  6
CONTINUOUS
 10
4.020720
 20
5.538720
  0
VERTEX
  8
0
  6
CONTINUOUS
 10
4.023360
 20
4.815360
  0
VERTEX
  8
0
  6
CONTINUOUS
 10
3.986400
 20
4.826800
  0
SEQEND
  8
0
  0
SOLID
  8
0
 62
    15
 10
4.023360
 20
4.815360
 11
4.020720
 21
5.538720
 12
4.054160
 22
4.811840
 13
4.051520
 23
5.535200
  0
POLYLINE
  8
0
  6
CONTINUOUS
 66
     1
 40
0.000000
 41
0.000000
  0
VERTEX
  8
0
  6
CONTINUOUS
 10
4.023360
 20
4.815360
  0
VERTEX
  8
0
  6
CONTINUOUS
 10
4.020720
 20
5.538720
  0
VERTEX
  8
0
  6
CONTINUOUS
 10
4.051520
 20
5.535200
  0
VERTEX
  8
0
  6
CONTINUOUS
 10
4.054160
 20
4.811840
  0
VERTEX
  8
0
  6
CONTINUOUS
 10
4.023360
 20
4.815360
  0
SEQEND
  8
0
  0
SOLID
  8
0
 62
    15
 10
4.054160
 20
4.811840
 11
4.051520
 21
5.535200
 12
4.082760
 22
4.870360
 13
4.080120
 23
5.593280
  0
POLYLINE
  8
0
  6
CONTINUOUS
 66
     1
 40
0.000000
 41
0.000000
  0
VERTEX
  8
0
  6
CONTINUOUS
 10
4.054160
 20
4.811840
  0
VERTEX
  8
0
  6
CONTINUOUS
 10
4.051520
 20
5.535200
  0
VERTEX
  8
0
  6
CONTINUOUS
 10
4.080120
 20
5.593280
  0
VERTEX
  8
0
  6
CONTINUOUS
 10
4.082760
 20
4.870360
  0
VERTEX
  8
0
  6
CONTINUOUS
 10
4.054160
 20
4.811840
  0
SEQEND
  8
0
  0
SOLID
  8
0
 62
    15
 10
4.082760
 20
4.870360
 11
4.080120
 21
5.593280
 12
4.116640
 22
4.923600
 13
4.114000
 23
5.646520
  0
POLYLINE
  8
0
  6
CONTINUOUS
 66
     1
 40
0.000000
 41
0.000000
  0
VERTEX
  8
0
  6
CONTINUOUS
 10
4.082760
 20
4.870360
  0
VERTEX
  8
0
  6
CONTINUOUS
 10
4.080120
 20
5.593280
  0
VERTEX
  8
0
  6
CONTINUOUS
 10
4.114000
 20
5.646520
  0
VERTEX
  8
0
  6
CONTINUOUS
 10
4.116640
 20
4.923600
  0
VERTEX
  8
0
  6
CONTINUOUS
 10
4.082760
 20
4.870360
  0
SEQEND
  8
0
  0
SOLID
  8
0
 62
    15
 10
4.116640
 20
4.923600
 11
4.114000
 21
5.646520
 12
4.155800
 22
4.970240
 13
4.153160
 23
5.693160
  0
POLYLINE
  8
0
  6
CONTINUOUS
 66
     1
 40
0.000000
 41
0.000000
  0
VERTEX
  8
0
  6
CONTINUOUS
 10
4.116640
 20
4.923600
  0
VERTEX
  8
0
  6
CONTINUOUS
 10
4.114000
 20
5.646520
  0
VERTEX
  8
0
  6
CONTINUOUS
 10
4.153160
 20
5.693160
  0
VERTEX
  8
0
  6
CONTINUOUS
 10
4.155800
 20
4.970240
  0
VERTEX
  8
0
  6
CONTINUOUS
 10
4.116640
 20
4.923600
  0
SEQEND
  8
0
  0
SOLID
  8
0
 62
    15
 10
4.155800
 20
4.970240
 11
4.153160
 21
5.693160
 12
4.198920
 22
5.010720
 13
4.196280
 23
5.734080
  0
POLYLINE
  8
0
  6
CONTINUOUS
 66
     1
 40
0.000000
 41
0.000000
  0
VERTEX
  8
0
  6
CONTINUOUS
 10
4.155800
 20
4.970240
  0
VERTEX
  8
0
  6
CONTINUOUS
 10
4.153160
 20
5.693160
  0
VERTEX
  8
0
  6
CONTINUOUS
 10
4.196280
 20
5.734080
  0
VERTEX
  8
0
  6
CONTINUOUS
 10
4.198920
 20
5.010720
  0
VERTEX
  8
0
  6
CONTINUOUS
 10
4.155800
 20
4.970240
  0
SEQEND
  8
0
  0
SOLID
  8
0
 62
    15
 10
4.198920
 20
5.010720
 11
4.196280
 21
5.734080
 12
4.246000
 22
5.044600
 13
4.243360
 23
5.767520
  0
POLYLINE
  8
0
  6
CONTINUOUS
 66
     1
 40
0.000000
 41
0.000000
  0
VERTEX
  8
0
  6
CONTINUOUS
 10
4.198920
 20
5.010720
  0
VERTEX
  8
0
  6
CONTINUOUS
 10
4.196280
 20
5.734080
  0
VERTEX
  8
0
  6
CONTINUOUS
 10
4.243360
 20
5.767520
  0
VERTEX
  8
0
  6
CONTINUOUS
 10
4.246000
 20
5.044600
  0
VERTEX
  8
0
  6
CONTINUOUS
 10
4.198920
 20
5.010720
  0
SEQEND
  8
0
  0
SOLID
  8
0
 62
    15
 10
4.246000
 20
5.044600
 11
4.243360
 21
5.767520
 12
4.296160
 22
5.070560
 13
4.293520
 23
5.793920
  0
POLYLINE
  8
0
  6
CONTINUOUS
 66
     1
 40
0.000000
 41
0.000000
  0
VERTEX
  8
0
  6
CONTINUOUS
 10
4.246000
 20
5.044600
  0
VERTEX
  8
0
  6
CONTINUOUS
 10
4.243360
 20
5.767520
  0
VERTEX
  8
0
  6
CONTINUOUS
 10
4.293520
 20
5.793920
  0
VERTEX
  8
0
  6
CONTINUOUS
 10
4.296160
 20
5.070560
  0
VERTEX
  8
0
  6
CONTINUOUS
 10
4.246000
 20
5.044600
  0
SEQEND
  8
0
  0
SOLID
  8
0
 62
    15
 10
4.296160
 20
5.070560
 11
4.293520
 21
5.793920
 12
4.348960
 22
5.089040
 13
4.346320
 23
5.811960
  0
POLYLINE
  8
0
  6
CONTINUOUS
 66
     1
 40
0.000000
 41
0.000000
  0
VERTEX
  8
0
  6
CONTINUOUS
 10
4.296160
 20
5.070560
  0
VERTEX
  8
0
  6
CONTINUOUS
 10
4.293520
 20
5.793920
  0
VERTEX
  8
0
  6
CONTINUOUS
 10
4.346320
 20
5.811960
  0
VERTEX
  8
0
  6
CONTINUOUS
 10
4.348960
 20
5.089040
  0
VERTEX
  8
0
  6
CONTINUOUS
 10
4.296160
 20
5.070560
  0
SEQEND
  8
0
  0
SOLID
  8
0
 62
    15
 10
4.348960
 20
5.089040
 11
4.346320
 21
5.811960
 12
4.403520
 22
5.099160
 13
4.400880
 23
5.822080
  0
POLYLINE
  8
0
  6
CONTINUOUS
 66
     1
 40
0.000000
 41
0.000000
  0
VERTEX
  8
0
  6
CONTINUOUS
 10
4.348960
 20
5.089040
  0
VERTEX
  8
0
  6
CONTINUOUS
 10
4.346320
 20
5.811960
  0
VERTEX
  8
0
  6
CONTINUOUS
 10
4.400880
 20
5.822080
  0
VERTEX
  8
0
  6
CONTINUOUS
 10
4.403520
 20
5.099160
  0
VERTEX
  8
0
  6
CONTINUOUS
 10
4.348960
 20
5.089040
  0
SEQEND
  8
0
  0
SOLID
  8
0
 62
    15
 10
4.403520
 20
5.099160
 11
4.400880
 21
5.822080
 12
4.459400
 22
5.100480
 13
4.456760
 23
5.823400
  0
POLYLINE
  8
0
  6
CONTINUOUS
 66
     1
 40
0.000000
 41
0.000000
  0
VERTEX
  8
0
  6
CONTINUOUS
 10
4.403520
 20
5.099160
  0
VERTEX
  8
0
  6
CONTINUOUS
 10
4.400880
 20
5.822080
  0
VERTEX
  8
0
  6
CONTINUOUS
 10
4.456760
 20
5.823400
  0
VERTEX
  8
0
  6
CONTINUOUS
 10
4.459400
 20
5.100480
  0
VERTEX
  8
0
  6
CONTINUOUS
 10
4.403520
 20
5.099160
  0
SEQEND
  8
0
  0
SOLID
  8
0
 62
    15
 10
4.459400
 20
5.100480
 11
4.456760
 21
5.823400
 12
4.516160
 22
5.092560
 13
4.513080
 23
5.815480
  0
POLYLINE
  8
0
  6
CONTINUOUS
 66
     1
 40
0.000000
 41
0.000000
  0
VERTEX
  8
0
  6
CONTINUOUS
 10
4.459400
 20
5.100480
  0
VERTEX
  8
0
  6
CONTINUOUS
 10
4.456760
 20
5.823400
  0
VERTEX
  8
0
  6
CONTINUOUS
 10
4.513080
 20
5.815480
  0
VERTEX
  8
0
  6
CONTINUOUS
 10
4.516160
 20
5.092560
  0
VERTEX
  8
0
  6
CONTINUOUS
 10
4.459400
 20
5.100480
  0
SEQEND
  8
0
  0
SOLID
  8
0
 62
    15
 10
4.516160
 20
5.092560
 11
4.513080
 21
5.815480
 12
4.572480
 22
5.074960
 13
4.569840
 23
5.797880
  0
POLYLINE
  8
0
  6
CONTINUOUS
 66
     1
 40
0.000000
 41
0.000000
  0
VERTEX
  8
0
  6
CONTINUOUS
 10
4.516160
 20
5.092560
  0
VERTEX
  8
0
  6
CONTINUOUS
 10
4.513080
 20
5.815480
  0
VERTEX
  8
0
  6
CONTINUOUS
 10
4.569840
 20
5.797880
  0
VERTEX
  8
0
  6
CONTINUOUS
 10
4.572480
 20
5.074960
  0
VERTEX
  8
0
  6
CONTINUOUS
 10
4.516160
 20
5.092560
  0
SEQEND
  8
0
  0
SOLID
  8
0
 62
    15
 10
4.572480
 20
5.074960
 11
4.569840
 21
5.797880
 12
4.628800
 22
5.046800
 13
4.626160
 23
5.769720
  0
POLYLINE
  8
0
  6
CONTINUOUS
 66
     1
 40
0.000000
 41
0.000000
  0
VERTEX
  8
0
  6
CONTINUOUS
 10
4.572480
 20
5.074960
  0
VERTEX
  8
0
  6
CONTINUOUS
 10
4.569840
 20
5.797880
  0
VERTEX
  8
0
  6
CONTINUOUS
 10
4.626160
 20
5.769720
  0
VERTEX
  8
0
  6
CONTINUOUS
 10
4.628800
 20
5.046800
  0
VERTEX
  8
0
  6
CONTINUOUS
 10
4.572480
 20
5.074960
  0
SEQEND
  8
0
  0
SOLID
  8
0
 62
    15
 10
4.628800
 20
5.046800
 11
4.626160
 21
5.769720
 12
4.683800
 22
5.008080
 13
4.681160
 23
5.731440
  0
POLYLINE
  8
0
  6
CONTINUOUS
 66
     1
 40
0.000000
 41
0.000000
  0
VERTEX
  8
0
  6
CONTINUOUS
 10
4.628800
 20
5.046800
  0
VERTEX
  8
0
  6
CONTINUOUS
 10
4.626160
 20
5.769720
  0
VERTEX
  8
0
  6
CONTINUOUS
 10
4.681160
 20
5.731440
  0
VERTEX
  8
0
  6
CONTINUOUS
 10
4.683800
 20
5.008080
  0
VERTEX
  8
0
  6
CONTINUOUS
 10
4.628800
 20
5.046800
  0
SEQEND
  8
0
  0
SOLID
  8
0
 62
    15
 10
4.683800
 20
5.008080
 11
4.681160
 21
5.731440
 12
4.737040
 22
4.958800
 13
4.734400
 23
5.681720
  0
POLYLINE
  8
0
  6
CONTINUOUS
 66
     1
 40
0.000000
 41
0.000000
  0
VERTEX
  8
0
  6
CONTINUOUS
 10
4.683800
 20
5.008080
  0
VERTEX
  8
0
  6
CONTINUOUS
 10
4.681160
 20
5.731440
  0
VERTEX
  8
0
  6
CONTINUOUS
 10
4.734400
 20
5.681720
  0
VERTEX
  8
0
  6
CONTINUOUS
 10
4.737040
 20
4.958800
  0
VERTEX
  8
0
  6
CONTINUOUS
 10
4.683800
 20
5.008080
  0
SEQEND
  8
0
  0
SOLID
  8
0
 62
    15
 10
4.737040
 20
4.958800
 11
4.734400
 21
5.681720
 12
4.788080
 22
4.897200
 13
4.785000
 23
5.620120
  0
POLYLINE
  8
0
  6
CONTINUOUS
 66
     1
 40
0.000000
 41
0.000000
  0
VERTEX
  8
0
  6
CONTINUOUS
 10
4.737040
 20
4.958800
  0
VERTEX
  8
0
  6
CONTINUOUS
 10
4.734400
 20
5.681720
  0
VERTEX
  8
0
  6
CONTINUOUS
 10
4.785000
 20
5.620120
  0
VERTEX
  8
0
  6
CONTINUOUS
 10
4.788080
 20
4.897200
  0
VERTEX
  8
0
  6
CONTINUOUS
 10
4.737040
 20
4.958800
  0
SEQEND
  8
0
  0
SOLID
  8
0
 62
    15
 10
4.788080
 20
4.897200
 11
4.785000
 21
5.620120
 12
4.836040
 22
4.824160
 13
4.832960
 23
5.547080
  0
POLYLINE
  8
0
  6
CONTINUOUS
 66
     1
 40
0.000000
 41
0.000000
  0
VERTEX
  8
0
  6
CONTINUOUS
 10
4.788080
 20
4.897200
  0
VERTEX
  8
0
  6
CONTINUOUS
 10
4.785000
 20
5.620120
  0
VERTEX
  8
0
  6
CONTINUOUS
 10
4.832960
 20
5.547080
  0
VERTEX
  8
0
  6
CONTINUOUS
 10
4.836040
 20
4.824160
  0
VERTEX
  8
0
  6
CONTINUOUS
 10
4.788080
 20
4.897200
  0
SEQEND
  8
0
  0
SOLID
  8
0
 62
    15
 10
4.836040
 20
4.824160
 11
4.832960
 21
5.547080
 12
4.881360
 22
4.748920
 13
4.878720
 23
5.471840
  0
POLYLINE
  8
0
  6
CONTINUOUS
 66
     1
 40
0.000000
 41
0.000000
  0
VERTEX
  8
0
  6
CONTINUOUS
 10
4.836040
 20
4.824160
  0
VERTEX
  8
0
  6
CONTINUOUS
 10
4.832960
 20
5.547080
  0
VERTEX
  8
0
  6
CONTINUOUS
 10
4.878720
 20
5.471840
  0
VERTEX
  8
0
  6
CONTINUOUS
 10
4.881360
 20
4.748920
  0
VERTEX
  8
0
  6
CONTINUOUS
 10
4.836040
 20
4.824160
  0
SEQEND
  8
0
  0
SOLID
  8
0
 62
    15
 10
3.066360
 20
5.093880
 11
3.063720
 21
5.816800
 12
3.809520
 22
5.093880
 13
3.806880
 23
5.816800
  0
POLYLINE
  8
0
  6
CONTINUOUS
 66
     1
 40
0.000000
 41
0.000000
  0
VERTEX
  8
0
  6
CONTINUOUS
 10
3.066360
 20
5.093880
  0
VERTEX
  8
0
  6
CONTINUOUS
 10
3.063720
 20
5.816800
  0
VERTEX
  8
0
  6
CONTINUOUS
 10
3.806880
 20
5.816800
  0
VERTEX
  8
0
  6
CONTINUOUS
 10
3.809520
 20
5.093880
  0
VERTEX
  8
0
  6
CONTINUOUS
 10
3.066360
 20
5.093880
  0
SEQEND
  8
0
  0
SOLID
  8
0
 62
    15
 10
4.926240
 20
4.682480
 11
4.923600
 21
5.405400
 12
4.969800
 22
4.623960
 13
4.967160
 23
5.347320
  0
POLYLINE
  8
0
  6
CONTINUOUS
 66
     1
 40
0.000000
 41
0.000000
  0
VERTEX
  8
0
  6
CONTINUOUS
 10
4.926240
 20
4.682480
  0
VERTEX
  8
0
  6
CONTINUOUS
 10
4.923600
 20
5.405400
  0
VERTEX
  8
0
  6
CONTINUOUS
 10
4.967160
 20
5.347320
  0
VERTEX
  8
0
  6
CONTINUOUS
 10
4.969800
 20
4.623960
  0
VERTEX
  8
0
  6
CONTINUOUS
 10
4.926240
 20
4.682480
  0
SEQEND
  8
0
  0
SOLID
  8
0
 62
    15
 10
4.969800
 20
4.623960
 11
4.967160
 21
5.347320
 12
5.012480
 22
4.573360
 13
5.009840
 23
5.296280
  0
POLYLINE
  8
0
  6
CONTINUOUS
 66
     1
 40
0.000000
 41
0.000000
  0
VERTEX
  8
0
  6
CONTINUOUS
 10
4.969800
 20
4.623960
  0
VERTEX
  8
0
  6
CONTINUOUS
 10
4.967160
 20
5.347320
  0
VERTEX
  8
0
  6
CONTINUOUS
 10
5.009840
 20
5.296280
  0
VERTEX
  8
0
  6
CONTINUOUS
 10
5.012480
 20
4.573360
  0
VERTEX
  8
0
  6
CONTINUOUS
 10
4.969800
 20
4.623960
  0
SEQEND
  8
0
  0
SOLID
  8
0
 62
    15
 10
5.012480
 20
4.573360
 11
5.009840
 21
5.296280
 12
5.054720
 22
4.529800
 13
5.051640
 23
5.252720
  0
POLYLINE
  8
0
  6
CONTINUOUS
 66
     1
 40
0.000000
 41
0.000000
  0
VERTEX
  8
0
  6
CONTINUOUS
 10
5.012480
 20
4.573360
  0
VERTEX
  8
0
  6
CONTINUOUS
 10
5.009840
 20
5.296280
  0
VERTEX
  8
0
  6
CONTINUOUS
 10
5.051640
 20
5.252720
  0
VERTEX
  8
0
  6
CONTINUOUS
 10
5.054720
 20
4.529800
  0
VERTEX
  8
0
  6
CONTINUOUS
 10
5.012480
 20
4.573360
  0
SEQEND
  8
0
  0
SOLID
  8
0
 62
    15
 10
5.054720
 20
4.529800
 11
5.051640
 21
5.252720
 12
5.095640
 22
4.492400
 13
5.093000
 23
5.215320
  0
POLYLINE
  8
0
  6
CONTINUOUS
 66
     1
 40
0.000000
 41
0.000000
  0
VERTEX
  8
0
  6
CONTINUOUS
 10
5.054720
 20
4.529800
  0
VERTEX
  8
0
  6
CONTINUOUS
 10
5.051640
 20
5.252720
  0
VERTEX
  8
0
  6
CONTINUOUS
 10
5.093000
 20
5.215320
  0
VERTEX
  8
0
  6
CONTINUOUS
 10
5.095640
 20
4.492400
  0
VERTEX
  8
0
  6
CONTINUOUS
 10
5.054720
 20
4.529800
  0
SEQEND
  8
0
  0
SOLID
  8
0
 62
    15
 10
5.095640
 20
4.492400
 11
5.093000
 21
5.215320
 12
5.136560
 22
4.461600
 13
5.133920
 23
5.184520
  0
POLYLINE
  8
0
  6
CONTINUOUS
 66
     1
 40
0.000000
 41
0.000000
  0
VERTEX
  8
0
  6
CONTINUOUS
 10
5.095640
 20
4.492400
  0
VERTEX
  8
0
  6
CONTINUOUS
 10
5.093000
 20
5.215320
  0
VERTEX
  8
0
  6
CONTINUOUS
 10
5.133920
 20
5.184520
  0
VERTEX
  8
0
  6
CONTINUOUS
 10
5.136560
 20
4.461600
  0
VERTEX
  8
0
  6
CONTINUOUS
 10
5.095640
 20
4.492400
  0
SEQEND
  8
0
  0
SOLID
  8
0
 62
    15
 10
5.136560
 20
4.461600
 11
5.133920
 21
5.184520
 12
5.176600
 22
4.435640
 13
5.173960
 23
5.159000
  0
POLYLINE
  8
0
  6
CONTINUOUS
 66
     1
 40
0.000000
 41
0.000000
  0
VERTEX
  8
0
  6
CONTINUOUS
 10
5.136560
 20
4.461600
  0
VERTEX
  8
0
  6
CONTINUOUS
 10
5.133920
 20
5.184520
  0
VERTEX
  8
0
  6
CONTINUOUS
 10
5.173960
 20
5.159000
  0
VERTEX
  8
0
  6
CONTINUOUS
 10
5.176600
 20
4.435640
  0
VERTEX
  8
0
  6
CONTINUOUS
 10
5.136560
 20
4.461600
  0
SEQEND
  8
0
  0
SOLID
  8
0
 62
    15
 10
5.176600
 20
4.435640
 11
5.173960
 21
5.159000
 12
5.255360
 22
4.399120
 13
5.252720
 23
5.122040
  0
POLYLINE
  8
0
  6
CONTINUOUS
 66
     1
 40
0.000000
 41
0.000000
  0
VERTEX
  8
0
  6
CONTINUOUS
 10
5.176600
 20
4.435640
  0
VERTEX
  8
0
  6
CONTINUOUS
 10
5.173960
 20
5.159000
  0
VERTEX
  8
0
  6
CONTINUOUS
 10
5.252720
 20
5.122040
  0
VERTEX
  8
0
  6
CONTINUOUS
 10
5.255360
 20
4.399120
  0
VERTEX
  8
0
  6
CONTINUOUS
 10
5.176600
 20
4.435640
  0
SEQEND
  8
0
  0
SOLID
  8
0
 62
    15
 10
5.255360
 20
4.399120
 11
5.252720
 21
5.122040
 12
5.333240
 22
4.378440
 13
5.330600
 23
5.101360
  0
POLYLINE
  8
0
  6
CONTINUOUS
 66
     1
 40
0.000000
 41
0.000000
  0
VERTEX
  8
0
  6
CONTINUOUS
 10
5.255360
 20
4.399120
  0
VERTEX
  8
0
  6
CONTINUOUS
 10
5.252720
 20
5.122040
  0
VERTEX
  8
0
  6
CONTINUOUS
 10
5.330600
 20
5.101360
  0
VERTEX
  8
0
  6
CONTINUOUS
 10
5.333240
 20
4.378440
  0
VERTEX
  8
0
  6
CONTINUOUS
 10
5.255360
 20
4.399120
  0
SEQEND
  8
0
  0
SOLID
  8
0
 62
    15
 10
5.333240
 20
4.378440
 11
5.330600
 21
5.101360
 12
5.410680
 22
4.369200
 13
5.408040
 23
5.092120
  0
POLYLINE
  8
0
  6
CONTINUOUS
 66
     1
 40
0.000000
 41
0.000000
  0
VERTEX
  8
0
  6
CONTINUOUS
 10
5.333240
 20
4.378440
  0
VERTEX
  8
0
  6
CONTINUOUS
 10
5.330600
 20
5.101360
  0
VERTEX
  8
0
  6
CONTINUOUS
 10
5.408040
 20
5.092120
  0
VERTEX
  8
0
  6
CONTINUOUS
 10
5.410680
 20
4.369200
  0
VERTEX
  8
0
  6
CONTINUOUS
 10
5.333240
 20
4.378440
  0
SEQEND
  8
0
  0
SOLID
  8
0
 62
    15
 10
5.410680
 20
4.369200
 11
5.408040
 21
5.092120
 12
5.488560
 22
4.367880
 13
5.485480
 23
5.090800
  0
POLYLINE
  8
0
  6
CONTINUOUS
 66
     1
 40
0.000000
 41
0.000000
  0
VERTEX
  8
0
  6
CONTINUOUS
 10
5.410680
 20
4.369200
  0
VERTEX
  8
0
  6
CONTINUOUS
 10
5.408040
 20
5.092120
  0
VERTEX
  8
0
  6
CONTINUOUS
 10
5.485480
 20
5.090800
  0
VERTEX
  8
0
  6
CONTINUOUS
 10
5.488560
 20
4.367880
  0
VERTEX
  8
0
  6
CONTINUOUS
 10
5.410680
 20
4.369200
  0
SEQEND
  8
0
  0
SOLID
  8
0
 62
    15
 10
5.488560
 20
4.367880
 11
5.485480
 21
5.090800
 12
5.508800
 22
4.435640
 13
5.506160
 23
5.158560
  0
POLYLINE
  8
0
  6
CONTINUOUS
 66
     1
 40
0.000000
 41
0.000000
  0
VERTEX
  8
0
  6
CONTINUOUS
 10
5.488560
 20
4.367880
  0
VERTEX
  8
0
  6
CONTINUOUS
 10
5.485480
 20
5.090800
  0
VERTEX
  8
0
  6
CONTINUOUS
 10
5.506160
 20
5.158560
  0
VERTEX
  8
0
  6
CONTINUOUS
 10
5.508800
 20
4.435640
  0
VERTEX
  8
0
  6
CONTINUOUS
 10
5.488560
 20
4.367880
  0
SEQEND
  8
0
  0
SOLID
  8
0
 62
    15
 10
5.508800
 20
4.435640
 11
5.506160
 21
5.158560
 12
5.535640
 22
4.491960
 13
5.533000
 23
5.214880
  0
POLYLINE
  8
0
  6
CONTINUOUS
 66
     1
 40
0.000000
 41
0.000000
  0
VERTEX
  8
0
  6
CONTINUOUS
 10
5.508800
 20
4.435640
  0
VERTEX
  8
0
  6
CONTINUOUS
 10
5.506160
 20
5.158560
  0
VERTEX
  8
0
  6
CONTINUOUS
 10
5.533000
 20
5.214880
  0
VERTEX
  8
0
  6
CONTINUOUS
 10
5.535640
 20
4.491960
  0
VERTEX
  8
0
  6
CONTINUOUS
 10
5.508800
 20
4.435640
  0
SEQEND
  8
0
  0
SOLID
  8
0
 62
    15
 10
5.535640
 20
4.491960
 11
5.533000
 21
5.214880
 12
5.567760
 22
4.536840
 13
5.565120
 23
5.260200
  0
POLYLINE
  8
0
  6
CONTINUOUS
 66
     1
 40
0.000000
 41
0.000000
  0
VERTEX
  8
0
  6
CONTINUOUS
 10
5.535640
 20
4.491960
  0
VERTEX
  8
0
  6
CONTINUOUS
 10
5.533000
 20
5.214880
  0
VERTEX
  8
0
  6
CONTINUOUS
 10
5.565120
 20
5.260200
  0
VERTEX
  8
0
  6
CONTINUOUS
 10
5.567760
 20
4.536840
  0
VERTEX
  8
0
  6
CONTINUOUS
 10
5.535640
 20
4.491960
  0
SEQEND
  8
0
  0
SOLID
  8
0
 62
    15
 10
5.567760
 20
4.536840
 11
5.565120
 21
5.260200
 12
5.603840
 22
4.571600
 13
5.601200
 23
5.294520
  0
POLYLINE
  8
0
  6
CONTINUOUS
 66
     1
 40
0.000000
 41
0.000000
  0
VERTEX
  8
0
  6
CONTINUOUS
 10
5.567760
 20
4.536840
  0
VERTEX
  8
0
  6
CONTINUOUS
 10
5.565120
 20
5.260200
  0
VERTEX
  8
0
  6
CONTINUOUS
 10
5.601200
 20
5.294520
  0
VERTEX
  8
0
  6
CONTINUOUS
 10
5.603840
 20
4.571600
  0
VERTEX
  8
0
  6
CONTINUOUS
 10
5.567760
 20
4.536840
  0
SEQEND
  8
0
  0
SOLID
  8
0
 62
    15
 10
5.603840
 20
4.571600
 11
5.601200
 21
5.294520
 12
5.643440
 22
4.596240
 13
5.640800
 23
5.319160
  0
POLYLINE
  8
0
  6
CONTINUOUS
 66
     1
 40
0.000000
 41
0.000000
  0
VERTEX
  8
0
  6
CONTINUOUS
 10
5.603840
 20
4.571600
  0
VERTEX
  8
0
  6
CONTINUOUS
 10
5.601200
 20
5.294520
  0
VERTEX
  8
0
  6
CONTINUOUS
 10
5.640800
 20
5.319160
  0
VERTEX
  8
0
  6
CONTINUOUS
 10
5.643440
 20
4.596240
  0
VERTEX
  8
0
  6
CONTINUOUS
 10
5.603840
 20
4.571600
  0
SEQEND
  8
0
  0
SOLID
  8
0
 62
    15
 10
5.643440
 20
4.596240
 11
5.640800
 21
5.319160
 12
5.684800
 22
4.611640
 13
5.682160
 23
5.334560
  0
POLYLINE
  8
0
  6
CONTINUOUS
 66
     1
 40
0.000000
 41
0.000000
  0
VERTEX
  8
0
  6
CONTINUOUS
 10
5.643440
 20
4.596240
  0
VERTEX
  8
0
  6
CONTINUOUS
 10
5.640800
 20
5.319160
  0
VERTEX
  8
0
  6
CONTINUOUS
 10
5.682160
 20
5.334560
  0
VERTEX
  8
0
  6
CONTINUOUS
 10
5.684800
 20
4.611640
  0
VERTEX
  8
0
  6
CONTINUOUS
 10
5.643440
 20
4.596240
  0
SEQEND
  8
0
  0
SOLID
  8
0
 62
    15
 10
5.684800
 20
4.611640
 11
5.682160
 21
5.334560
 12
5.727040
 22
4.618240
 13
5.724400
 23
5.341160
  0
POLYLINE
  8
0
  6
CONTINUOUS
 66
     1
 40
0.000000
 41
0.000000
  0
VERTEX
  8
0
  6
CONTINUOUS
 10
5.684800
 20
4.611640
  0
VERTEX
  8
0
  6
CONTINUOUS
 10
5.682160
 20
5.334560
  0
VERTEX
  8
0
  6
CONTINUOUS
 10
5.724400
 20
5.341160
  0
VERTEX
  8
0
  6
CONTINUOUS
 10
5.727040
 20
4.618240
  0
VERTEX
  8
0
  6
CONTINUOUS
 10
5.684800
 20
4.611640
  0
SEQEND
  8
0
  0
SOLID
  8
0
 62
    15
 10
5.727040
 20
4.618240
 11
5.724400
 21
5.341160
 12
5.769720
 22
4.616480
 13
5.767080
 23
5.339400
  0
POLYLINE
  8
0
  6
CONTINUOUS
 66
     1
 40
0.000000
 41
0.000000
  0
VERTEX
  8
0
  6
CONTINUOUS
 10
5.727040
 20
4.618240
  0
VERTEX
  8
0
  6
CONTINUOUS
 10
5.724400
 20
5.341160
  0
VERTEX
  8
0
  6
CONTINUOUS
 10
5.767080
 20
5.339400
  0
VERTEX
  8
0
  6
CONTINUOUS
 10
5.769720
 20
4.616480
  0
VERTEX
  8
0
  6
CONTINUOUS
 10
5.727040
 20
4.618240
  0
SEQEND
  8
0
  0
SOLID
  8
0
 62
    15
 10
5.769720
 20
4.616480
 11
5.767080
 21
5.339400
 12
5.811080
 22
4.607240
 13
5.808440
 23
5.330160
  0
POLYLINE
  8
0
  6
CONTINUOUS
 66
     1
 40
0.000000
 41
0.000000
  0
VERTEX
  8
0
  6
CONTINUOUS
 10
5.769720
 20
4.616480
  0
VERTEX
  8
0
  6
CONTINUOUS
 10
5.767080
 20
5.339400
  0
VERTEX
  8
0
  6
CONTINUOUS
 10
5.808440
 20
5.330160
  0
VERTEX
  8
0
  6
CONTINUOUS
 10
5.811080
 20
4.607240
  0
VERTEX
  8
0
  6
CONTINUOUS
 10
5.769720
 20
4.616480
  0
SEQEND
  8
0
  0
SOLID
  8
0
 62
    15
 10
5.811080
 20
4.607240
 11
5.808440
 21
5.330160
 12
5.850240
 22
4.590520
 13
5.847600
 23
5.313440
  0
POLYLINE
  8
0
  6
CONTINUOUS
 66
     1
 40
0.000000
 41
0.000000
  0
VERTEX
  8
0
  6
CONTINUOUS
 10
5.811080
 20
4.607240
  0
VERTEX
  8
0
  6
CONTINUOUS
 10
5.808440
 20
5.330160
  0
VERTEX
  8
0
  6
CONTINUOUS
 10
5.847600
 20
5.313440
  0
VERTEX
  8
0
  6
CONTINUOUS
 10
5.850240
 20
4.590520
  0
VERTEX
  8
0
  6
CONTINUOUS
 10
5.811080
 20
4.607240
  0
SEQEND
  8
0
  0
SOLID
  8
0
 62
    15
 10
5.850240
 20
4.590520
 11
5.847600
 21
5.313440
 12
5.886320
 22
4.567640
 13
5.883680
 23
5.290560
  0
POLYLINE
  8
0
  6
CONTINUOUS
 66
     1
 40
0.000000
 41
0.000000
  0
VERTEX
  8
0
  6
CONTINUOUS
 10
5.850240
 20
4.590520
  0
VERTEX
  8
0
  6
CONTINUOUS
 10
5.847600
 20
5.313440
  0
VERTEX
  8
0
  6
CONTINUOUS
 10
5.883680
 20
5.290560
  0
VERTEX
  8
0
  6
CONTINUOUS
 10
5.886320
 20
4.567640
  0
VERTEX
  8
0
  6
CONTINUOUS
 10
5.850240
 20
4.590520
  0
SEQEND
  8
0
  0
SOLID
  8
0
 62
    15
 10
5.886320
 20
4.567640
 11
5.883680
 21
5.290560
 12
5.918440
 22
4.538160
 13
5.915360
 23
5.261520
  0
POLYLINE
  8
0
  6
CONTINUOUS
 66
     1
 40
0.000000
 41
0.000000
  0
VERTEX
  8
0
  6
CONTINUOUS
 10
5.886320
 20
4.567640
  0
VERTEX
  8
0
  6
CONTINUOUS
 10
5.883680
 20
5.290560
  0
VERTEX
  8
0
  6
CONTINUOUS
 10
5.915360
 20
5.261520
  0
VERTEX
  8
0
  6
CONTINUOUS
 10
5.918440
 20
4.538160
  0
VERTEX
  8
0
  6
CONTINUOUS
 10
5.886320
 20
4.567640
  0
SEQEND
  8
0
  0
SOLID
  8
0
 62
    15
 10
5.918440
 20
4.538160
 11
5.915360
 21
5.261520
 12
5.944840
 22
4.503840
 13
5.942200
 23
5.226760
  0
POLYLINE
  8
0
  6
CONTINUOUS
 66
     1
 40
0.000000
 41
0.000000
  0
VERTEX
  8
0
  6
CONTINUOUS
 10
5.918440
 20
4.538160
  0
VERTEX
  8
0
  6
CONTINUOUS
 10
5.915360
 20
5.261520
  0
VERTEX
  8
0
  6
CONTINUOUS
 10
5.942200
 20
5.226760
  0
VERTEX
  8
0
  6
CONTINUOUS
 10
5.944840
 20
4.503840
  0
VERTEX
  8
0
  6
CONTINUOUS
 10
5.918440
 20
4.538160
  0
SEQEND
  8
0
  0
SOLID
  8
0
 62
    15
 10
5.944840
 20
4.503840
 11
5.942200
 21
5.226760
 12
5.965080
 22
4.464680
 13
5.962440
 23
5.187600
  0
POLYLINE
  8
0
  6
CONTINUOUS
 66
     1
 40
0.000000
 41
0.000000
  0
VERTEX
  8
0
  6
CONTINUOUS
 10
5.944840
 20
4.503840
  0
VERTEX
  8
0
  6
CONTINUOUS
 10
5.942200
 20
5.226760
  0
VERTEX
  8
0
  6
CONTINUOUS
 10
5.962440
 20
5.187600
  0
VERTEX
  8
0
  6
CONTINUOUS
 10
5.965080
 20
4.464680
  0
VERTEX
  8
0
  6
CONTINUOUS
 10
5.944840
 20
4.503840
  0
SEQEND
  8
0
  0
SOLID
  8
0
 62
    15
 10
5.978280
 20
4.421120
 11
5.975200
 21
5.144040
 12
5.982680
 22
4.373600
 13
5.980040
 23
5.096520
  0
POLYLINE
  8
0
  6
CONTINUOUS
 66
     1
 40
0.000000
 41
0.000000
  0
VERTEX
  8
0
  6
CONTINUOUS
 10
5.978280
 20
4.421120
  0
VERTEX
  8
0
  6
CONTINUOUS
 10
5.975200
 20
5.144040
  0
VERTEX
  8
0
  6
CONTINUOUS
 10
5.980040
 20
5.096520
  0
VERTEX
  8
0
  6
CONTINUOUS
 10
5.982680
 20
4.373600
  0
VERTEX
  8
0
  6
CONTINUOUS
 10
5.978280
 20
4.421120
  0
SEQEND
  8
0
  0
SOLID
  8
0
 62
    15
 10
5.965080
 20
4.464680
 11
5.962440
 21
5.187600
 12
5.978280
 22
4.421120
 13
5.975200
 23
5.144040
  0
POLYLINE
  8
0
  6
CONTINUOUS
 66
     1
 40
0.000000
 41
0.000000
  0
VERTEX
  8
0
  6
CONTINUOUS
 10
5.965080
 20
4.464680
  0
VERTEX
  8
0
  6
CONTINUOUS
 10
5.962440
 20
5.187600
  0
VERTEX
  8
0
  6
CONTINUOUS
 10
5.975200
 20
5.144040
  0
VERTEX
  8
0
  6
CONTINUOUS
 10
5.978280
 20
4.421120
  0
VERTEX
  8
0
  6
CONTINUOUS
 10
5.965080
 20
4.464680
  0
SEQEND
  8
0
  0
POLYLINE
  8
0
  6
CONTINUOUS
 66
     1
 40
0.000000
 41
0.000000
  0
VERTEX
  8
0
  6
CONTINUOUS
 10
5.982240
 20
4.373600
  0
VERTEX
  8
0
  6
CONTINUOUS
 10
5.982240
 20
3.964400
  0
VERTEX
  8
0
  6
CONTINUOUS
 10
3.066360
 20
3.964400
  0
VERTEX
  8
0
  6
CONTINUOUS
 10
3.066360
 20
5.093880
  0
VERTEX
  8
0
  6
CONTINUOUS
 10
3.809520
 20
5.093880
  0
VERTEX
  8
0
  6
CONTINUOUS
 10
3.817000
 20
5.021720
  0
VERTEX
  8
0
  6
CONTINUOUS
 10
3.837680
 20
4.961880
  0
VERTEX
  8
0
  6
CONTINUOUS
 10
3.868480
 20
4.913040
  0
VERTEX
  8
0
  6
CONTINUOUS
 10
3.905440
 20
4.874760
  0
VERTEX
  8
0
  6
CONTINUOUS
 10
3.945920
 20
4.846160
  0
VERTEX
  8
0
  6
CONTINUOUS
 10
3.986400
 20
4.826800
  0
VERTEX
  8
0
  6
CONTINUOUS
 10
4.023360
 20
4.815360
  0
VERTEX
  8
0
  6
CONTINUOUS
 10
4.054160
 20
4.811840
  0
VERTEX
  8
0
  6
CONTINUOUS
 10
4.082760
 20
4.870360
  0
VERTEX
  8
0
  6
CONTINUOUS
 10
4.116640
 20
4.923600
  0
VERTEX
  8
0
  6
CONTINUOUS
 10
4.155800
 20
4.970240
  0
VERTEX
  8
0
  6
CONTINUOUS
 10
4.198920
 20
5.010720
  0
VERTEX
  8
0
  6
CONTINUOUS
 10
4.246000
 20
5.044600
  0
VERTEX
  8
0
  6
CONTINUOUS
 10
4.296160
 20
5.070560
  0
VERTEX
  8
0
  6
CONTINUOUS
 10
4.348960
 20
5.089040
  0
VERTEX
  8
0
  6
CONTINUOUS
 10
4.403520
 20
5.099160
  0
VERTEX
  8
0
  6
CONTINUOUS
 10
4.459400
 20
5.100480
  0
VERTEX
  8
0
  6
CONTINUOUS
 10
4.516160
 20
5.092560
  0
VERTEX
  8
0
  6
CONTINUOUS
 10
4.572480
 20
5.074960
  0
VERTEX
  8
0
  6
CONTINUOUS
 10
4.628800
 20
5.046800
  0
VERTEX
  8
0
  6
CONTINUOUS
 10
4.683800
 20
5.008080
  0
VERTEX
  8
0
  6
CONTINUOUS
 10
4.737040
 20
4.958800
  0
VERTEX
  8
0
  6
CONTINUOUS
 10
4.788080
 20
4.897200
  0
VERTEX
  8
0
  6
CONTINUOUS
 10
4.836040
 20
4.824160
  0
VERTEX
  8
0
  6
CONTINUOUS
 10
4.881360
 20
4.748920
  0
VERTEX
  8
0
  6
CONTINUOUS
 10
4.926240
 20
4.682480
  0
VERTEX
  8
0
  6
CONTINUOUS
 10
4.969800
 20
4.623960
  0
VERTEX
  8
0
  6
CONTINUOUS
 10
5.012480
 20
4.573360
  0
VERTEX
  8
0
  6
CONTINUOUS
 10
5.054720
 20
4.529800
  0
VERTEX
  8
0
  6
CONTINUOUS
 10
5.095640
 20
4.492400
  0
VERTEX
  8
0
  6
CONTINUOUS
 10
5.136560
 20
4.461600
  0
VERTEX
  8
0
  6
CONTINUOUS
 10
5.176600
 20
4.435640
  0
VERTEX
  8
0
  6
CONTINUOUS
 10
5.255360
 20
4.399120
  0
VERTEX
  8
0
  6
CONTINUOUS
 10
5.333240
 20
4.378440
  0
VERTEX
  8
0
  6
CONTINUOUS
 10
5.410680
 20
4.369200
  0
VERTEX
  8
0
  6
CONTINUOUS
 10
5.488560
 20
4.367880
  0
VERTEX
  8
0
  6
CONTINUOUS
 10
5.508800
 20
4.435640
  0
VERTEX
  8
0
  6
CONTINUOUS
 10
5.535640
 20
4.491960
  0
VERTEX
  8
0
  6
CONTINUOUS
 10
5.567760
 20
4.536840
  0
VERTEX
  8
0
  6
CONTINUOUS
 10
5.603840
 20
4.571600
  0
VERTEX
  8
0
  6
CONTINUOUS
 10
5.643440
 20
4.596240
  0
VERTEX
  8
0
  6
CONTINUOUS
 10
5.684800
 20
4.611640
  0
VERTEX
  8
0
  6
CONTINUOUS
 10
5.727040
 20
4.618240
  0
VERTEX
  8
0
  6
CONTINUOUS
 10
5.769720
 20
4.616480
  0
VERTEX
  8
0
  6
CONTINUOUS
 10
5.811080
 20
4.607240
  0
VERTEX
  8
0
  6
CONTINUOUS
 10
5.850240
 20
4.590520
  0
VERTEX
  8
0
  6
CONTINUOUS
 10
5.886320
 20
4.567640
  0
VERTEX
  8
0
  6
CONTINUOUS
 10
5.918440
 20
4.538160
  0
VERTEX
  8
0
  6
CONTINUOUS
 10
5.944840
 20
4.503840
  0
VERTEX
  8
0
  6
CONTINUOUS
 10
5.965080
 20
4.464680
  0
VERTEX
  8
0
  6
CONTINUOUS
 10
5.978280
 20
4.421120
  0
VERTEX
  8
0
  6
CONTINUOUS
 10
5.982680
 20
4.373600
  0
VERTEX
  8
0
  6
CONTINUOUS
 10
5.982240
 20
4.373600
  0
SEQEND
  8
0
  0
SOLID
  8
0
 62
    15
 10
3.091000
 20
5.245240
 11
3.093640
 21
5.987080
 12
3.129720
 22
5.221040
 13
3.132360
 23
5.962880
  0
POLYLINE
  8
0
  6
CONTINUOUS
 66
     1
 40
0.000000
 41
0.000000
  0
VERTEX
  8
0
  6
CONTINUOUS
 10
3.091000
 20
5.245240
  0
VERTEX
  8
0
  6
CONTINUOUS
 10
3.093640
 20
5.987080
  0
VERTEX
  8
0
  6
CONTINUOUS
 10
3.132360
 20
5.962880
  0
VERTEX
  8
0
  6
CONTINUOUS
 10
3.129720
 20
5.221040
  0
VERTEX
  8
0
  6
CONTINUOUS
 10
3.091000
 20
5.245240
  0
SEQEND
  8
0
  0
SOLID
  8
0
 62
    15
 10
2.897400
 20
5.607360
 11
2.899600
 21
6.348760
 12
2.900920
 22
5.563800
 13
2.903560
 23
6.305640
  0
POLYLINE
  8
0
  6
CONTINUOUS
 66
     1
 40
0.000000
 41
0.000000
  0
VERTEX
  8
0
  6
CONTINUOUS
 10
2.897400
 20
5.607360
  0
VERTEX
  8
0
  6
CONTINUOUS
 10
2.899600
 20
6.348760
  0
VERTEX
  8
0
  6
CONTINUOUS
 10
2.903560
 20
6.305640
  0
VERTEX
  8
0
  6
CONTINUOUS
 10
2.900920
 20
5.563800
  0
VERTEX
  8
0
  6
CONTINUOUS
 10
2.897400
 20
5.607360
  0
SEQEND
  8
0
  0
SOLID
  8
0
 62
    15
 10
2.900920
 20
5.563800
 11
2.903560
 21
6.305640
 12
2.911480
 22
5.514960
 13
2.914120
 23
6.256800
  0
POLYLINE
  8
0
  6
CONTINUOUS
 66
     1
 40
0.000000
 41
0.000000
  0
VERTEX
  8
0
  6
CONTINUOUS
 10
2.900920
 20
5.563800
  0
VERTEX
  8
0
  6
CONTINUOUS
 10
2.903560
 20
6.305640
  0
VERTEX
  8
0
  6
CONTINUOUS
 10
2.914120
 20
6.256800
  0
VERTEX
  8
0
  6
CONTINUOUS
 10
2.911480
 20
5.514960
  0
VERTEX
  8
0
  6
CONTINUOUS
 10
2.900920
 20
5.563800
  0
SEQEND
  8
0
  0
SOLID
  8
0
 62
    15
 10
2.911480
 20
5.514960
 11
2.914120
 21
6.256800
 12
2.929080
 22
5.463480
 13
2.931280
 23
6.205320
  0
POLYLINE
  8
0
  6
CONTINUOUS
 66
     1
 40
0.000000
 41
0.000000
  0
VERTEX
  8
0
  6
CONTINUOUS
 10
2.911480
 20
5.514960
  0
VERTEX
  8
0
  6
CONTINUOUS
 10
2.914120
 20
6.256800
  0
VERTEX
  8
0
  6
CONTINUOUS
 10
2.931280
 20
6.205320
  0
VERTEX
  8
0
  6
CONTINUOUS
 10
2.929080
 20
5.463480
  0
VERTEX
  8
0
  6
CONTINUOUS
 10
2.911480
 20
5.514960
  0
SEQEND
  8
0
  0
SOLID
  8
0
 62
    15
 10
2.929080
 20
5.463480
 11
2.931280
 21
6.205320
 12
2.951960
 22
5.411120
 13
2.954600
 23
6.152520
  0
POLYLINE
  8
0
  6
CONTINUOUS
 66
     1
 40
0.000000
 41
0.000000
  0
VERTEX
  8
0
  6
CONTINUOUS
 10
2.929080
 20
5.463480
  0
VERTEX
  8
0
  6
CONTINUOUS
 10
2.931280
 20
6.205320
  0
VERTEX
  8
0
  6
CONTINUOUS
 10
2.954600
 20
6.152520
  0
VERTEX
  8
0
  6
CONTINUOUS
 10
2.951960
 20
5.411120
  0
VERTEX
  8
0
  6
CONTINUOUS
 10
2.929080
 20
5.463480
  0
SEQEND
  8
0
  0
SOLID
  8
0
 62
    15
 10
2.951960
 20
5.411120
 11
2.954600
 21
6.152520
 12
2.980560
 22
5.360520
 13
2.982760
 23
6.102360
  0
POLYLINE
  8
0
  6
CONTINUOUS
 66
     1
 40
0.000000
 41
0.000000
  0
VERTEX
  8
0
  6
CONTINUOUS
 10
2.951960
 20
5.411120
  0
VERTEX
  8
0
  6
CONTINUOUS
 10
2.954600
 20
6.152520
  0
VERTEX
  8
0
  6
CONTINUOUS
 10
2.982760
 20
6.102360
  0
VERTEX
  8
0
  6
CONTINUOUS
 10
2.980560
 20
5.360520
  0
VERTEX
  8
0
  6
CONTINUOUS
 10
2.951960
 20
5.411120
  0
SEQEND
  8
0
  0
SOLID
  8
0
 62
    15
 10
2.980560
 20
5.360520
 11
2.982760
 21
6.102360
 12
3.013560
 22
5.314320
 13
3.015760
 23
6.056160
  0
POLYLINE
  8
0
  6
CONTINUOUS
 66
     1
 40
0.000000
 41
0.000000
  0
VERTEX
  8
0
  6
CONTINUOUS
 10
2.980560
 20
5.360520
  0
VERTEX
  8
0
  6
CONTINUOUS
 10
2.982760
 20
6.102360
  0
VERTEX
  8
0
  6
CONTINUOUS
 10
3.015760
 20
6.056160
  0
VERTEX
  8
0
  6
CONTINUOUS
 10
3.013560
 20
5.314320
  0
VERTEX
  8
0
  6
CONTINUOUS
 10
2.980560
 20
5.360520
  0
SEQEND
  8
0
  0
SOLID
  8
0
 62
    15
 10
3.013560
 20
5.314320
 11
3.015760
 21
6.056160
 12
3.050520
 22
5.275160
 13
3.053160
 23
6.017000
  0
POLYLINE
  8
0
  6
CONTINUOUS
 66
     1
 40
0.000000
 41
0.000000
  0
VERTEX
  8
0
  6
CONTINUOUS
 10
3.013560
 20
5.314320
  0
VERTEX
  8
0
  6
CONTINUOUS
 10
3.015760
 20
6.056160
  0
VERTEX
  8
0
  6
CONTINUOUS
 10
3.053160
 20
6.017000
  0
VERTEX
  8
0
  6
CONTINUOUS
 10
3.050520
 20
5.275160
  0
VERTEX
  8
0
  6
CONTINUOUS
 10
3.013560
 20
5.314320
  0
SEQEND
  8
0
  0
SOLID
  8
0
 62
    15
 10
3.080880
 20
5.091680
 11
3.083520
 21
5.833520
 12
3.080880
 22
3.961320
 13
3.083520
 23
4.702720
  0
POLYLINE
  8
0
  6
CONTINUOUS
 66
     1
 40
0.000000
 41
0.000000
  0
VERTEX
  8
0
  6
CONTINUOUS
 10
3.080880
 20
5.091680
  0
VERTEX
  8
0
  6
CONTINUOUS
 10
3.083520
 20
5.833520
  0
VERTEX
  8
0
  6
CONTINUOUS
 10
3.083520
 20
4.702720
  0
VERTEX
  8
0
  6
CONTINUOUS
 10
3.080880
 20
3.961320
  0
VERTEX
  8
0
  6
CONTINUOUS
 10
3.080880
 20
5.091680
  0
SEQEND
  8
0
  0
SOLID
  8
0
 62
    15
 10
2.591160
 20
5.607360
 11
2.593360
 21
6.348760
 12
2.897400
 22
5.607360
 13
2.899600
 23
6.348760
  0
POLYLINE
  8
0
  6
CONTINUOUS
 66
     1
 40
0.000000
 41
0.000000
  0
VERTEX
  8
0
  6
CONTINUOUS
 10
2.591160
 20
5.607360
  0
VERTEX
  8
0
  6
CONTINUOUS
 10
2.593360
 20
6.348760
  0
VERTEX
  8
0
  6
CONTINUOUS
 10
2.899600
 20
6.348760
  0
VERTEX
  8
0
  6
CONTINUOUS
 10
2.897400
 20
5.607360
  0
VERTEX
  8
0
  6
CONTINUOUS
 10
2.591160
 20
5.607360
  0
SEQEND
  8
0
  0
SOLID
  8
0
 62
    15
 10
3.129720
 20
5.221040
 11
3.132360
 21
5.962880
 12
3.161840
 22
5.196840
 13
3.164480
 23
5.938680
  0
POLYLINE
  8
0
  6
CONTINUOUS
 66
     1
 40
0.000000
 41
0.000000
  0
VERTEX
  8
0
  6
CONTINUOUS
 10
3.129720
 20
5.221040
  0
VERTEX
  8
0
  6
CONTINUOUS
 10
3.132360
 20
5.962880
  0
VERTEX
  8
0
  6
CONTINUOUS
 10
3.164480
 20
5.938680
  0
VERTEX
  8
0
  6
CONTINUOUS
 10
3.161840
 20
5.196840
  0
VERTEX
  8
0
  6
CONTINUOUS
 10
3.129720
 20
5.221040
  0
SEQEND
  8
0
  0
SOLID
  8
0
 62
    15
 10
3.161840
 20
5.196840
 11
3.164480
 21
5.938680
 12
3.187800
 22
5.173520
 13
3.190000
 23
5.915360
  0
POLYLINE
  8
0
  6
CONTINUOUS
 66
     1
 40
0.000000
 41
0.000000
  0
VERTEX
  8
0
  6
CONTINUOUS
 10
3.161840
 20
5.196840
  0
VERTEX
  8
0
  6
CONTINUOUS
 10
3.164480
 20
5.938680
  0
VERTEX
  8
0
  6
CONTINUOUS
 10
3.190000
 20
5.915360
  0
VERTEX
  8
0
  6
CONTINUOUS
 10
3.187800
 20
5.173520
  0
VERTEX
  8
0
  6
CONTINUOUS
 10
3.161840
 20
5.196840
  0
SEQEND
  8
0
  0
SOLID
  8
0
 62
    15
 10
3.187800
 20
5.173520
 11
3.190000
 21
5.915360
 12
3.207160
 22
5.151960
 13
3.209800
 23
5.893360
  0
POLYLINE
  8
0
  6
CONTINUOUS
 66
     1
 40
0.000000
 41
0.000000
  0
VERTEX
  8
0
  6
CONTINUOUS
 10
3.187800
 20
5.173520
  0
VERTEX
  8
0
  6
CONTINUOUS
 10
3.190000
 20
5.915360
  0
VERTEX
  8
0
  6
CONTINUOUS
 10
3.209800
 20
5.893360
  0
VERTEX
  8
0
  6
CONTINUOUS
 10
3.207160
 20
5.151960
  0
VERTEX
  8
0
  6
CONTINUOUS
 10
3.187800
 20
5.173520
  0
SEQEND
  8
0
  0
SOLID
  8
0
 62
    15
 10
3.207160
 20
5.151960
 11
3.209800
 21
5.893360
 12
3.220360
 22
5.132160
 13
3.222560
 23
5.874000
  0
POLYLINE
  8
0
  6
CONTINUOUS
 66
     1
 40
0.000000
 41
0.000000
  0
VERTEX
  8
0
  6
CONTINUOUS
 10
3.207160
 20
5.151960
  0
VERTEX
  8
0
  6
CONTINUOUS
 10
3.209800
 20
5.893360
  0
VERTEX
  8
0
  6
CONTINUOUS
 10
3.222560
 20
5.874000
  0
VERTEX
  8
0
  6
CONTINUOUS
 10
3.220360
 20
5.132160
  0
VERTEX
  8
0
  6
CONTINUOUS
 10
3.207160
 20
5.151960
  0
SEQEND
  8
0
  0
SOLID
  8
0
 62
    15
 10
3.220360
 20
5.132160
 11
3.222560
 21
5.874000
 12
3.227400
 22
5.115000
 13
3.230040
 23
5.856840
  0
POLYLINE
  8
0
  6
CONTINUOUS
 66
     1
 40
0.000000
 41
0.000000
  0
VERTEX
  8
0
  6
CONTINUOUS
 10
3.220360
 20
5.132160
  0
VERTEX
  8
0
  6
CONTINUOUS
 10
3.222560
 20
5.874000
  0
VERTEX
  8
0
  6
CONTINUOUS
 10
3.230040
 20
5.856840
  0
VERTEX
  8
0
  6
CONTINUOUS
 10
3.227400
 20
5.115000
  0
VERTEX
  8
0
  6
CONTINUOUS
 10
3.220360
 20
5.132160
  0
SEQEND
  8
0
  0
SOLID
  8
0
 62
    15
 10
3.227400
 20
5.115000
 11
3.230040
 21
5.856840
 12
3.228280
 22
5.101360
 13
3.230920
 23
5.843200
  0
POLYLINE
  8
0
  6
CONTINUOUS
 66
     1
 40
0.000000
 41
0.000000
  0
VERTEX
  8
0
  6
CONTINUOUS
 10
3.227400
 20
5.115000
  0
VERTEX
  8
0
  6
CONTINUOUS
 10
3.230040
 20
5.856840
  0
VERTEX
  8
0
  6
CONTINUOUS
 10
3.230920
 20
5.843200
  0
VERTEX
  8
0
  6
CONTINUOUS
 10
3.228280
 20
5.101360
  0
VERTEX
  8
0
  6
CONTINUOUS
 10
3.227400
 20
5.115000
  0
SEQEND
  8
0
  0
SOLID
  8
0
 62
    15
 10
3.050520
 20
5.275160
 11
3.053160
 21
6.017000
 12
3.091000
 22
5.245240
 13
3.093640
 23
5.987080
  0
POLYLINE
  8
0
  6
CONTINUOUS
 66
     1
 40
0.000000
 41
0.000000
  0
VERTEX
  8
0
  6
CONTINUOUS
 10
3.050520
 20
5.275160
  0
VERTEX
  8
0
  6
CONTINUOUS
 10
3.053160
 20
6.017000
  0
VERTEX
  8
0
  6
CONTINUOUS
 10
3.093640
 20
5.987080
  0
VERTEX
  8
0
  6
CONTINUOUS
 10
3.091000
 20
5.245240
  0
VERTEX
  8
0
  6
CONTINUOUS
 10
3.050520
 20
5.275160
  0
SEQEND
  8
0
  0
SOLID
  8
0
 62
    15
 10
2.588960
 20
5.607800
 11
2.591160
 21
6.349640
 12
2.591160
 22
5.607360
 13
2.593360
 23
6.348760
  0
POLYLINE
  8
0
  6
CONTINUOUS
 66
     1
 40
0.000000
 41
0.000000
  0
VERTEX
  8
0
  6
CONTINUOUS
 10
2.588960
 20
5.607800
  0
VERTEX
  8
0
  6
CONTINUOUS
 10
2.591160
 20
6.349640
  0
VERTEX
  8
0
  6
CONTINUOUS
 10
2.593360
 20
6.348760
  0
VERTEX
  8
0
  6
CONTINUOUS
 10
2.591160
 20
5.607360
  0
VERTEX
  8
0
  6
CONTINUOUS
 10
2.588960
 20
5.607800
  0
SEQEND
  8
0
  0
POLYLINE
  8
0
  6
CONTINUOUS
 66
     1
 40
0.000000
 41
0.000000
  0
VERTEX
  8
0
  6
CONTINUOUS
 10
2.591160
 20
5.607360
  0
VERTEX
  8
0
  6
CONTINUOUS
 10
2.897400
 20
5.607360
  0
VERTEX
  8
0
  6
CONTINUOUS
 10
2.900920
 20
5.563800
  0
VERTEX
  8
0
  6
CONTINUOUS
 10
2.911480
 20
5.514960
  0
VERTEX
  8
0
  6
CONTINUOUS
 10
2.929080
 20
5.463480
  0
VERTEX
  8
0
  6
CONTINUOUS
 10
2.951960
 20
5.411120
  0
VERTEX
  8
0
  6
CONTINUOUS
 10
2.980560
 20
5.360520
  0
VERTEX
  8
0
  6
CONTINUOUS
 10
3.013560
 20
5.314320
  0
VERTEX
  8
0
  6
CONTINUOUS
 10
3.050520
 20
5.275160
  0
VERTEX
  8
0
  6
CONTINUOUS
 10
3.091000
 20
5.245240
  0
VERTEX
  8
0
  6
CONTINUOUS
 10
3.129720
 20
5.221040
  0
VERTEX
  8
0
  6
CONTINUOUS
 10
3.161840
 20
5.196840
  0
VERTEX
  8
0
  6
CONTINUOUS
 10
3.187800
 20
5.173520
  0
VERTEX
  8
0
  6
CONTINUOUS
 10
3.207160
 20
5.151960
  0
VERTEX
  8
0
  6
CONTINUOUS
 10
3.220360
 20
5.132160
  0
VERTEX
  8
0
  6
CONTINUOUS
 10
3.227400
 20
5.115000
  0
VERTEX
  8
0
  6
CONTINUOUS
 10
3.228280
 20
5.101360
  0
VERTEX
  8
0
  6
CONTINUOUS
 10
3.223880
 20
5.091680
  0
VERTEX
  8
0
  6
CONTINUOUS
 10
3.080880
 20
5.091680
  0
VERTEX
  8
0
  6
CONTINUOUS
 10
3.080880
 20
3.961320
  0
VERTEX
  8
0
  6
CONTINUOUS
 10
2.588960
 20
3.961320
  0
VERTEX
  8
0
  6
CONTINUOUS
 10
2.588960
 20
5.607800
  0
VERTEX
  8
0
  6
CONTINUOUS
 10
2.591160
 20
5.607360
  0
SEQEND
  8
0
  0
TEXT
  8
0
 10
3.175480
 20
4.110920
 40
0.138159
  1
626
 41
1.000000
  7
SN0
 71
     0
 72
     5
 11
3.452793
 21
4.110920
  0
TEXT
  8
0
 10
2.682240
 20
4.110920
 40
0.138159
  1
627
 41
1.000000
  7
SN0
 71
     0
 72
     5
 11
2.959553
 21
4.110920
  0
ENDSEC
  0
EOF
