  0
SECTION
  2
HEADER
  9
$ACADVER
  1
AC1006
  9
$EXTMIN
 10
4.045800
 20
0.755920
  9
$EXTMAX
 10
7.945960
 20
5.578760
  9
$LTSCALE
 40
0.044000
  9
$PDMODE
 70
    35
  9
$PDSIZE
 40
0.035200
  0
ENDSEC
  0
SECTION
  2
TABLES
  0
TABLE
  2
LTYPE
 70
     9
  0
LTYPE
  2
CONTINUOUS
 70
    64
  3
Solid line
 72
    65
 73
     0
 40
0.000000
  0
LTYPE
  2
DASHED
 70
    64
  3
__ __ __ __ __ __ __ __ __ __ __ __ __ __ __
 72
    65
 73
     2
 40
0.000330
 49
0.000220
 49
-0.000110
  0
LTYPE
  2
HIDDEN
 70
    64
  3
 _ _ _ _ _ _ _ _ _ _ _ _ _ _ _ _ _ _ _ _ _ _
 72
    65
 73
     2
 40
0.000165
 49
0.000110
 49
-0.000055
  0
LTYPE
  2
CENTER
 70
    64
  3
____ _ ____ _ ____ _ ____ _ ____ _ ____ _ ____
 72
    65
 73
     4
 40
0.000880
 49
0.000550
 49
-0.000110
 49
0.000110
 49
-0.000110
  0
LTYPE
  2
PHANTOM
 70
    64
  3
_____ _ _ _____ _ _ _____ _ _ _____ _ _ ____
 72
    65
 73
     6
 40
0.001100
 49
0.000550
 49
-0.000110
 49
0.000110
 49
-0.000110
 49
0.000110
 49
-0.000110
  0
LTYPE
  2
DOT
 70
    64
  3
...............................................
 72
    65
 73
     2
 40
0.000110
 49
0.000000
 49
-0.000110
  0
LTYPE
  2
DASHDOT
 70
    64
  3
__ . __ . __ . __ . __ . __ . __ . __ . __ . __
 72
    65
 73
     4
 40
0.000440
 49
0.000220
 49
-0.000110
 49
0.000000
 49
-0.000110
  0
LTYPE
  2
BORDER
 70
    64
  3
__ __ . __ __ . __ __ . __ __ . __ __ . __ __
 72
    65
 73
     6
 40
0.000770
 49
0.000220
 49
-0.000110
 49
0.000220
 49
-0.000110
 49
0.000000
 49
-0.000110
  0
LTYPE
  2
DIVIDE
 70
    64
  3
__ . . __ . . __ . . __ . . __ . . __ . . __
 72
    65
 73
     6
 40
0.000550
 49
0.000220
 49
-0.000110
 49
0.000000
 49
-0.000110
 49
0.000000
 49
-0.000110
  0
LTYPE
  2
DOTDOT
 70
    64
  3
 . .  . .  . .  . .  . .  . . 
 72
    65
 73
     5
 40
0.000242
 49
-0.000110
 49
0.000000
 49
-0.000110
 49
0.000000
 49
-0.000110
  0
ENDTAB
  0
TABLE
  2
STYLE
 70
     2
  0
STYLE
 70
     0
  2
SN0
 40
0.000000
 41
0.000440
 50
0.000000
 71
     0
 42
0.000000
  3
ROMAND
  0
STYLE
 70
    68
  2
SV0
 40
0.000000
 41
0.000440
 50
0.000000
 71
     0
 42
0.000000
  3
ROMAND
  0
ENDTAB
  0
TABLE
  2
LAYER
 70
     3
  0
LAYER
  2
FOREGROUND
 70
    64
 62
     7
  6
CONTINUOUS
  0
LAYER
  2
BACKGROUND
 70
    65
 62
    -7
  6
CONTINUOUS
  0
LAYER
  2
0
 70
    64
 62
     7
  6
CONTINUOUS
  0
ENDTAB
  0
ENDSEC
  0
SECTION
  2
ENTITIES
  0
POLYLINE
  8
FOREGROUND
  6
CONTINUOUS
 66
     1
 40
0.000000
 41
0.000000
  0
VERTEX
  8
FOREGROUND
  6
CONTINUOUS
 10
0.000000
 20
6.334680
  0
VERTEX
  8
FOREGROUND
  6
CONTINUOUS
 10
8.499920
 20
6.334680
  0
VERTEX
  8
FOREGROUND
  6
CONTINUOUS
 10
8.499920
 20
-4.665320
  0
VERTEX
  8
FOREGROUND
  6
CONTINUOUS
 10
0.000000
 20
-4.665320
  0
VERTEX
  8
FOREGROUND
  6
CONTINUOUS
 10
0.000000
 20
6.334680
  0
SEQEND
  8
0
  0
POLYLINE
  8
FOREGROUND
  6
CONTINUOUS
 66
     1
 40
0.000000
 41
0.000000
  0
VERTEX
  8
FOREGROUND
  6
CONTINUOUS
 10
0.000000
 20
6.334680
  0
VERTEX
  8
FOREGROUND
  6
CONTINUOUS
 10
8.499920
 20
6.334680
  0
VERTEX
  8
FOREGROUND
  6
CONTINUOUS
 10
8.499920
 20
-4.665320
  0
VERTEX
  8
FOREGROUND
  6
CONTINUOUS
 10
0.000000
 20
-4.665320
  0
VERTEX
  8
FOREGROUND
  6
CONTINUOUS
 10
0.000000
 20
6.334680
  0
SEQEND
  8
0
  0
POLYLINE
  8
0
  6
CONTINUOUS
 66
     1
 40
0.000000
 41
0.000000
  0
VERTEX
  8
0
  6
CONTINUOUS
 10
7.945960
 20
4.366120
  0
VERTEX
  8
0
  6
CONTINUOUS
 10
7.944640
 20
4.390320
  0
VERTEX
  8
0
  6
CONTINUOUS
 10
7.941560
 20
4.413640
  0
VERTEX
  8
0
  6
CONTINUOUS
 10
7.935840
 20
4.435640
  0
VERTEX
  8
0
  6
CONTINUOUS
 10
7.928360
 20
4.457200
  0
VERTEX
  8
0
  6
CONTINUOUS
 10
7.919120
 20
4.477440
  0
VERTEX
  8
0
  6
CONTINUOUS
 10
7.895800
 20
4.514400
  0
VERTEX
  8
0
  6
CONTINUOUS
 10
7.866320
 20
4.546080
  0
VERTEX
  8
0
  6
CONTINUOUS
 10
7.832000
 20
4.572040
  0
VERTEX
  8
0
  6
CONTINUOUS
 10
7.813520
 20
4.583040
  0
VERTEX
  8
0
  6
CONTINUOUS
 10
7.794160
 20
4.592280
  0
VERTEX
  8
0
  6
CONTINUOUS
 10
7.753680
 20
4.605040
  0
VERTEX
  8
0
  6
CONTINUOUS
 10
7.733000
 20
4.609000
  0
VERTEX
  8
0
  6
CONTINUOUS
 10
7.711880
 20
4.610760
  0
VERTEX
  8
0
  6
CONTINUOUS
 10
7.690760
 20
4.610760
  0
VERTEX
  8
0
  6
CONTINUOUS
 10
7.669200
 20
4.608560
  0
VERTEX
  8
0
  6
CONTINUOUS
 10
7.648080
 20
4.604160
  0
VERTEX
  8
0
  6
CONTINUOUS
 10
7.627400
 20
4.597560
  0
VERTEX
  8
0
  6
CONTINUOUS
 10
7.606720
 20
4.588760
  0
VERTEX
  8
0
  6
CONTINUOUS
 10
7.576800
 20
4.571160
  0
VERTEX
  8
0
  6
CONTINUOUS
 10
7.548640
 20
4.548280
  0
VERTEX
  8
0
  6
CONTINUOUS
 10
7.522680
 20
4.519240
  0
VERTEX
  8
0
  6
CONTINUOUS
 10
7.498920
 20
4.484480
  0
VERTEX
  8
0
  6
CONTINUOUS
 10
7.478240
 20
4.443560
  0
VERTEX
  8
0
  6
CONTINUOUS
 10
7.461080
 20
4.395600
  0
VERTEX
  8
0
  6
CONTINUOUS
 10
7.451400
 20
4.360400
  0
VERTEX
  8
0
  6
CONTINUOUS
 10
7.373520
 20
4.361720
  0
VERTEX
  8
0
  6
CONTINUOUS
 10
7.315880
 20
4.367880
  0
VERTEX
  8
0
  6
CONTINUOUS
 10
7.257360
 20
4.379320
  0
VERTEX
  8
0
  6
CONTINUOUS
 10
7.198840
 20
4.399120
  0
VERTEX
  8
0
  6
CONTINUOUS
 10
7.139880
 20
4.428160
  0
VERTEX
  8
0
  6
CONTINUOUS
 10
7.099400
 20
4.454120
  0
VERTEX
  8
0
  6
CONTINUOUS
 10
7.058920
 20
4.484920
  0
VERTEX
  8
0
  6
CONTINUOUS
 10
7.017560
 20
4.522320
  0
VERTEX
  8
0
  6
CONTINUOUS
 10
6.975760
 20
4.565880
  0
VERTEX
  8
0
  6
CONTINUOUS
 10
6.933080
 20
4.616480
  0
VERTEX
  8
0
  6
CONTINUOUS
 10
6.889080
 20
4.675000
  0
VERTEX
  8
0
  6
CONTINUOUS
 10
6.821760
 20
4.777960
  0
VERTEX
  8
0
  6
CONTINUOUS
 10
6.775560
 20
4.854960
  0
VERTEX
  8
0
  6
CONTINUOUS
 10
6.738600
 20
4.906440
  0
VERTEX
  8
0
  6
CONTINUOUS
 10
6.700320
 20
4.951320
  0
VERTEX
  8
0
  6
CONTINUOUS
 10
6.660280
 20
4.989600
  0
VERTEX
  8
0
  6
CONTINUOUS
 10
6.619800
 20
5.021720
  0
VERTEX
  8
0
  6
CONTINUOUS
 10
6.578000
 20
5.047240
  0
VERTEX
  8
0
  6
CONTINUOUS
 10
6.535760
 20
5.067480
  0
VERTEX
  8
0
  6
CONTINUOUS
 10
6.507600
 20
5.077600
  0
VERTEX
  8
0
  6
CONTINUOUS
 10
6.479440
 20
5.085080
  0
VERTEX
  8
0
  6
CONTINUOUS
 10
6.450840
 20
5.090360
  0
VERTEX
  8
0
  6
CONTINUOUS
 10
6.422680
 20
5.093000
  0
VERTEX
  8
0
  6
CONTINUOUS
 10
6.394520
 20
5.093440
  0
VERTEX
  8
0
  6
CONTINUOUS
 10
6.366800
 20
5.091680
  0
VERTEX
  8
0
  6
CONTINUOUS
 10
6.339520
 20
5.087720
  0
VERTEX
  8
0
  6
CONTINUOUS
 10
6.312240
 20
5.081560
  0
VERTEX
  8
0
  6
CONTINUOUS
 10
6.285840
 20
5.073200
  0
VERTEX
  8
0
  6
CONTINUOUS
 10
6.259880
 20
5.063080
  0
VERTEX
  8
0
  6
CONTINUOUS
 10
6.234360
 20
5.051200
  0
VERTEX
  8
0
  6
CONTINUOUS
 10
6.209280
 20
5.037120
  0
VERTEX
  8
0
  6
CONTINUOUS
 10
6.162640
 20
5.003240
  0
VERTEX
  8
0
  6
CONTINUOUS
 10
6.140200
 20
4.983880
  0
VERTEX
  8
0
  6
CONTINUOUS
 10
6.098840
 20
4.939880
  0
VERTEX
  8
0
  6
CONTINUOUS
 10
6.062320
 20
4.890160
  0
VERTEX
  8
0
  6
CONTINUOUS
 10
6.031080
 20
4.834280
  0
VERTEX
  8
0
  6
CONTINUOUS
 10
6.017440
 20
4.804360
  0
VERTEX
  8
0
  6
CONTINUOUS
 10
5.995000
 20
4.806120
  0
VERTEX
  8
0
  6
CONTINUOUS
 10
5.968600
 20
4.812280
  0
VERTEX
  8
0
  6
CONTINUOUS
 10
5.929440
 20
4.827680
  0
VERTEX
  8
0
  6
CONTINUOUS
 10
5.888520
 20
4.851440
  0
VERTEX
  8
0
  6
CONTINUOUS
 10
5.859040
 20
4.875640
  0
VERTEX
  8
0
  6
CONTINUOUS
 10
5.831760
 20
4.905120
  0
VERTEX
  8
0
  6
CONTINUOUS
 10
5.808000
 20
4.940760
  0
VERTEX
  8
0
  6
CONTINUOUS
 10
5.794800
 20
4.968040
  0
VERTEX
  8
0
  6
CONTINUOUS
 10
5.780280
 20
5.014240
  0
VERTEX
  8
0
  6
CONTINUOUS
 10
5.774560
 20
5.049000
  0
VERTEX
  8
0
  6
CONTINUOUS
 10
5.772800
 20
5.086400
  0
VERTEX
  8
0
  6
CONTINUOUS
 10
5.029640
 20
5.086400
  0
VERTEX
  8
0
  6
CONTINUOUS
 10
5.029640
 20
3.956920
  0
VERTEX
  8
0
  6
CONTINUOUS
 10
7.945520
 20
3.956920
  0
VERTEX
  8
0
  6
CONTINUOUS
 10
7.945960
 20
4.366120
  0
SEQEND
  8
0
  0
POLYLINE
  8
0
  6
CONTINUOUS
 66
     1
 40
0.000000
 41
0.000000
  0
VERTEX
  8
0
  6
CONTINUOUS
 10
4.046240
 20
5.578320
  0
VERTEX
  8
0
  6
CONTINUOUS
 10
4.046240
 20
3.937560
  0
VERTEX
  8
0
  6
CONTINUOUS
 10
4.538600
 20
3.937560
  0
VERTEX
  8
0
  6
CONTINUOUS
 10
4.538600
 20
4.059440
  0
VERTEX
  8
0
  6
CONTINUOUS
 10
4.538600
 20
5.063520
  0
VERTEX
  8
0
  6
CONTINUOUS
 10
4.681160
 20
5.063520
  0
VERTEX
  8
0
  6
CONTINUOUS
 10
4.684240
 20
5.067920
  0
VERTEX
  8
0
  6
CONTINUOUS
 10
4.686000
 20
5.073200
  0
VERTEX
  8
0
  6
CONTINUOUS
 10
4.686440
 20
5.079800
  0
VERTEX
  8
0
  6
CONTINUOUS
 10
4.685120
 20
5.087280
  0
VERTEX
  8
0
  6
CONTINUOUS
 10
4.682040
 20
5.095200
  0
VERTEX
  8
0
  6
CONTINUOUS
 10
4.678080
 20
5.104000
  0
VERTEX
  8
0
  6
CONTINUOUS
 10
4.671920
 20
5.113680
  0
VERTEX
  8
0
  6
CONTINUOUS
 10
4.664880
 20
5.123360
  0
VERTEX
  8
0
  6
CONTINUOUS
 10
4.656080
 20
5.134360
  0
VERTEX
  8
0
  6
CONTINUOUS
 10
4.645520
 20
5.145360
  0
VERTEX
  8
0
  6
CONTINUOUS
 10
4.633200
 20
5.156800
  0
VERTEX
  8
0
  6
CONTINUOUS
 10
4.619560
 20
5.168240
  0
VERTEX
  8
0
  6
CONTINUOUS
 10
4.604160
 20
5.180120
  0
VERTEX
  8
0
  6
CONTINUOUS
 10
4.587440
 20
5.192440
  0
VERTEX
  8
0
  6
CONTINUOUS
 10
4.568960
 20
5.204320
  0
VERTEX
  8
0
  6
CONTINUOUS
 10
4.548720
 20
5.216640
  0
VERTEX
  8
0
  6
CONTINUOUS
 10
4.538160
 20
5.223240
  0
VERTEX
  8
0
  6
CONTINUOUS
 10
4.528040
 20
5.230280
  0
VERTEX
  8
0
  6
CONTINUOUS
 10
4.517920
 20
5.238200
  0
VERTEX
  8
0
  6
CONTINUOUS
 10
4.508240
 20
5.246560
  0
VERTEX
  8
0
  6
CONTINUOUS
 10
4.489320
 20
5.265040
  0
VERTEX
  8
0
  6
CONTINUOUS
 10
4.471280
 20
5.285720
  0
VERTEX
  8
0
  6
CONTINUOUS
 10
4.454120
 20
5.307720
  0
VERTEX
  8
0
  6
CONTINUOUS
 10
4.437840
 20
5.331480
  0
VERTEX
  8
0
  6
CONTINUOUS
 10
4.423320
 20
5.356120
  0
VERTEX
  8
0
  6
CONTINUOUS
 10
4.409680
 20
5.381640
  0
VERTEX
  8
0
  6
CONTINUOUS
 10
4.397360
 20
5.408040
  0
VERTEX
  8
0
  6
CONTINUOUS
 10
4.386360
 20
5.434000
  0
VERTEX
  8
0
  6
CONTINUOUS
 10
4.377120
 20
5.459960
  0
VERTEX
  8
0
  6
CONTINUOUS
 10
4.369200
 20
5.485480
  0
VERTEX
  8
0
  6
CONTINUOUS
 10
4.363040
 20
5.510560
  0
VERTEX
  8
0
  6
CONTINUOUS
 10
4.358200
 20
5.534320
  0
VERTEX
  8
0
  6
CONTINUOUS
 10
4.355560
 20
5.556760
  0
VERTEX
  8
0
  6
CONTINUOUS
 10
4.355120
 20
5.567320
  0
VERTEX
  8
0
  6
CONTINUOUS
 10
4.354680
 20
5.577440
  0
VERTEX
  8
0
  6
CONTINUOUS
 10
4.048440
 20
5.577440
  0
VERTEX
  8
0
  6
CONTINUOUS
 10
4.046240
 20
5.578320
  0
SEQEND
  8
0
  0
TEXT
  8
0
 10
5.082880
 20
0.992200
 40
0.138159
  1
BA  626 1-1/8" X 2-15/16"
 41
1.000000
  7
SN0
 71
     0
 72
     5
 11
6.981632
 21
0.992200
  0
TEXT
  8
0
 10
5.248760
 20
0.800360
 40
0.138159
  1
BA  627 5/8" X 1-5/8"
 41
1.000000
  7
SN0
 71
     0
 72
     5
 11
6.815218
 21
0.800360
  0
SOLID
  8
0
 62
    15
 10
6.627720
 20
2.009480
 11
6.624640
 21
2.732400
 12
6.672160
 22
1.943040
 13
6.669520
 23
2.665960
  0
POLYLINE
  8
0
  6
CONTINUOUS
 66
     1
 40
0.000000
 41
0.000000
  0
VERTEX
  8
0
  6
CONTINUOUS
 10
6.627720
 20
2.009480
  0
VERTEX
  8
0
  6
CONTINUOUS
 10
6.624640
 20
2.732400
  0
VERTEX
  8
0
  6
CONTINUOUS
 10
6.669520
 20
2.665960
  0
VERTEX
  8
0
  6
CONTINUOUS
 10
6.672160
 20
1.943040
  0
VERTEX
  8
0
  6
CONTINUOUS
 10
6.627720
 20
2.009480
  0
SEQEND
  8
0
  0
SOLID
  8
0
 62
    15
 10
4.812280
 20
1.224960
 11
4.809640
 21
1.947880
 12
4.812280
 22
2.354440
 13
4.809640
 23
3.077360
  0
POLYLINE
  8
0
  6
CONTINUOUS
 66
     1
 40
0.000000
 41
0.000000
  0
VERTEX
  8
0
  6
CONTINUOUS
 10
4.812280
 20
1.224960
  0
VERTEX
  8
0
  6
CONTINUOUS
 10
4.809640
 20
1.947880
  0
VERTEX
  8
0
  6
CONTINUOUS
 10
4.809640
 20
3.077360
  0
VERTEX
  8
0
  6
CONTINUOUS
 10
4.812280
 20
2.354440
  0
VERTEX
  8
0
  6
CONTINUOUS
 10
4.812280
 20
1.224960
  0
SEQEND
  8
0
  0
SOLID
  8
0
 62
    15
 10
5.555440
 20
2.354440
 11
5.552800
 21
3.077360
 12
5.563360
 22
2.282280
 13
5.560280
 23
3.005200
  0
POLYLINE
  8
0
  6
CONTINUOUS
 66
     1
 40
0.000000
 41
0.000000
  0
VERTEX
  8
0
  6
CONTINUOUS
 10
5.555440
 20
2.354440
  0
VERTEX
  8
0
  6
CONTINUOUS
 10
5.552800
 20
3.077360
  0
VERTEX
  8
0
  6
CONTINUOUS
 10
5.560280
 20
3.005200
  0
VERTEX
  8
0
  6
CONTINUOUS
 10
5.563360
 20
2.282280
  0
VERTEX
  8
0
  6
CONTINUOUS
 10
5.555440
 20
2.354440
  0
SEQEND
  8
0
  0
SOLID
  8
0
 62
    15
 10
5.563360
 20
2.282280
 11
5.560280
 21
3.005200
 12
5.584040
 22
2.222000
 13
5.580960
 23
2.945360
  0
POLYLINE
  8
0
  6
CONTINUOUS
 66
     1
 40
0.000000
 41
0.000000
  0
VERTEX
  8
0
  6
CONTINUOUS
 10
5.563360
 20
2.282280
  0
VERTEX
  8
0
  6
CONTINUOUS
 10
5.560280
 20
3.005200
  0
VERTEX
  8
0
  6
CONTINUOUS
 10
5.580960
 20
2.945360
  0
VERTEX
  8
0
  6
CONTINUOUS
 10
5.584040
 20
2.222000
  0
VERTEX
  8
0
  6
CONTINUOUS
 10
5.563360
 20
2.282280
  0
SEQEND
  8
0
  0
SOLID
  8
0
 62
    15
 10
5.584040
 20
2.222000
 11
5.580960
 21
2.945360
 12
5.614400
 22
2.173160
 13
5.611760
 23
2.896520
  0
POLYLINE
  8
0
  6
CONTINUOUS
 66
     1
 40
0.000000
 41
0.000000
  0
VERTEX
  8
0
  6
CONTINUOUS
 10
5.584040
 20
2.222000
  0
VERTEX
  8
0
  6
CONTINUOUS
 10
5.580960
 20
2.945360
  0
VERTEX
  8
0
  6
CONTINUOUS
 10
5.611760
 20
2.896520
  0
VERTEX
  8
0
  6
CONTINUOUS
 10
5.614400
 20
2.173160
  0
VERTEX
  8
0
  6
CONTINUOUS
 10
5.584040
 20
2.222000
  0
SEQEND
  8
0
  0
SOLID
  8
0
 62
    15
 10
5.614400
 20
2.173160
 11
5.611760
 21
2.896520
 12
5.651360
 22
2.134880
 13
5.648720
 23
2.858240
  0
POLYLINE
  8
0
  6
CONTINUOUS
 66
     1
 40
0.000000
 41
0.000000
  0
VERTEX
  8
0
  6
CONTINUOUS
 10
5.614400
 20
2.173160
  0
VERTEX
  8
0
  6
CONTINUOUS
 10
5.611760
 20
2.896520
  0
VERTEX
  8
0
  6
CONTINUOUS
 10
5.648720
 20
2.858240
  0
VERTEX
  8
0
  6
CONTINUOUS
 10
5.651360
 20
2.134880
  0
VERTEX
  8
0
  6
CONTINUOUS
 10
5.614400
 20
2.173160
  0
SEQEND
  8
0
  0
SOLID
  8
0
 62
    15
 10
5.651360
 20
2.134880
 11
5.648720
 21
2.858240
 12
5.691840
 22
2.106720
 13
5.689200
 23
2.829640
  0
POLYLINE
  8
0
  6
CONTINUOUS
 66
     1
 40
0.000000
 41
0.000000
  0
VERTEX
  8
0
  6
CONTINUOUS
 10
5.651360
 20
2.134880
  0
VERTEX
  8
0
  6
CONTINUOUS
 10
5.648720
 20
2.858240
  0
VERTEX
  8
0
  6
CONTINUOUS
 10
5.689200
 20
2.829640
  0
VERTEX
  8
0
  6
CONTINUOUS
 10
5.691840
 20
2.106720
  0
VERTEX
  8
0
  6
CONTINUOUS
 10
5.651360
 20
2.134880
  0
SEQEND
  8
0
  0
SOLID
  8
0
 62
    15
 10
5.691840
 20
2.106720
 11
5.689200
 21
2.829640
 12
5.732320
 22
2.086920
 13
5.729680
 23
2.810280
  0
POLYLINE
  8
0
  6
CONTINUOUS
 66
     1
 40
0.000000
 41
0.000000
  0
VERTEX
  8
0
  6
CONTINUOUS
 10
5.691840
 20
2.106720
  0
VERTEX
  8
0
  6
CONTINUOUS
 10
5.689200
 20
2.829640
  0
VERTEX
  8
0
  6
CONTINUOUS
 10
5.729680
 20
2.810280
  0
VERTEX
  8
0
  6
CONTINUOUS
 10
5.732320
 20
2.086920
  0
VERTEX
  8
0
  6
CONTINUOUS
 10
5.691840
 20
2.106720
  0
SEQEND
  8
0
  0
SOLID
  8
0
 62
    15
 10
5.732320
 20
2.086920
 11
5.729680
 21
2.810280
 12
5.769280
 22
2.075920
 13
5.766640
 23
2.798840
  0
POLYLINE
  8
0
  6
CONTINUOUS
 66
     1
 40
0.000000
 41
0.000000
  0
VERTEX
  8
0
  6
CONTINUOUS
 10
5.732320
 20
2.086920
  0
VERTEX
  8
0
  6
CONTINUOUS
 10
5.729680
 20
2.810280
  0
VERTEX
  8
0
  6
CONTINUOUS
 10
5.766640
 20
2.798840
  0
VERTEX
  8
0
  6
CONTINUOUS
 10
5.769280
 20
2.075920
  0
VERTEX
  8
0
  6
CONTINUOUS
 10
5.732320
 20
2.086920
  0
SEQEND
  8
0
  0
SOLID
  8
0
 62
    15
 10
5.769280
 20
2.075920
 11
5.766640
 21
2.798840
 12
5.800080
 22
2.072400
 13
5.797440
 23
2.795320
  0
POLYLINE
  8
0
  6
CONTINUOUS
 66
     1
 40
0.000000
 41
0.000000
  0
VERTEX
  8
0
  6
CONTINUOUS
 10
5.769280
 20
2.075920
  0
VERTEX
  8
0
  6
CONTINUOUS
 10
5.766640
 20
2.798840
  0
VERTEX
  8
0
  6
CONTINUOUS
 10
5.797440
 20
2.795320
  0
VERTEX
  8
0
  6
CONTINUOUS
 10
5.800080
 20
2.072400
  0
VERTEX
  8
0
  6
CONTINUOUS
 10
5.769280
 20
2.075920
  0
SEQEND
  8
0
  0
SOLID
  8
0
 62
    15
 10
5.800080
 20
2.072400
 11
5.797440
 21
2.795320
 12
5.828680
 22
2.130920
 13
5.826040
 23
2.853840
  0
POLYLINE
  8
0
  6
CONTINUOUS
 66
     1
 40
0.000000
 41
0.000000
  0
VERTEX
  8
0
  6
CONTINUOUS
 10
5.800080
 20
2.072400
  0
VERTEX
  8
0
  6
CONTINUOUS
 10
5.797440
 20
2.795320
  0
VERTEX
  8
0
  6
CONTINUOUS
 10
5.826040
 20
2.853840
  0
VERTEX
  8
0
  6
CONTINUOUS
 10
5.828680
 20
2.130920
  0
VERTEX
  8
0
  6
CONTINUOUS
 10
5.800080
 20
2.072400
  0
SEQEND
  8
0
  0
SOLID
  8
0
 62
    15
 10
5.828680
 20
2.130920
 11
5.826040
 21
2.853840
 12
5.863000
 22
2.183720
 13
5.859920
 23
2.906640
  0
POLYLINE
  8
0
  6
CONTINUOUS
 66
     1
 40
0.000000
 41
0.000000
  0
VERTEX
  8
0
  6
CONTINUOUS
 10
5.828680
 20
2.130920
  0
VERTEX
  8
0
  6
CONTINUOUS
 10
5.826040
 20
2.853840
  0
VERTEX
  8
0
  6
CONTINUOUS
 10
5.859920
 20
2.906640
  0
VERTEX
  8
0
  6
CONTINUOUS
 10
5.863000
 20
2.183720
  0
VERTEX
  8
0
  6
CONTINUOUS
 10
5.828680
 20
2.130920
  0
SEQEND
  8
0
  0
SOLID
  8
0
 62
    15
 10
5.863000
 20
2.183720
 11
5.859920
 21
2.906640
 12
5.901720
 22
2.230800
 13
5.899080
 23
2.953720
  0
POLYLINE
  8
0
  6
CONTINUOUS
 66
     1
 40
0.000000
 41
0.000000
  0
VERTEX
  8
0
  6
CONTINUOUS
 10
5.863000
 20
2.183720
  0
VERTEX
  8
0
  6
CONTINUOUS
 10
5.859920
 20
2.906640
  0
VERTEX
  8
0
  6
CONTINUOUS
 10
5.899080
 20
2.953720
  0
VERTEX
  8
0
  6
CONTINUOUS
 10
5.901720
 20
2.230800
  0
VERTEX
  8
0
  6
CONTINUOUS
 10
5.863000
 20
2.183720
  0
SEQEND
  8
0
  0
SOLID
  8
0
 62
    15
 10
5.901720
 20
2.230800
 11
5.899080
 21
2.953720
 12
5.945280
 22
2.271280
 13
5.942640
 23
2.994200
  0
POLYLINE
  8
0
  6
CONTINUOUS
 66
     1
 40
0.000000
 41
0.000000
  0
VERTEX
  8
0
  6
CONTINUOUS
 10
5.901720
 20
2.230800
  0
VERTEX
  8
0
  6
CONTINUOUS
 10
5.899080
 20
2.953720
  0
VERTEX
  8
0
  6
CONTINUOUS
 10
5.942640
 20
2.994200
  0
VERTEX
  8
0
  6
CONTINUOUS
 10
5.945280
 20
2.271280
  0
VERTEX
  8
0
  6
CONTINUOUS
 10
5.901720
 20
2.230800
  0
SEQEND
  8
0
  0
SOLID
  8
0
 62
    15
 10
5.945280
 20
2.271280
 11
5.942640
 21
2.994200
 12
5.992360
 22
2.304720
 13
5.989280
 23
3.028080
  0
POLYLINE
  8
0
  6
CONTINUOUS
 66
     1
 40
0.000000
 41
0.000000
  0
VERTEX
  8
0
  6
CONTINUOUS
 10
5.945280
 20
2.271280
  0
VERTEX
  8
0
  6
CONTINUOUS
 10
5.942640
 20
2.994200
  0
VERTEX
  8
0
  6
CONTINUOUS
 10
5.989280
 20
3.028080
  0
VERTEX
  8
0
  6
CONTINUOUS
 10
5.992360
 20
2.304720
  0
VERTEX
  8
0
  6
CONTINUOUS
 10
5.945280
 20
2.271280
  0
SEQEND
  8
0
  0
SOLID
  8
0
 62
    15
 10
5.992360
 20
2.304720
 11
5.989280
 21
3.028080
 12
6.042520
 22
2.331120
 13
6.039880
 23
3.054040
  0
POLYLINE
  8
0
  6
CONTINUOUS
 66
     1
 40
0.000000
 41
0.000000
  0
VERTEX
  8
0
  6
CONTINUOUS
 10
5.992360
 20
2.304720
  0
VERTEX
  8
0
  6
CONTINUOUS
 10
5.989280
 20
3.028080
  0
VERTEX
  8
0
  6
CONTINUOUS
 10
6.039880
 20
3.054040
  0
VERTEX
  8
0
  6
CONTINUOUS
 10
6.042520
 20
2.331120
  0
VERTEX
  8
0
  6
CONTINUOUS
 10
5.992360
 20
2.304720
  0
SEQEND
  8
0
  0
SOLID
  8
0
 62
    15
 10
6.042520
 20
2.331120
 11
6.039880
 21
3.054040
 12
6.095320
 22
2.349600
 13
6.092240
 23
3.072520
  0
POLYLINE
  8
0
  6
CONTINUOUS
 66
     1
 40
0.000000
 41
0.000000
  0
VERTEX
  8
0
  6
CONTINUOUS
 10
6.042520
 20
2.331120
  0
VERTEX
  8
0
  6
CONTINUOUS
 10
6.039880
 20
3.054040
  0
VERTEX
  8
0
  6
CONTINUOUS
 10
6.092240
 20
3.072520
  0
VERTEX
  8
0
  6
CONTINUOUS
 10
6.095320
 20
2.349600
  0
VERTEX
  8
0
  6
CONTINUOUS
 10
6.042520
 20
2.331120
  0
SEQEND
  8
0
  0
SOLID
  8
0
 62
    15
 10
6.095320
 20
2.349600
 11
6.092240
 21
3.072520
 12
6.149880
 22
2.359720
 13
6.146800
 23
3.082640
  0
POLYLINE
  8
0
  6
CONTINUOUS
 66
     1
 40
0.000000
 41
0.000000
  0
VERTEX
  8
0
  6
CONTINUOUS
 10
6.095320
 20
2.349600
  0
VERTEX
  8
0
  6
CONTINUOUS
 10
6.092240
 20
3.072520
  0
VERTEX
  8
0
  6
CONTINUOUS
 10
6.146800
 20
3.082640
  0
VERTEX
  8
0
  6
CONTINUOUS
 10
6.149880
 20
2.359720
  0
VERTEX
  8
0
  6
CONTINUOUS
 10
6.095320
 20
2.349600
  0
SEQEND
  8
0
  0
SOLID
  8
0
 62
    15
 10
6.149880
 20
2.359720
 11
6.146800
 21
3.082640
 12
6.205760
 22
2.361040
 13
6.202680
 23
3.083960
  0
POLYLINE
  8
0
  6
CONTINUOUS
 66
     1
 40
0.000000
 41
0.000000
  0
VERTEX
  8
0
  6
CONTINUOUS
 10
6.149880
 20
2.359720
  0
VERTEX
  8
0
  6
CONTINUOUS
 10
6.146800
 20
3.082640
  0
VERTEX
  8
0
  6
CONTINUOUS
 10
6.202680
 20
3.083960
  0
VERTEX
  8
0
  6
CONTINUOUS
 10
6.205760
 20
2.361040
  0
VERTEX
  8
0
  6
CONTINUOUS
 10
6.149880
 20
2.359720
  0
SEQEND
  8
0
  0
SOLID
  8
0
 62
    15
 10
6.205760
 20
2.361040
 11
6.202680
 21
3.083960
 12
6.262080
 22
2.353120
 13
6.259440
 23
3.076040
  0
POLYLINE
  8
0
  6
CONTINUOUS
 66
     1
 40
0.000000
 41
0.000000
  0
VERTEX
  8
0
  6
CONTINUOUS
 10
6.205760
 20
2.361040
  0
VERTEX
  8
0
  6
CONTINUOUS
 10
6.202680
 20
3.083960
  0
VERTEX
  8
0
  6
CONTINUOUS
 10
6.259440
 20
3.076040
  0
VERTEX
  8
0
  6
CONTINUOUS
 10
6.262080
 20
2.353120
  0
VERTEX
  8
0
  6
CONTINUOUS
 10
6.205760
 20
2.361040
  0
SEQEND
  8
0
  0
SOLID
  8
0
 62
    15
 10
6.262080
 20
2.353120
 11
6.259440
 21
3.076040
 12
6.318840
 22
2.335080
 13
6.316200
 23
3.058000
  0
POLYLINE
  8
0
  6
CONTINUOUS
 66
     1
 40
0.000000
 41
0.000000
  0
VERTEX
  8
0
  6
CONTINUOUS
 10
6.262080
 20
2.353120
  0
VERTEX
  8
0
  6
CONTINUOUS
 10
6.259440
 20
3.076040
  0
VERTEX
  8
0
  6
CONTINUOUS
 10
6.316200
 20
3.058000
  0
VERTEX
  8
0
  6
CONTINUOUS
 10
6.318840
 20
2.335080
  0
VERTEX
  8
0
  6
CONTINUOUS
 10
6.262080
 20
2.353120
  0
SEQEND
  8
0
  0
SOLID
  8
0
 62
    15
 10
6.318840
 20
2.335080
 11
6.316200
 21
3.058000
 12
6.374720
 22
2.307360
 13
6.372080
 23
3.030280
  0
POLYLINE
  8
0
  6
CONTINUOUS
 66
     1
 40
0.000000
 41
0.000000
  0
VERTEX
  8
0
  6
CONTINUOUS
 10
6.318840
 20
2.335080
  0
VERTEX
  8
0
  6
CONTINUOUS
 10
6.316200
 20
3.058000
  0
VERTEX
  8
0
  6
CONTINUOUS
 10
6.372080
 20
3.030280
  0
VERTEX
  8
0
  6
CONTINUOUS
 10
6.374720
 20
2.307360
  0
VERTEX
  8
0
  6
CONTINUOUS
 10
6.318840
 20
2.335080
  0
SEQEND
  8
0
  0
SOLID
  8
0
 62
    15
 10
6.374720
 20
2.307360
 11
6.372080
 21
3.030280
 12
6.429720
 22
2.268640
 13
6.427080
 23
2.991560
  0
POLYLINE
  8
0
  6
CONTINUOUS
 66
     1
 40
0.000000
 41
0.000000
  0
VERTEX
  8
0
  6
CONTINUOUS
 10
6.374720
 20
2.307360
  0
VERTEX
  8
0
  6
CONTINUOUS
 10
6.372080
 20
3.030280
  0
VERTEX
  8
0
  6
CONTINUOUS
 10
6.427080
 20
2.991560
  0
VERTEX
  8
0
  6
CONTINUOUS
 10
6.429720
 20
2.268640
  0
VERTEX
  8
0
  6
CONTINUOUS
 10
6.374720
 20
2.307360
  0
SEQEND
  8
0
  0
SOLID
  8
0
 62
    15
 10
6.429720
 20
2.268640
 11
6.427080
 21
2.991560
 12
6.482960
 22
2.218920
 13
6.480320
 23
2.941840
  0
POLYLINE
  8
0
  6
CONTINUOUS
 66
     1
 40
0.000000
 41
0.000000
  0
VERTEX
  8
0
  6
CONTINUOUS
 10
6.429720
 20
2.268640
  0
VERTEX
  8
0
  6
CONTINUOUS
 10
6.427080
 20
2.991560
  0
VERTEX
  8
0
  6
CONTINUOUS
 10
6.480320
 20
2.941840
  0
VERTEX
  8
0
  6
CONTINUOUS
 10
6.482960
 20
2.218920
  0
VERTEX
  8
0
  6
CONTINUOUS
 10
6.429720
 20
2.268640
  0
SEQEND
  8
0
  0
SOLID
  8
0
 62
    15
 10
6.482960
 20
2.218920
 11
6.480320
 21
2.941840
 12
6.534000
 22
2.157760
 13
6.531360
 23
2.880680
  0
POLYLINE
  8
0
  6
CONTINUOUS
 66
     1
 40
0.000000
 41
0.000000
  0
VERTEX
  8
0
  6
CONTINUOUS
 10
6.482960
 20
2.218920
  0
VERTEX
  8
0
  6
CONTINUOUS
 10
6.480320
 20
2.941840
  0
VERTEX
  8
0
  6
CONTINUOUS
 10
6.531360
 20
2.880680
  0
VERTEX
  8
0
  6
CONTINUOUS
 10
6.534000
 20
2.157760
  0
VERTEX
  8
0
  6
CONTINUOUS
 10
6.482960
 20
2.218920
  0
SEQEND
  8
0
  0
SOLID
  8
0
 62
    15
 10
6.534000
 20
2.157760
 11
6.531360
 21
2.880680
 12
6.581960
 22
2.084280
 13
6.579320
 23
2.807200
  0
POLYLINE
  8
0
  6
CONTINUOUS
 66
     1
 40
0.000000
 41
0.000000
  0
VERTEX
  8
0
  6
CONTINUOUS
 10
6.534000
 20
2.157760
  0
VERTEX
  8
0
  6
CONTINUOUS
 10
6.531360
 20
2.880680
  0
VERTEX
  8
0
  6
CONTINUOUS
 10
6.579320
 20
2.807200
  0
VERTEX
  8
0
  6
CONTINUOUS
 10
6.581960
 20
2.084280
  0
VERTEX
  8
0
  6
CONTINUOUS
 10
6.534000
 20
2.157760
  0
SEQEND
  8
0
  0
SOLID
  8
0
 62
    15
 10
6.581960
 20
2.084280
 11
6.579320
 21
2.807200
 12
6.627720
 22
2.009480
 13
6.624640
 23
2.732400
  0
POLYLINE
  8
0
  6
CONTINUOUS
 66
     1
 40
0.000000
 41
0.000000
  0
VERTEX
  8
0
  6
CONTINUOUS
 10
6.581960
 20
2.084280
  0
VERTEX
  8
0
  6
CONTINUOUS
 10
6.579320
 20
2.807200
  0
VERTEX
  8
0
  6
CONTINUOUS
 10
6.624640
 20
2.732400
  0
VERTEX
  8
0
  6
CONTINUOUS
 10
6.627720
 20
2.009480
  0
VERTEX
  8
0
  6
CONTINUOUS
 10
6.581960
 20
2.084280
  0
SEQEND
  8
0
  0
SOLID
  8
0
 62
    15
 10
4.812280
 20
2.354440
 11
4.809640
 21
3.077360
 12
5.555440
 22
2.354440
 13
5.552800
 23
3.077360
  0
POLYLINE
  8
0
  6
CONTINUOUS
 66
     1
 40
0.000000
 41
0.000000
  0
VERTEX
  8
0
  6
CONTINUOUS
 10
4.812280
 20
2.354440
  0
VERTEX
  8
0
  6
CONTINUOUS
 10
4.809640
 20
3.077360
  0
VERTEX
  8
0
  6
CONTINUOUS
 10
5.552800
 20
3.077360
  0
VERTEX
  8
0
  6
CONTINUOUS
 10
5.555440
 20
2.354440
  0
VERTEX
  8
0
  6
CONTINUOUS
 10
4.812280
 20
2.354440
  0
SEQEND
  8
0
  0
SOLID
  8
0
 62
    15
 10
6.672160
 20
1.943040
 11
6.669520
 21
2.665960
 12
6.715720
 22
1.884520
 13
6.713080
 23
2.607440
  0
POLYLINE
  8
0
  6
CONTINUOUS
 66
     1
 40
0.000000
 41
0.000000
  0
VERTEX
  8
0
  6
CONTINUOUS
 10
6.672160
 20
1.943040
  0
VERTEX
  8
0
  6
CONTINUOUS
 10
6.669520
 20
2.665960
  0
VERTEX
  8
0
  6
CONTINUOUS
 10
6.713080
 20
2.607440
  0
VERTEX
  8
0
  6
CONTINUOUS
 10
6.715720
 20
1.884520
  0
VERTEX
  8
0
  6
CONTINUOUS
 10
6.672160
 20
1.943040
  0
SEQEND
  8
0
  0
SOLID
  8
0
 62
    15
 10
6.715720
 20
1.884520
 11
6.713080
 21
2.607440
 12
6.758840
 22
1.833920
 13
6.755760
 23
2.556840
  0
POLYLINE
  8
0
  6
CONTINUOUS
 66
     1
 40
0.000000
 41
0.000000
  0
VERTEX
  8
0
  6
CONTINUOUS
 10
6.715720
 20
1.884520
  0
VERTEX
  8
0
  6
CONTINUOUS
 10
6.713080
 20
2.607440
  0
VERTEX
  8
0
  6
CONTINUOUS
 10
6.755760
 20
2.556840
  0
VERTEX
  8
0
  6
CONTINUOUS
 10
6.758840
 20
1.833920
  0
VERTEX
  8
0
  6
CONTINUOUS
 10
6.715720
 20
1.884520
  0
SEQEND
  8
0
  0
SOLID
  8
0
 62
    15
 10
6.758840
 20
1.833920
 11
6.755760
 21
2.556840
 12
6.800640
 22
1.789920
 13
6.798000
 23
2.513280
  0
POLYLINE
  8
0
  6
CONTINUOUS
 66
     1
 40
0.000000
 41
0.000000
  0
VERTEX
  8
0
  6
CONTINUOUS
 10
6.758840
 20
1.833920
  0
VERTEX
  8
0
  6
CONTINUOUS
 10
6.755760
 20
2.556840
  0
VERTEX
  8
0
  6
CONTINUOUS
 10
6.798000
 20
2.513280
  0
VERTEX
  8
0
  6
CONTINUOUS
 10
6.800640
 20
1.789920
  0
VERTEX
  8
0
  6
CONTINUOUS
 10
6.758840
 20
1.833920
  0
SEQEND
  8
0
  0
SOLID
  8
0
 62
    15
 10
6.800640
 20
1.789920
 11
6.798000
 21
2.513280
 12
6.842000
 22
1.752960
 13
6.838920
 23
2.475880
  0
POLYLINE
  8
0
  6
CONTINUOUS
 66
     1
 40
0.000000
 41
0.000000
  0
VERTEX
  8
0
  6
CONTINUOUS
 10
6.800640
 20
1.789920
  0
VERTEX
  8
0
  6
CONTINUOUS
 10
6.798000
 20
2.513280
  0
VERTEX
  8
0
  6
CONTINUOUS
 10
6.838920
 20
2.475880
  0
VERTEX
  8
0
  6
CONTINUOUS
 10
6.842000
 20
1.752960
  0
VERTEX
  8
0
  6
CONTINUOUS
 10
6.800640
 20
1.789920
  0
SEQEND
  8
0
  0
SOLID
  8
0
 62
    15
 10
6.842000
 20
1.752960
 11
6.838920
 21
2.475880
 12
6.882480
 22
1.721720
 13
6.879840
 23
2.444640
  0
POLYLINE
  8
0
  6
CONTINUOUS
 66
     1
 40
0.000000
 41
0.000000
  0
VERTEX
  8
0
  6
CONTINUOUS
 10
6.842000
 20
1.752960
  0
VERTEX
  8
0
  6
CONTINUOUS
 10
6.838920
 20
2.475880
  0
VERTEX
  8
0
  6
CONTINUOUS
 10
6.879840
 20
2.444640
  0
VERTEX
  8
0
  6
CONTINUOUS
 10
6.882480
 20
1.721720
  0
VERTEX
  8
0
  6
CONTINUOUS
 10
6.842000
 20
1.752960
  0
SEQEND
  8
0
  0
SOLID
  8
0
 62
    15
 10
6.882480
 20
1.721720
 11
6.879840
 21
2.444640
 12
6.922520
 22
1.696200
 13
6.919880
 23
2.419120
  0
POLYLINE
  8
0
  6
CONTINUOUS
 66
     1
 40
0.000000
 41
0.000000
  0
VERTEX
  8
0
  6
CONTINUOUS
 10
6.882480
 20
1.721720
  0
VERTEX
  8
0
  6
CONTINUOUS
 10
6.879840
 20
2.444640
  0
VERTEX
  8
0
  6
CONTINUOUS
 10
6.919880
 20
2.419120
  0
VERTEX
  8
0
  6
CONTINUOUS
 10
6.922520
 20
1.696200
  0
VERTEX
  8
0
  6
CONTINUOUS
 10
6.882480
 20
1.721720
  0
SEQEND
  8
0
  0
SOLID
  8
0
 62
    15
 10
6.922520
 20
1.696200
 11
6.919880
 21
2.419120
 12
7.001280
 22
1.659680
 13
6.998640
 23
2.382600
  0
POLYLINE
  8
0
  6
CONTINUOUS
 66
     1
 40
0.000000
 41
0.000000
  0
VERTEX
  8
0
  6
CONTINUOUS
 10
6.922520
 20
1.696200
  0
VERTEX
  8
0
  6
CONTINUOUS
 10
6.919880
 20
2.419120
  0
VERTEX
  8
0
  6
CONTINUOUS
 10
6.998640
 20
2.382600
  0
VERTEX
  8
0
  6
CONTINUOUS
 10
7.001280
 20
1.659680
  0
VERTEX
  8
0
  6
CONTINUOUS
 10
6.922520
 20
1.696200
  0
SEQEND
  8
0
  0
SOLID
  8
0
 62
    15
 10
7.001280
 20
1.659680
 11
6.998640
 21
2.382600
 12
7.079160
 22
1.638560
 13
7.076520
 23
2.361920
  0
POLYLINE
  8
0
  6
CONTINUOUS
 66
     1
 40
0.000000
 41
0.000000
  0
VERTEX
  8
0
  6
CONTINUOUS
 10
7.001280
 20
1.659680
  0
VERTEX
  8
0
  6
CONTINUOUS
 10
6.998640
 20
2.382600
  0
VERTEX
  8
0
  6
CONTINUOUS
 10
7.076520
 20
2.361920
  0
VERTEX
  8
0
  6
CONTINUOUS
 10
7.079160
 20
1.638560
  0
VERTEX
  8
0
  6
CONTINUOUS
 10
7.001280
 20
1.659680
  0
SEQEND
  8
0
  0
SOLID
  8
0
 62
    15
 10
7.079160
 20
1.638560
 11
7.076520
 21
2.361920
 12
7.156600
 22
1.629760
 13
7.153960
 23
2.352680
  0
POLYLINE
  8
0
  6
CONTINUOUS
 66
     1
 40
0.000000
 41
0.000000
  0
VERTEX
  8
0
  6
CONTINUOUS
 10
7.079160
 20
1.638560
  0
VERTEX
  8
0
  6
CONTINUOUS
 10
7.076520
 20
2.361920
  0
VERTEX
  8
0
  6
CONTINUOUS
 10
7.153960
 20
2.352680
  0
VERTEX
  8
0
  6
CONTINUOUS
 10
7.156600
 20
1.629760
  0
VERTEX
  8
0
  6
CONTINUOUS
 10
7.079160
 20
1.638560
  0
SEQEND
  8
0
  0
SOLID
  8
0
 62
    15
 10
7.156600
 20
1.629760
 11
7.153960
 21
2.352680
 12
7.234480
 22
1.628440
 13
7.231840
 23
2.351360
  0
POLYLINE
  8
0
  6
CONTINUOUS
 66
     1
 40
0.000000
 41
0.000000
  0
VERTEX
  8
0
  6
CONTINUOUS
 10
7.156600
 20
1.629760
  0
VERTEX
  8
0
  6
CONTINUOUS
 10
7.153960
 20
2.352680
  0
VERTEX
  8
0
  6
CONTINUOUS
 10
7.231840
 20
2.351360
  0
VERTEX
  8
0
  6
CONTINUOUS
 10
7.234480
 20
1.628440
  0
VERTEX
  8
0
  6
CONTINUOUS
 10
7.156600
 20
1.629760
  0
SEQEND
  8
0
  0
SOLID
  8
0
 62
    15
 10
7.234480
 20
1.628440
 11
7.231840
 21
2.351360
 12
7.255160
 22
1.696200
 13
7.252080
 23
2.419120
  0
POLYLINE
  8
0
  6
CONTINUOUS
 66
     1
 40
0.000000
 41
0.000000
  0
VERTEX
  8
0
  6
CONTINUOUS
 10
7.234480
 20
1.628440
  0
VERTEX
  8
0
  6
CONTINUOUS
 10
7.231840
 20
2.351360
  0
VERTEX
  8
0
  6
CONTINUOUS
 10
7.252080
 20
2.419120
  0
VERTEX
  8
0
  6
CONTINUOUS
 10
7.255160
 20
1.696200
  0
VERTEX
  8
0
  6
CONTINUOUS
 10
7.234480
 20
1.628440
  0
SEQEND
  8
0
  0
SOLID
  8
0
 62
    15
 10
7.255160
 20
1.696200
 11
7.252080
 21
2.419120
 12
7.282000
 22
1.752520
 13
7.278920
 23
2.475440
  0
POLYLINE
  8
0
  6
CONTINUOUS
 66
     1
 40
0.000000
 41
0.000000
  0
VERTEX
  8
0
  6
CONTINUOUS
 10
7.255160
 20
1.696200
  0
VERTEX
  8
0
  6
CONTINUOUS
 10
7.252080
 20
2.419120
  0
VERTEX
  8
0
  6
CONTINUOUS
 10
7.278920
 20
2.475440
  0
VERTEX
  8
0
  6
CONTINUOUS
 10
7.282000
 20
1.752520
  0
VERTEX
  8
0
  6
CONTINUOUS
 10
7.255160
 20
1.696200
  0
SEQEND
  8
0
  0
SOLID
  8
0
 62
    15
 10
7.282000
 20
1.752520
 11
7.278920
 21
2.475440
 12
7.313680
 22
1.797400
 13
7.311040
 23
2.520320
  0
POLYLINE
  8
0
  6
CONTINUOUS
 66
     1
 40
0.000000
 41
0.000000
  0
VERTEX
  8
0
  6
CONTINUOUS
 10
7.282000
 20
1.752520
  0
VERTEX
  8
0
  6
CONTINUOUS
 10
7.278920
 20
2.475440
  0
VERTEX
  8
0
  6
CONTINUOUS
 10
7.311040
 20
2.520320
  0
VERTEX
  8
0
  6
CONTINUOUS
 10
7.313680
 20
1.797400
  0
VERTEX
  8
0
  6
CONTINUOUS
 10
7.282000
 20
1.752520
  0
SEQEND
  8
0
  0
SOLID
  8
0
 62
    15
 10
7.313680
 20
1.797400
 11
7.311040
 21
2.520320
 12
7.350200
 22
1.832160
 13
7.347560
 23
2.555080
  0
POLYLINE
  8
0
  6
CONTINUOUS
 66
     1
 40
0.000000
 41
0.000000
  0
VERTEX
  8
0
  6
CONTINUOUS
 10
7.313680
 20
1.797400
  0
VERTEX
  8
0
  6
CONTINUOUS
 10
7.311040
 20
2.520320
  0
VERTEX
  8
0
  6
CONTINUOUS
 10
7.347560
 20
2.555080
  0
VERTEX
  8
0
  6
CONTINUOUS
 10
7.350200
 20
1.832160
  0
VERTEX
  8
0
  6
CONTINUOUS
 10
7.313680
 20
1.797400
  0
SEQEND
  8
0
  0
SOLID
  8
0
 62
    15
 10
7.350200
 20
1.832160
 11
7.347560
 21
2.555080
 12
7.389360
 22
1.856800
 13
7.386720
 23
2.579720
  0
POLYLINE
  8
0
  6
CONTINUOUS
 66
     1
 40
0.000000
 41
0.000000
  0
VERTEX
  8
0
  6
CONTINUOUS
 10
7.350200
 20
1.832160
  0
VERTEX
  8
0
  6
CONTINUOUS
 10
7.347560
 20
2.555080
  0
VERTEX
  8
0
  6
CONTINUOUS
 10
7.386720
 20
2.579720
  0
VERTEX
  8
0
  6
CONTINUOUS
 10
7.389360
 20
1.856800
  0
VERTEX
  8
0
  6
CONTINUOUS
 10
7.350200
 20
1.832160
  0
SEQEND
  8
0
  0
SOLID
  8
0
 62
    15
 10
7.389360
 20
1.856800
 11
7.386720
 21
2.579720
 12
7.430720
 22
1.872200
 13
7.428080
 23
2.595120
  0
POLYLINE
  8
0
  6
CONTINUOUS
 66
     1
 40
0.000000
 41
0.000000
  0
VERTEX
  8
0
  6
CONTINUOUS
 10
7.389360
 20
1.856800
  0
VERTEX
  8
0
  6
CONTINUOUS
 10
7.386720
 20
2.579720
  0
VERTEX
  8
0
  6
CONTINUOUS
 10
7.428080
 20
2.595120
  0
VERTEX
  8
0
  6
CONTINUOUS
 10
7.430720
 20
1.872200
  0
VERTEX
  8
0
  6
CONTINUOUS
 10
7.389360
 20
1.856800
  0
SEQEND
  8
0
  0
SOLID
  8
0
 62
    15
 10
7.430720
 20
1.872200
 11
7.428080
 21
2.595120
 12
7.473400
 22
1.878800
 13
7.470760
 23
2.601720
  0
POLYLINE
  8
0
  6
CONTINUOUS
 66
     1
 40
0.000000
 41
0.000000
  0
VERTEX
  8
0
  6
CONTINUOUS
 10
7.430720
 20
1.872200
  0
VERTEX
  8
0
  6
CONTINUOUS
 10
7.428080
 20
2.595120
  0
VERTEX
  8
0
  6
CONTINUOUS
 10
7.470760
 20
2.601720
  0
VERTEX
  8
0
  6
CONTINUOUS
 10
7.473400
 20
1.878800
  0
VERTEX
  8
0
  6
CONTINUOUS
 10
7.430720
 20
1.872200
  0
SEQEND
  8
0
  0
SOLID
  8
0
 62
    15
 10
7.473400
 20
1.878800
 11
7.470760
 21
2.601720
 12
7.515640
 22
1.877040
 13
7.513000
 23
2.599960
  0
POLYLINE
  8
0
  6
CONTINUOUS
 66
     1
 40
0.000000
 41
0.000000
  0
VERTEX
  8
0
  6
CONTINUOUS
 10
7.473400
 20
1.878800
  0
VERTEX
  8
0
  6
CONTINUOUS
 10
7.470760
 20
2.601720
  0
VERTEX
  8
0
  6
CONTINUOUS
 10
7.513000
 20
2.599960
  0
VERTEX
  8
0
  6
CONTINUOUS
 10
7.515640
 20
1.877040
  0
VERTEX
  8
0
  6
CONTINUOUS
 10
7.473400
 20
1.878800
  0
SEQEND
  8
0
  0
SOLID
  8
0
 62
    15
 10
7.515640
 20
1.877040
 11
7.513000
 21
2.599960
 12
7.557000
 22
1.867360
 13
7.554360
 23
2.590280
  0
POLYLINE
  8
0
  6
CONTINUOUS
 66
     1
 40
0.000000
 41
0.000000
  0
VERTEX
  8
0
  6
CONTINUOUS
 10
7.515640
 20
1.877040
  0
VERTEX
  8
0
  6
CONTINUOUS
 10
7.513000
 20
2.599960
  0
VERTEX
  8
0
  6
CONTINUOUS
 10
7.554360
 20
2.590280
  0
VERTEX
  8
0
  6
CONTINUOUS
 10
7.557000
 20
1.867360
  0
VERTEX
  8
0
  6
CONTINUOUS
 10
7.515640
 20
1.877040
  0
SEQEND
  8
0
  0
SOLID
  8
0
 62
    15
 10
7.557000
 20
1.867360
 11
7.554360
 21
2.590280
 12
7.596160
 22
1.851080
 13
7.593520
 23
2.574000
  0
POLYLINE
  8
0
  6
CONTINUOUS
 66
     1
 40
0.000000
 41
0.000000
  0
VERTEX
  8
0
  6
CONTINUOUS
 10
7.557000
 20
1.867360
  0
VERTEX
  8
0
  6
CONTINUOUS
 10
7.554360
 20
2.590280
  0
VERTEX
  8
0
  6
CONTINUOUS
 10
7.593520
 20
2.574000
  0
VERTEX
  8
0
  6
CONTINUOUS
 10
7.596160
 20
1.851080
  0
VERTEX
  8
0
  6
CONTINUOUS
 10
7.557000
 20
1.867360
  0
SEQEND
  8
0
  0
SOLID
  8
0
 62
    15
 10
7.596160
 20
1.851080
 11
7.593520
 21
2.574000
 12
7.632240
 22
1.827760
 13
7.629600
 23
2.551120
  0
POLYLINE
  8
0
  6
CONTINUOUS
 66
     1
 40
0.000000
 41
0.000000
  0
VERTEX
  8
0
  6
CONTINUOUS
 10
7.596160
 20
1.851080
  0
VERTEX
  8
0
  6
CONTINUOUS
 10
7.593520
 20
2.574000
  0
VERTEX
  8
0
  6
CONTINUOUS
 10
7.629600
 20
2.551120
  0
VERTEX
  8
0
  6
CONTINUOUS
 10
7.632240
 20
1.827760
  0
VERTEX
  8
0
  6
CONTINUOUS
 10
7.596160
 20
1.851080
  0
SEQEND
  8
0
  0
SOLID
  8
0
 62
    15
 10
7.632240
 20
1.827760
 11
7.629600
 21
2.551120
 12
7.664360
 22
1.798720
 13
7.661720
 23
2.521640
  0
POLYLINE
  8
0
  6
CONTINUOUS
 66
     1
 40
0.000000
 41
0.000000
  0
VERTEX
  8
0
  6
CONTINUOUS
 10
7.632240
 20
1.827760
  0
VERTEX
  8
0
  6
CONTINUOUS
 10
7.629600
 20
2.551120
  0
VERTEX
  8
0
  6
CONTINUOUS
 10
7.661720
 20
2.521640
  0
VERTEX
  8
0
  6
CONTINUOUS
 10
7.664360
 20
1.798720
  0
VERTEX
  8
0
  6
CONTINUOUS
 10
7.632240
 20
1.827760
  0
SEQEND
  8
0
  0
SOLID
  8
0
 62
    15
 10
7.664360
 20
1.798720
 11
7.661720
 21
2.521640
 12
7.690760
 22
1.764400
 13
7.688120
 23
2.487320
  0
POLYLINE
  8
0
  6
CONTINUOUS
 66
     1
 40
0.000000
 41
0.000000
  0
VERTEX
  8
0
  6
CONTINUOUS
 10
7.664360
 20
1.798720
  0
VERTEX
  8
0
  6
CONTINUOUS
 10
7.661720
 20
2.521640
  0
VERTEX
  8
0
  6
CONTINUOUS
 10
7.688120
 20
2.487320
  0
VERTEX
  8
0
  6
CONTINUOUS
 10
7.690760
 20
1.764400
  0
VERTEX
  8
0
  6
CONTINUOUS
 10
7.664360
 20
1.798720
  0
SEQEND
  8
0
  0
SOLID
  8
0
 62
    15
 10
7.690760
 20
1.764400
 11
7.688120
 21
2.487320
 12
7.711440
 22
1.725240
 13
7.708360
 23
2.448160
  0
POLYLINE
  8
0
  6
CONTINUOUS
 66
     1
 40
0.000000
 41
0.000000
  0
VERTEX
  8
0
  6
CONTINUOUS
 10
7.690760
 20
1.764400
  0
VERTEX
  8
0
  6
CONTINUOUS
 10
7.688120
 20
2.487320
  0
VERTEX
  8
0
  6
CONTINUOUS
 10
7.708360
 20
2.448160
  0
VERTEX
  8
0
  6
CONTINUOUS
 10
7.711440
 20
1.725240
  0
VERTEX
  8
0
  6
CONTINUOUS
 10
7.690760
 20
1.764400
  0
SEQEND
  8
0
  0
SOLID
  8
0
 62
    15
 10
7.724200
 20
1.681240
 11
7.721560
 21
2.404600
 12
7.728600
 22
1.634160
 13
7.725960
 23
2.357080
  0
POLYLINE
  8
0
  6
CONTINUOUS
 66
     1
 40
0.000000
 41
0.000000
  0
VERTEX
  8
0
  6
CONTINUOUS
 10
7.724200
 20
1.681240
  0
VERTEX
  8
0
  6
CONTINUOUS
 10
7.721560
 20
2.404600
  0
VERTEX
  8
0
  6
CONTINUOUS
 10
7.725960
 20
2.357080
  0
VERTEX
  8
0
  6
CONTINUOUS
 10
7.728600
 20
1.634160
  0
VERTEX
  8
0
  6
CONTINUOUS
 10
7.724200
 20
1.681240
  0
SEQEND
  8
0
  0
SOLID
  8
0
 62
    15
 10
7.711440
 20
1.725240
 11
7.708360
 21
2.448160
 12
7.724200
 22
1.681240
 13
7.721560
 23
2.404600
  0
POLYLINE
  8
0
  6
CONTINUOUS
 66
     1
 40
0.000000
 41
0.000000
  0
VERTEX
  8
0
  6
CONTINUOUS
 10
7.711440
 20
1.725240
  0
VERTEX
  8
0
  6
CONTINUOUS
 10
7.708360
 20
2.448160
  0
VERTEX
  8
0
  6
CONTINUOUS
 10
7.721560
 20
2.404600
  0
VERTEX
  8
0
  6
CONTINUOUS
 10
7.724200
 20
1.681240
  0
VERTEX
  8
0
  6
CONTINUOUS
 10
7.711440
 20
1.725240
  0
SEQEND
  8
0
  0
POLYLINE
  8
0
  6
CONTINUOUS
 66
     1
 40
0.000000
 41
0.000000
  0
VERTEX
  8
0
  6
CONTINUOUS
 10
7.728160
 20
1.634160
  0
VERTEX
  8
0
  6
CONTINUOUS
 10
7.728160
 20
1.224960
  0
VERTEX
  8
0
  6
CONTINUOUS
 10
4.812280
 20
1.224960
  0
VERTEX
  8
0
  6
CONTINUOUS
 10
4.812280
 20
2.354440
  0
VERTEX
  8
0
  6
CONTINUOUS
 10
5.555440
 20
2.354440
  0
VERTEX
  8
0
  6
CONTINUOUS
 10
5.563360
 20
2.282280
  0
VERTEX
  8
0
  6
CONTINUOUS
 10
5.584040
 20
2.222000
  0
VERTEX
  8
0
  6
CONTINUOUS
 10
5.614400
 20
2.173160
  0
VERTEX
  8
0
  6
CONTINUOUS
 10
5.651360
 20
2.134880
  0
VERTEX
  8
0
  6
CONTINUOUS
 10
5.691840
 20
2.106720
  0
VERTEX
  8
0
  6
CONTINUOUS
 10
5.732320
 20
2.086920
  0
VERTEX
  8
0
  6
CONTINUOUS
 10
5.769280
 20
2.075920
  0
VERTEX
  8
0
  6
CONTINUOUS
 10
5.800080
 20
2.072400
  0
VERTEX
  8
0
  6
CONTINUOUS
 10
5.828680
 20
2.130920
  0
VERTEX
  8
0
  6
CONTINUOUS
 10
5.863000
 20
2.183720
  0
VERTEX
  8
0
  6
CONTINUOUS
 10
5.901720
 20
2.230800
  0
VERTEX
  8
0
  6
CONTINUOUS
 10
5.945280
 20
2.271280
  0
VERTEX
  8
0
  6
CONTINUOUS
 10
5.992360
 20
2.304720
  0
VERTEX
  8
0
  6
CONTINUOUS
 10
6.042520
 20
2.331120
  0
VERTEX
  8
0
  6
CONTINUOUS
 10
6.095320
 20
2.349600
  0
VERTEX
  8
0
  6
CONTINUOUS
 10
6.149880
 20
2.359720
  0
VERTEX
  8
0
  6
CONTINUOUS
 10
6.205760
 20
2.361040
  0
VERTEX
  8
0
  6
CONTINUOUS
 10
6.262080
 20
2.353120
  0
VERTEX
  8
0
  6
CONTINUOUS
 10
6.318840
 20
2.335080
  0
VERTEX
  8
0
  6
CONTINUOUS
 10
6.374720
 20
2.307360
  0
VERTEX
  8
0
  6
CONTINUOUS
 10
6.429720
 20
2.268640
  0
VERTEX
  8
0
  6
CONTINUOUS
 10
6.482960
 20
2.218920
  0
VERTEX
  8
0
  6
CONTINUOUS
 10
6.534000
 20
2.157760
  0
VERTEX
  8
0
  6
CONTINUOUS
 10
6.581960
 20
2.084280
  0
VERTEX
  8
0
  6
CONTINUOUS
 10
6.627720
 20
2.009480
  0
VERTEX
  8
0
  6
CONTINUOUS
 10
6.672160
 20
1.943040
  0
VERTEX
  8
0
  6
CONTINUOUS
 10
6.715720
 20
1.884520
  0
VERTEX
  8
0
  6
CONTINUOUS
 10
6.758840
 20
1.833920
  0
VERTEX
  8
0
  6
CONTINUOUS
 10
6.800640
 20
1.789920
  0
VERTEX
  8
0
  6
CONTINUOUS
 10
6.842000
 20
1.752960
  0
VERTEX
  8
0
  6
CONTINUOUS
 10
6.882480
 20
1.721720
  0
VERTEX
  8
0
  6
CONTINUOUS
 10
6.922520
 20
1.696200
  0
VERTEX
  8
0
  6
CONTINUOUS
 10
7.001280
 20
1.659680
  0
VERTEX
  8
0
  6
CONTINUOUS
 10
7.079160
 20
1.638560
  0
VERTEX
  8
0
  6
CONTINUOUS
 10
7.156600
 20
1.629760
  0
VERTEX
  8
0
  6
CONTINUOUS
 10
7.234480
 20
1.628440
  0
VERTEX
  8
0
  6
CONTINUOUS
 10
7.255160
 20
1.696200
  0
VERTEX
  8
0
  6
CONTINUOUS
 10
7.282000
 20
1.752520
  0
VERTEX
  8
0
  6
CONTINUOUS
 10
7.313680
 20
1.797400
  0
VERTEX
  8
0
  6
CONTINUOUS
 10
7.350200
 20
1.832160
  0
VERTEX
  8
0
  6
CONTINUOUS
 10
7.389360
 20
1.856800
  0
VERTEX
  8
0
  6
CONTINUOUS
 10
7.430720
 20
1.872200
  0
VERTEX
  8
0
  6
CONTINUOUS
 10
7.473400
 20
1.878800
  0
VERTEX
  8
0
  6
CONTINUOUS
 10
7.515640
 20
1.877040
  0
VERTEX
  8
0
  6
CONTINUOUS
 10
7.557000
 20
1.867360
  0
VERTEX
  8
0
  6
CONTINUOUS
 10
7.596160
 20
1.851080
  0
VERTEX
  8
0
  6
CONTINUOUS
 10
7.632240
 20
1.827760
  0
VERTEX
  8
0
  6
CONTINUOUS
 10
7.664360
 20
1.798720
  0
VERTEX
  8
0
  6
CONTINUOUS
 10
7.690760
 20
1.764400
  0
VERTEX
  8
0
  6
CONTINUOUS
 10
7.711440
 20
1.725240
  0
VERTEX
  8
0
  6
CONTINUOUS
 10
7.724200
 20
1.681240
  0
VERTEX
  8
0
  6
CONTINUOUS
 10
7.728600
 20
1.634160
  0
VERTEX
  8
0
  6
CONTINUOUS
 10
7.728160
 20
1.634160
  0
SEQEND
  8
0
  0
SOLID
  8
0
 62
    15
 10
4.836920
 20
2.505800
 11
4.839560
 21
3.247640
 12
4.876080
 22
2.481160
 13
4.878280
 23
3.223000
  0
POLYLINE
  8
0
  6
CONTINUOUS
 66
     1
 40
0.000000
 41
0.000000
  0
VERTEX
  8
0
  6
CONTINUOUS
 10
4.836920
 20
2.505800
  0
VERTEX
  8
0
  6
CONTINUOUS
 10
4.839560
 20
3.247640
  0
VERTEX
  8
0
  6
CONTINUOUS
 10
4.878280
 20
3.223000
  0
VERTEX
  8
0
  6
CONTINUOUS
 10
4.876080
 20
2.481160
  0
VERTEX
  8
0
  6
CONTINUOUS
 10
4.836920
 20
2.505800
  0
SEQEND
  8
0
  0
SOLID
  8
0
 62
    15
 10
4.643320
 20
2.867480
 11
4.645960
 21
3.609320
 12
4.646840
 22
2.824360
 13
4.649480
 23
3.566200
  0
POLYLINE
  8
0
  6
CONTINUOUS
 66
     1
 40
0.000000
 41
0.000000
  0
VERTEX
  8
0
  6
CONTINUOUS
 10
4.643320
 20
2.867480
  0
VERTEX
  8
0
  6
CONTINUOUS
 10
4.645960
 20
3.609320
  0
VERTEX
  8
0
  6
CONTINUOUS
 10
4.649480
 20
3.566200
  0
VERTEX
  8
0
  6
CONTINUOUS
 10
4.646840
 20
2.824360
  0
VERTEX
  8
0
  6
CONTINUOUS
 10
4.643320
 20
2.867480
  0
SEQEND
  8
0
  0
SOLID
  8
0
 62
    15
 10
4.646840
 20
2.824360
 11
4.649480
 21
3.566200
 12
4.657840
 22
2.775520
 13
4.660040
 23
3.517360
  0
POLYLINE
  8
0
  6
CONTINUOUS
 66
     1
 40
0.000000
 41
0.000000
  0
VERTEX
  8
0
  6
CONTINUOUS
 10
4.646840
 20
2.824360
  0
VERTEX
  8
0
  6
CONTINUOUS
 10
4.649480
 20
3.566200
  0
VERTEX
  8
0
  6
CONTINUOUS
 10
4.660040
 20
3.517360
  0
VERTEX
  8
0
  6
CONTINUOUS
 10
4.657840
 20
2.775520
  0
VERTEX
  8
0
  6
CONTINUOUS
 10
4.646840
 20
2.824360
  0
SEQEND
  8
0
  0
SOLID
  8
0
 62
    15
 10
4.657840
 20
2.775520
 11
4.660040
 21
3.517360
 12
4.675000
 22
2.723600
 13
4.677640
 23
3.465440
  0
POLYLINE
  8
0
  6
CONTINUOUS
 66
     1
 40
0.000000
 41
0.000000
  0
VERTEX
  8
0
  6
CONTINUOUS
 10
4.657840
 20
2.775520
  0
VERTEX
  8
0
  6
CONTINUOUS
 10
4.660040
 20
3.517360
  0
VERTEX
  8
0
  6
CONTINUOUS
 10
4.677640
 20
3.465440
  0
VERTEX
  8
0
  6
CONTINUOUS
 10
4.675000
 20
2.723600
  0
VERTEX
  8
0
  6
CONTINUOUS
 10
4.657840
 20
2.775520
  0
SEQEND
  8
0
  0
SOLID
  8
0
 62
    15
 10
4.675000
 20
2.723600
 11
4.677640
 21
3.465440
 12
4.698320
 22
2.671240
 13
4.700520
 23
3.413080
  0
POLYLINE
  8
0
  6
CONTINUOUS
 66
     1
 40
0.000000
 41
0.000000
  0
VERTEX
  8
0
  6
CONTINUOUS
 10
4.675000
 20
2.723600
  0
VERTEX
  8
0
  6
CONTINUOUS
 10
4.677640
 20
3.465440
  0
VERTEX
  8
0
  6
CONTINUOUS
 10
4.700520
 20
3.413080
  0
VERTEX
  8
0
  6
CONTINUOUS
 10
4.698320
 20
2.671240
  0
VERTEX
  8
0
  6
CONTINUOUS
 10
4.675000
 20
2.723600
  0
SEQEND
  8
0
  0
SOLID
  8
0
 62
    15
 10
4.698320
 20
2.671240
 11
4.700520
 21
3.413080
 12
4.726480
 22
2.621080
 13
4.729120
 23
3.362920
  0
POLYLINE
  8
0
  6
CONTINUOUS
 66
     1
 40
0.000000
 41
0.000000
  0
VERTEX
  8
0
  6
CONTINUOUS
 10
4.698320
 20
2.671240
  0
VERTEX
  8
0
  6
CONTINUOUS
 10
4.700520
 20
3.413080
  0
VERTEX
  8
0
  6
CONTINUOUS
 10
4.729120
 20
3.362920
  0
VERTEX
  8
0
  6
CONTINUOUS
 10
4.726480
 20
2.621080
  0
VERTEX
  8
0
  6
CONTINUOUS
 10
4.698320
 20
2.671240
  0
SEQEND
  8
0
  0
SOLID
  8
0
 62
    15
 10
4.726480
 20
2.621080
 11
4.729120
 21
3.362920
 12
4.759480
 22
2.574880
 13
4.762120
 23
3.316720
  0
POLYLINE
  8
0
  6
CONTINUOUS
 66
     1
 40
0.000000
 41
0.000000
  0
VERTEX
  8
0
  6
CONTINUOUS
 10
4.726480
 20
2.621080
  0
VERTEX
  8
0
  6
CONTINUOUS
 10
4.729120
 20
3.362920
  0
VERTEX
  8
0
  6
CONTINUOUS
 10
4.762120
 20
3.316720
  0
VERTEX
  8
0
  6
CONTINUOUS
 10
4.759480
 20
2.574880
  0
VERTEX
  8
0
  6
CONTINUOUS
 10
4.726480
 20
2.621080
  0
SEQEND
  8
0
  0
SOLID
  8
0
 62
    15
 10
4.759480
 20
2.574880
 11
4.762120
 21
3.316720
 12
4.796440
 22
2.535720
 13
4.799080
 23
3.277560
  0
POLYLINE
  8
0
  6
CONTINUOUS
 66
     1
 40
0.000000
 41
0.000000
  0
VERTEX
  8
0
  6
CONTINUOUS
 10
4.759480
 20
2.574880
  0
VERTEX
  8
0
  6
CONTINUOUS
 10
4.762120
 20
3.316720
  0
VERTEX
  8
0
  6
CONTINUOUS
 10
4.799080
 20
3.277560
  0
VERTEX
  8
0
  6
CONTINUOUS
 10
4.796440
 20
2.535720
  0
VERTEX
  8
0
  6
CONTINUOUS
 10
4.759480
 20
2.574880
  0
SEQEND
  8
0
  0
SOLID
  8
0
 62
    15
 10
4.826800
 20
2.352240
 11
4.829440
 21
3.094080
 12
4.826800
 22
1.221440
 13
4.829440
 23
1.963280
  0
POLYLINE
  8
0
  6
CONTINUOUS
 66
     1
 40
0.000000
 41
0.000000
  0
VERTEX
  8
0
  6
CONTINUOUS
 10
4.826800
 20
2.352240
  0
VERTEX
  8
0
  6
CONTINUOUS
 10
4.829440
 20
3.094080
  0
VERTEX
  8
0
  6
CONTINUOUS
 10
4.829440
 20
1.963280
  0
VERTEX
  8
0
  6
CONTINUOUS
 10
4.826800
 20
1.221440
  0
VERTEX
  8
0
  6
CONTINUOUS
 10
4.826800
 20
2.352240
  0
SEQEND
  8
0
  0
SOLID
  8
0
 62
    15
 10
4.337080
 20
2.867480
 11
4.339720
 21
3.609320
 12
4.643320
 22
2.867480
 13
4.645960
 23
3.609320
  0
POLYLINE
  8
0
  6
CONTINUOUS
 66
     1
 40
0.000000
 41
0.000000
  0
VERTEX
  8
0
  6
CONTINUOUS
 10
4.337080
 20
2.867480
  0
VERTEX
  8
0
  6
CONTINUOUS
 10
4.339720
 20
3.609320
  0
VERTEX
  8
0
  6
CONTINUOUS
 10
4.645960
 20
3.609320
  0
VERTEX
  8
0
  6
CONTINUOUS
 10
4.643320
 20
2.867480
  0
VERTEX
  8
0
  6
CONTINUOUS
 10
4.337080
 20
2.867480
  0
SEQEND
  8
0
  0
SOLID
  8
0
 62
    15
 10
4.876080
 20
2.481160
 11
4.878280
 21
3.223000
 12
4.908200
 22
2.457400
 13
4.910400
 23
3.198800
  0
POLYLINE
  8
0
  6
CONTINUOUS
 66
     1
 40
0.000000
 41
0.000000
  0
VERTEX
  8
0
  6
CONTINUOUS
 10
4.876080
 20
2.481160
  0
VERTEX
  8
0
  6
CONTINUOUS
 10
4.878280
 20
3.223000
  0
VERTEX
  8
0
  6
CONTINUOUS
 10
4.910400
 20
3.198800
  0
VERTEX
  8
0
  6
CONTINUOUS
 10
4.908200
 20
2.457400
  0
VERTEX
  8
0
  6
CONTINUOUS
 10
4.876080
 20
2.481160
  0
SEQEND
  8
0
  0
SOLID
  8
0
 62
    15
 10
4.908200
 20
2.457400
 11
4.910400
 21
3.198800
 12
4.933720
 22
2.434080
 13
4.936360
 23
3.175920
  0
POLYLINE
  8
0
  6
CONTINUOUS
 66
     1
 40
0.000000
 41
0.000000
  0
VERTEX
  8
0
  6
CONTINUOUS
 10
4.908200
 20
2.457400
  0
VERTEX
  8
0
  6
CONTINUOUS
 10
4.910400
 20
3.198800
  0
VERTEX
  8
0
  6
CONTINUOUS
 10
4.936360
 20
3.175920
  0
VERTEX
  8
0
  6
CONTINUOUS
 10
4.933720
 20
2.434080
  0
VERTEX
  8
0
  6
CONTINUOUS
 10
4.908200
 20
2.457400
  0
SEQEND
  8
0
  0
SOLID
  8
0
 62
    15
 10
4.933720
 20
2.434080
 11
4.936360
 21
3.175920
 12
4.953080
 22
2.412080
 13
4.955720
 23
3.153920
  0
POLYLINE
  8
0
  6
CONTINUOUS
 66
     1
 40
0.000000
 41
0.000000
  0
VERTEX
  8
0
  6
CONTINUOUS
 10
4.933720
 20
2.434080
  0
VERTEX
  8
0
  6
CONTINUOUS
 10
4.936360
 20
3.175920
  0
VERTEX
  8
0
  6
CONTINUOUS
 10
4.955720
 20
3.153920
  0
VERTEX
  8
0
  6
CONTINUOUS
 10
4.953080
 20
2.412080
  0
VERTEX
  8
0
  6
CONTINUOUS
 10
4.933720
 20
2.434080
  0
SEQEND
  8
0
  0
SOLID
  8
0
 62
    15
 10
4.953080
 20
2.412080
 11
4.955720
 21
3.153920
 12
4.966280
 22
2.392720
 13
4.968920
 23
3.134560
  0
POLYLINE
  8
0
  6
CONTINUOUS
 66
     1
 40
0.000000
 41
0.000000
  0
VERTEX
  8
0
  6
CONTINUOUS
 10
4.953080
 20
2.412080
  0
VERTEX
  8
0
  6
CONTINUOUS
 10
4.955720
 20
3.153920
  0
VERTEX
  8
0
  6
CONTINUOUS
 10
4.968920
 20
3.134560
  0
VERTEX
  8
0
  6
CONTINUOUS
 10
4.966280
 20
2.392720
  0
VERTEX
  8
0
  6
CONTINUOUS
 10
4.953080
 20
2.412080
  0
SEQEND
  8
0
  0
SOLID
  8
0
 62
    15
 10
4.966280
 20
2.392720
 11
4.968920
 21
3.134560
 12
4.973320
 22
2.375560
 13
4.975960
 23
3.117400
  0
POLYLINE
  8
0
  6
CONTINUOUS
 66
     1
 40
0.000000
 41
0.000000
  0
VERTEX
  8
0
  6
CONTINUOUS
 10
4.966280
 20
2.392720
  0
VERTEX
  8
0
  6
CONTINUOUS
 10
4.968920
 20
3.134560
  0
VERTEX
  8
0
  6
CONTINUOUS
 10
4.975960
 20
3.117400
  0
VERTEX
  8
0
  6
CONTINUOUS
 10
4.973320
 20
2.375560
  0
VERTEX
  8
0
  6
CONTINUOUS
 10
4.966280
 20
2.392720
  0
SEQEND
  8
0
  0
SOLID
  8
0
 62
    15
 10
4.973320
 20
2.375560
 11
4.975960
 21
3.117400
 12
4.974640
 22
2.361920
 13
4.976840
 23
3.103760
  0
POLYLINE
  8
0
  6
CONTINUOUS
 66
     1
 40
0.000000
 41
0.000000
  0
VERTEX
  8
0
  6
CONTINUOUS
 10
4.973320
 20
2.375560
  0
VERTEX
  8
0
  6
CONTINUOUS
 10
4.975960
 20
3.117400
  0
VERTEX
  8
0
  6
CONTINUOUS
 10
4.976840
 20
3.103760
  0
VERTEX
  8
0
  6
CONTINUOUS
 10
4.974640
 20
2.361920
  0
VERTEX
  8
0
  6
CONTINUOUS
 10
4.973320
 20
2.375560
  0
SEQEND
  8
0
  0
SOLID
  8
0
 62
    15
 10
4.796440
 20
2.535720
 11
4.799080
 21
3.277560
 12
4.836920
 22
2.505800
 13
4.839560
 23
3.247640
  0
POLYLINE
  8
0
  6
CONTINUOUS
 66
     1
 40
0.000000
 41
0.000000
  0
VERTEX
  8
0
  6
CONTINUOUS
 10
4.796440
 20
2.535720
  0
VERTEX
  8
0
  6
CONTINUOUS
 10
4.799080
 20
3.277560
  0
VERTEX
  8
0
  6
CONTINUOUS
 10
4.839560
 20
3.247640
  0
VERTEX
  8
0
  6
CONTINUOUS
 10
4.836920
 20
2.505800
  0
VERTEX
  8
0
  6
CONTINUOUS
 10
4.796440
 20
2.535720
  0
SEQEND
  8
0
  0
SOLID
  8
0
 62
    15
 10
4.334880
 20
2.868360
 11
4.337520
 21
3.610200
 12
4.337080
 22
2.867480
 13
4.339720
 23
3.609320
  0
POLYLINE
  8
0
  6
CONTINUOUS
 66
     1
 40
0.000000
 41
0.000000
  0
VERTEX
  8
0
  6
CONTINUOUS
 10
4.334880
 20
2.868360
  0
VERTEX
  8
0
  6
CONTINUOUS
 10
4.337520
 20
3.610200
  0
VERTEX
  8
0
  6
CONTINUOUS
 10
4.339720
 20
3.609320
  0
VERTEX
  8
0
  6
CONTINUOUS
 10
4.337080
 20
2.867480
  0
VERTEX
  8
0
  6
CONTINUOUS
 10
4.334880
 20
2.868360
  0
SEQEND
  8
0
  0
POLYLINE
  8
0
  6
CONTINUOUS
 66
     1
 40
0.000000
 41
0.000000
  0
VERTEX
  8
0
  6
CONTINUOUS
 10
4.337080
 20
2.867480
  0
VERTEX
  8
0
  6
CONTINUOUS
 10
4.643320
 20
2.867480
  0
VERTEX
  8
0
  6
CONTINUOUS
 10
4.646840
 20
2.824360
  0
VERTEX
  8
0
  6
CONTINUOUS
 10
4.657840
 20
2.775520
  0
VERTEX
  8
0
  6
CONTINUOUS
 10
4.675000
 20
2.723600
  0
VERTEX
  8
0
  6
CONTINUOUS
 10
4.698320
 20
2.671240
  0
VERTEX
  8
0
  6
CONTINUOUS
 10
4.726480
 20
2.621080
  0
VERTEX
  8
0
  6
CONTINUOUS
 10
4.759480
 20
2.574880
  0
VERTEX
  8
0
  6
CONTINUOUS
 10
4.796440
 20
2.535720
  0
VERTEX
  8
0
  6
CONTINUOUS
 10
4.836920
 20
2.505800
  0
VERTEX
  8
0
  6
CONTINUOUS
 10
4.876080
 20
2.481160
  0
VERTEX
  8
0
  6
CONTINUOUS
 10
4.908200
 20
2.457400
  0
VERTEX
  8
0
  6
CONTINUOUS
 10
4.933720
 20
2.434080
  0
VERTEX
  8
0
  6
CONTINUOUS
 10
4.953080
 20
2.412080
  0
VERTEX
  8
0
  6
CONTINUOUS
 10
4.966280
 20
2.392720
  0
VERTEX
  8
0
  6
CONTINUOUS
 10
4.973320
 20
2.375560
  0
VERTEX
  8
0
  6
CONTINUOUS
 10
4.974640
 20
2.361920
  0
VERTEX
  8
0
  6
CONTINUOUS
 10
4.969800
 20
2.352240
  0
VERTEX
  8
0
  6
CONTINUOUS
 10
4.826800
 20
2.352240
  0
VERTEX
  8
0
  6
CONTINUOUS
 10
4.826800
 20
1.221440
  0
VERTEX
  8
0
  6
CONTINUOUS
 10
4.334880
 20
1.221440
  0
VERTEX
  8
0
  6
CONTINUOUS
 10
4.334880
 20
2.868360
  0
VERTEX
  8
0
  6
CONTINUOUS
 10
4.337080
 20
2.867480
  0
SEQEND
  8
0
  0
TEXT
  8
0
 10
4.921400
 20
1.371480
 40
0.138159
  1
626
 41
1.000000
  7
SN0
 71
     0
 72
     5
 11
5.198713
 21
1.371480
  0
TEXT
  8
0
 10
4.428600
 20
1.371480
 40
0.138159
  1
627
 41
1.000000
  7
SN0
 71
     0
 72
     5
 11
4.705913
 21
1.371480
  0
ENDSEC
  0
EOF
