  0
SECTION
  2
HEADER
  9
$ACADVER
  1
AC1006
  9
$EXTMIN
 10
4.701400
 20
0.611600
  9
$EXTMAX
 10
7.419280
 20
2.910160
  9
$LTSCALE
 40
0.044000
  9
$PDMODE
 70
    35
  9
$PDSIZE
 40
0.035200
  0
ENDSEC
  0
SECTION
  2
TABLES
  0
TABLE
  2
LTYPE
 70
     9
  0
LTYPE
  2
CONTINUOUS
 70
    64
  3
Solid line
 72
    65
 73
     0
 40
0.000000
  0
LTYPE
  2
DASHED
 70
    64
  3
__ __ __ __ __ __ __ __ __ __ __ __ __ __ __
 72
    65
 73
     2
 40
0.000330
 49
0.000220
 49
-0.000110
  0
LTYPE
  2
HIDDEN
 70
    64
  3
 _ _ _ _ _ _ _ _ _ _ _ _ _ _ _ _ _ _ _ _ _ _
 72
    65
 73
     2
 40
0.000165
 49
0.000110
 49
-0.000055
  0
LTYPE
  2
CENTER
 70
    64
  3
____ _ ____ _ ____ _ ____ _ ____ _ ____ _ ____
 72
    65
 73
     4
 40
0.000880
 49
0.000550
 49
-0.000110
 49
0.000110
 49
-0.000110
  0
LTYPE
  2
PHANTOM
 70
    64
  3
_____ _ _ _____ _ _ _____ _ _ _____ _ _ ____
 72
    65
 73
     6
 40
0.001100
 49
0.000550
 49
-0.000110
 49
0.000110
 49
-0.000110
 49
0.000110
 49
-0.000110
  0
LTYPE
  2
DOT
 70
    64
  3
...............................................
 72
    65
 73
     2
 40
0.000110
 49
0.000000
 49
-0.000110
  0
LTYPE
  2
DASHDOT
 70
    64
  3
__ . __ . __ . __ . __ . __ . __ . __ . __ . __
 72
    65
 73
     4
 40
0.000440
 49
0.000220
 49
-0.000110
 49
0.000000
 49
-0.000110
  0
LTYPE
  2
BORDER
 70
    64
  3
__ __ . __ __ . __ __ . __ __ . __ __ . __ __
 72
    65
 73
     6
 40
0.000770
 49
0.000220
 49
-0.000110
 49
0.000220
 49
-0.000110
 49
0.000000
 49
-0.000110
  0
LTYPE
  2
DIVIDE
 70
    64
  3
__ . . __ . . __ . . __ . . __ . . __ . . __
 72
    65
 73
     6
 40
0.000550
 49
0.000220
 49
-0.000110
 49
0.000000
 49
-0.000110
 49
0.000000
 49
-0.000110
  0
LTYPE
  2
DOTDOT
 70
    64
  3
 . .  . .  . .  . .  . .  . . 
 72
    65
 73
     5
 40
0.000242
 49
-0.000110
 49
0.000000
 49
-0.000110
 49
0.000000
 49
-0.000110
  0
ENDTAB
  0
TABLE
  2
STYLE
 70
     2
  0
STYLE
 70
     0
  2
SN0
 40
0.000000
 41
0.000440
 50
0.000000
 71
     0
 42
0.000000
  3
ROMAND
  0
STYLE
 70
    68
  2
SV0
 40
0.000000
 41
0.000440
 50
0.000000
 71
     0
 42
0.000000
  3
ROMAND
  0
ENDTAB
  0
TABLE
  2
LAYER
 70
     3
  0
LAYER
  2
FOREGROUND
 70
    64
 62
     7
  6
CONTINUOUS
  0
LAYER
  2
BACKGROUND
 70
    65
 62
    -7
  6
CONTINUOUS
  0
LAYER
  2
0
 70
    64
 62
     7
  6
CONTINUOUS
  0
ENDTAB
  0
ENDSEC
  0
SECTION
  2
ENTITIES
  0
POLYLINE
  8
FOREGROUND
  6
CONTINUOUS
 66
     1
 40
0.000000
 41
0.000000
  0
VERTEX
  8
FOREGROUND
  6
CONTINUOUS
 10
0.000000
 20
3.521760
  0
VERTEX
  8
FOREGROUND
  6
CONTINUOUS
 10
8.499920
 20
3.521760
  0
VERTEX
  8
FOREGROUND
  6
CONTINUOUS
 10
8.499920
 20
-7.478240
  0
VERTEX
  8
FOREGROUND
  6
CONTINUOUS
 10
0.000000
 20
-7.478240
  0
VERTEX
  8
FOREGROUND
  6
CONTINUOUS
 10
0.000000
 20
3.521760
  0
SEQEND
  8
0
  0
POLYLINE
  8
FOREGROUND
  6
CONTINUOUS
 66
     1
 40
0.000000
 41
0.000000
  0
VERTEX
  8
FOREGROUND
  6
CONTINUOUS
 10
0.000000
 20
3.521760
  0
VERTEX
  8
FOREGROUND
  6
CONTINUOUS
 10
8.499920
 20
3.521760
  0
VERTEX
  8
FOREGROUND
  6
CONTINUOUS
 10
8.499920
 20
-7.478240
  0
VERTEX
  8
FOREGROUND
  6
CONTINUOUS
 10
0.000000
 20
-7.478240
  0
VERTEX
  8
FOREGROUND
  6
CONTINUOUS
 10
0.000000
 20
3.521760
  0
SEQEND
  8
0
  0
POLYLINE
  8
0
  6
CONTINUOUS
 66
     1
 40
0.014080
 41
0.014080
  0
VERTEX
  8
0
  6
CONTINUOUS
 10
6.954200
 20
1.315160
  0
VERTEX
  8
0
  6
CONTINUOUS
 10
6.956840
 20
1.401840
  0
VERTEX
  8
0
  6
CONTINUOUS
 10
6.962560
 20
1.481920
  0
VERTEX
  8
0
  6
CONTINUOUS
 10
6.975320
 20
1.591480
  0
VERTEX
  8
0
  6
CONTINUOUS
 10
6.980600
 20
1.624040
  0
VERTEX
  8
0
  6
CONTINUOUS
 10
6.996440
 20
1.623600
  0
VERTEX
  8
0
  6
CONTINUOUS
 10
7.026360
 20
1.626240
  0
VERTEX
  8
0
  6
CONTINUOUS
 10
7.054080
 20
1.632840
  0
VERTEX
  8
0
  6
CONTINUOUS
 10
7.079160
 20
1.642080
  0
VERTEX
  8
0
  6
CONTINUOUS
 10
7.110840
 20
1.661880
  0
VERTEX
  8
0
  6
CONTINUOUS
 10
7.128000
 20
1.678160
  0
VERTEX
  8
0
  6
CONTINUOUS
 10
7.141640
 20
1.696200
  0
VERTEX
  8
0
  6
CONTINUOUS
 10
7.150880
 20
1.715560
  0
VERTEX
  8
0
  6
CONTINUOUS
 10
7.156160
 20
1.736240
  0
VERTEX
  8
0
  6
CONTINUOUS
 10
7.156600
 20
1.757360
  0
VERTEX
  8
0
  6
CONTINUOUS
 10
7.151760
 20
1.778920
  0
VERTEX
  8
0
  6
CONTINUOUS
 10
7.142080
 20
1.800480
  0
VERTEX
  8
0
  6
CONTINUOUS
 10
7.126240
 20
1.821160
  0
VERTEX
  8
0
  6
CONTINUOUS
 10
7.104680
 20
1.840960
  0
VERTEX
  8
0
  6
CONTINUOUS
 10
7.076960
 20
1.859440
  0
VERTEX
  8
0
  6
CONTINUOUS
 10
7.042640
 20
1.876160
  0
VERTEX
  8
0
  6
CONTINUOUS
 10
7.051880
 20
1.905200
  0
VERTEX
  8
0
  6
CONTINUOUS
 10
7.072560
 20
1.954480
  0
VERTEX
  8
0
  6
CONTINUOUS
 10
7.111280
 20
2.028400
  0
VERTEX
  8
0
  6
CONTINUOUS
 10
7.171560
 20
2.129160
  0
VERTEX
  8
0
  6
CONTINUOUS
 10
7.254720
 20
2.250160
  0
VERTEX
  8
0
  6
CONTINUOUS
 10
7.324680
 20
2.342120
  0
VERTEX
  8
0
  6
CONTINUOUS
 10
7.377040
 20
2.404600
  0
VERTEX
  8
0
  6
CONTINUOUS
 10
7.411800
 20
2.441560
  0
VERTEX
  8
0
  6
CONTINUOUS
 10
7.411800
 20
2.815120
  0
VERTEX
  8
0
  6
CONTINUOUS
 10
6.787000
 20
2.815120
  0
VERTEX
  8
0
  6
CONTINUOUS
 10
6.787000
 20
1.314720
  0
VERTEX
  8
0
  6
CONTINUOUS
 10
6.954200
 20
1.315160
  0
SEQEND
  8
0
  0
SOLID
  8
0
 62
     7
 10
5.041520
 20
1.546600
 11
5.689200
 21
1.915760
 12
5.056920
 22
1.525920
 13
5.704600
 23
1.894640
  0
POLYLINE
  8
0
  6
CONTINUOUS
 66
     1
 40
0.000000
 41
0.000000
  0
VERTEX
  8
0
  6
CONTINUOUS
 10
5.041520
 20
1.546600
  0
VERTEX
  8
0
  6
CONTINUOUS
 10
5.689200
 20
1.915760
  0
VERTEX
  8
0
  6
CONTINUOUS
 10
5.704600
 20
1.894640
  0
VERTEX
  8
0
  6
CONTINUOUS
 10
5.056920
 20
1.525920
  0
VERTEX
  8
0
  6
CONTINUOUS
 10
5.041520
 20
1.546600
  0
SEQEND
  8
0
  0
SOLID
  8
0
 62
    15
 10
5.327080
 20
2.540560
 11
5.974760
 21
2.909720
 12
5.327080
 22
2.167000
 13
5.974760
 23
2.535720
  0
POLYLINE
  8
0
  6
CONTINUOUS
 66
     1
 40
0.000000
 41
0.000000
  0
VERTEX
  8
0
  6
CONTINUOUS
 10
5.327080
 20
2.540560
  0
VERTEX
  8
0
  6
CONTINUOUS
 10
5.974760
 20
2.909720
  0
VERTEX
  8
0
  6
CONTINUOUS
 10
5.974760
 20
2.535720
  0
VERTEX
  8
0
  6
CONTINUOUS
 10
5.327080
 20
2.167000
  0
VERTEX
  8
0
  6
CONTINUOUS
 10
5.327080
 20
2.540560
  0
SEQEND
  8
0
  0
SOLID
  8
0
 62
    15
 10
5.327080
 20
2.167000
 11
5.974760
 21
2.535720
 12
5.304200
 22
2.143240
 13
5.951880
 23
2.511960
  0
POLYLINE
  8
0
  6
CONTINUOUS
 66
     1
 40
0.000000
 41
0.000000
  0
VERTEX
  8
0
  6
CONTINUOUS
 10
5.327080
 20
2.167000
  0
VERTEX
  8
0
  6
CONTINUOUS
 10
5.974760
 20
2.535720
  0
VERTEX
  8
0
  6
CONTINUOUS
 10
5.951880
 20
2.511960
  0
VERTEX
  8
0
  6
CONTINUOUS
 10
5.304200
 20
2.143240
  0
VERTEX
  8
0
  6
CONTINUOUS
 10
5.327080
 20
2.167000
  0
SEQEND
  8
0
  0
SOLID
  8
0
 62
    15
 10
5.304200
 20
2.143240
 11
5.951880
 21
2.511960
 12
5.279560
 22
2.115520
 13
5.927240
 23
2.484240
  0
POLYLINE
  8
0
  6
CONTINUOUS
 66
     1
 40
0.000000
 41
0.000000
  0
VERTEX
  8
0
  6
CONTINUOUS
 10
5.304200
 20
2.143240
  0
VERTEX
  8
0
  6
CONTINUOUS
 10
5.951880
 20
2.511960
  0
VERTEX
  8
0
  6
CONTINUOUS
 10
5.927240
 20
2.484240
  0
VERTEX
  8
0
  6
CONTINUOUS
 10
5.279560
 20
2.115520
  0
VERTEX
  8
0
  6
CONTINUOUS
 10
5.304200
 20
2.143240
  0
SEQEND
  8
0
  0
SOLID
  8
0
 62
    15
 10
5.279560
 20
2.115520
 11
5.927240
 21
2.484240
 12
5.253600
 22
2.084280
 13
5.901280
 23
2.453440
  0
POLYLINE
  8
0
  6
CONTINUOUS
 66
     1
 40
0.000000
 41
0.000000
  0
VERTEX
  8
0
  6
CONTINUOUS
 10
5.279560
 20
2.115520
  0
VERTEX
  8
0
  6
CONTINUOUS
 10
5.927240
 20
2.484240
  0
VERTEX
  8
0
  6
CONTINUOUS
 10
5.901280
 20
2.453440
  0
VERTEX
  8
0
  6
CONTINUOUS
 10
5.253600
 20
2.084280
  0
VERTEX
  8
0
  6
CONTINUOUS
 10
5.279560
 20
2.115520
  0
SEQEND
  8
0
  0
SOLID
  8
0
 62
    15
 10
5.253600
 20
2.084280
 11
5.901280
 21
2.453440
 12
5.226320
 22
2.050400
 13
5.874000
 23
2.419120
  0
POLYLINE
  8
0
  6
CONTINUOUS
 66
     1
 40
0.000000
 41
0.000000
  0
VERTEX
  8
0
  6
CONTINUOUS
 10
5.253600
 20
2.084280
  0
VERTEX
  8
0
  6
CONTINUOUS
 10
5.901280
 20
2.453440
  0
VERTEX
  8
0
  6
CONTINUOUS
 10
5.874000
 20
2.419120
  0
VERTEX
  8
0
  6
CONTINUOUS
 10
5.226320
 20
2.050400
  0
VERTEX
  8
0
  6
CONTINUOUS
 10
5.253600
 20
2.084280
  0
SEQEND
  8
0
  0
SOLID
  8
0
 62
    15
 10
5.226320
 20
2.050400
 11
5.874000
 21
2.419120
 12
5.170000
 22
1.975600
 13
5.817240
 23
2.344760
  0
POLYLINE
  8
0
  6
CONTINUOUS
 66
     1
 40
0.000000
 41
0.000000
  0
VERTEX
  8
0
  6
CONTINUOUS
 10
5.226320
 20
2.050400
  0
VERTEX
  8
0
  6
CONTINUOUS
 10
5.874000
 20
2.419120
  0
VERTEX
  8
0
  6
CONTINUOUS
 10
5.817240
 20
2.344760
  0
VERTEX
  8
0
  6
CONTINUOUS
 10
5.170000
 20
1.975600
  0
VERTEX
  8
0
  6
CONTINUOUS
 10
5.226320
 20
2.050400
  0
SEQEND
  8
0
  0
SOLID
  8
0
 62
    15
 10
5.170000
 20
1.975600
 11
5.817240
 21
2.344760
 12
5.113680
 22
1.895520
 13
5.761360
 23
2.264240
  0
POLYLINE
  8
0
  6
CONTINUOUS
 66
     1
 40
0.000000
 41
0.000000
  0
VERTEX
  8
0
  6
CONTINUOUS
 10
5.170000
 20
1.975600
  0
VERTEX
  8
0
  6
CONTINUOUS
 10
5.817240
 20
2.344760
  0
VERTEX
  8
0
  6
CONTINUOUS
 10
5.761360
 20
2.264240
  0
VERTEX
  8
0
  6
CONTINUOUS
 10
5.113680
 20
1.895520
  0
VERTEX
  8
0
  6
CONTINUOUS
 10
5.170000
 20
1.975600
  0
SEQEND
  8
0
  0
SOLID
  8
0
 62
    15
 10
5.113680
 20
1.895520
 11
5.761360
 21
2.264240
 12
5.061320
 22
1.813680
 13
5.709000
 23
2.182840
  0
POLYLINE
  8
0
  6
CONTINUOUS
 66
     1
 40
0.000000
 41
0.000000
  0
VERTEX
  8
0
  6
CONTINUOUS
 10
5.113680
 20
1.895520
  0
VERTEX
  8
0
  6
CONTINUOUS
 10
5.761360
 20
2.264240
  0
VERTEX
  8
0
  6
CONTINUOUS
 10
5.709000
 20
2.182840
  0
VERTEX
  8
0
  6
CONTINUOUS
 10
5.061320
 20
1.813680
  0
VERTEX
  8
0
  6
CONTINUOUS
 10
5.113680
 20
1.895520
  0
SEQEND
  8
0
  0
SOLID
  8
0
 62
    15
 10
5.061320
 20
1.813680
 11
5.709000
 21
2.182840
 12
5.015560
 22
1.734920
 13
5.663240
 23
2.103640
  0
POLYLINE
  8
0
  6
CONTINUOUS
 66
     1
 40
0.000000
 41
0.000000
  0
VERTEX
  8
0
  6
CONTINUOUS
 10
5.061320
 20
1.813680
  0
VERTEX
  8
0
  6
CONTINUOUS
 10
5.709000
 20
2.182840
  0
VERTEX
  8
0
  6
CONTINUOUS
 10
5.663240
 20
2.103640
  0
VERTEX
  8
0
  6
CONTINUOUS
 10
5.015560
 20
1.734920
  0
VERTEX
  8
0
  6
CONTINUOUS
 10
5.061320
 20
1.813680
  0
SEQEND
  8
0
  0
SOLID
  8
0
 62
    15
 10
5.015560
 20
1.734920
 11
5.663240
 21
2.103640
 12
4.996200
 22
1.697520
 13
5.643880
 23
2.066680
  0
POLYLINE
  8
0
  6
CONTINUOUS
 66
     1
 40
0.000000
 41
0.000000
  0
VERTEX
  8
0
  6
CONTINUOUS
 10
5.015560
 20
1.734920
  0
VERTEX
  8
0
  6
CONTINUOUS
 10
5.663240
 20
2.103640
  0
VERTEX
  8
0
  6
CONTINUOUS
 10
5.643880
 20
2.066680
  0
VERTEX
  8
0
  6
CONTINUOUS
 10
4.996200
 20
1.697520
  0
VERTEX
  8
0
  6
CONTINUOUS
 10
5.015560
 20
1.734920
  0
SEQEND
  8
0
  0
SOLID
  8
0
 62
    15
 10
4.996200
 20
1.697520
 11
5.643880
 21
2.066680
 12
4.979920
 22
1.662760
 13
5.627600
 23
2.031920
  0
POLYLINE
  8
0
  6
CONTINUOUS
 66
     1
 40
0.000000
 41
0.000000
  0
VERTEX
  8
0
  6
CONTINUOUS
 10
4.996200
 20
1.697520
  0
VERTEX
  8
0
  6
CONTINUOUS
 10
5.643880
 20
2.066680
  0
VERTEX
  8
0
  6
CONTINUOUS
 10
5.627600
 20
2.031920
  0
VERTEX
  8
0
  6
CONTINUOUS
 10
4.979920
 20
1.662760
  0
VERTEX
  8
0
  6
CONTINUOUS
 10
4.996200
 20
1.697520
  0
SEQEND
  8
0
  0
SOLID
  8
0
 62
    15
 10
4.979920
 20
1.662760
 11
5.627600
 21
2.031920
 12
4.967160
 22
1.630640
 13
5.614400
 23
1.999800
  0
POLYLINE
  8
0
  6
CONTINUOUS
 66
     1
 40
0.000000
 41
0.000000
  0
VERTEX
  8
0
  6
CONTINUOUS
 10
4.979920
 20
1.662760
  0
VERTEX
  8
0
  6
CONTINUOUS
 10
5.627600
 20
2.031920
  0
VERTEX
  8
0
  6
CONTINUOUS
 10
5.614400
 20
1.999800
  0
VERTEX
  8
0
  6
CONTINUOUS
 10
4.967160
 20
1.630640
  0
VERTEX
  8
0
  6
CONTINUOUS
 10
4.979920
 20
1.662760
  0
SEQEND
  8
0
  0
SOLID
  8
0
 62
    15
 10
4.967160
 20
1.630640
 11
5.614400
 21
1.999800
 12
4.957920
 22
1.601600
 13
5.605160
 23
1.970760
  0
POLYLINE
  8
0
  6
CONTINUOUS
 66
     1
 40
0.000000
 41
0.000000
  0
VERTEX
  8
0
  6
CONTINUOUS
 10
4.967160
 20
1.630640
  0
VERTEX
  8
0
  6
CONTINUOUS
 10
5.614400
 20
1.999800
  0
VERTEX
  8
0
  6
CONTINUOUS
 10
5.605160
 20
1.970760
  0
VERTEX
  8
0
  6
CONTINUOUS
 10
4.957920
 20
1.601600
  0
VERTEX
  8
0
  6
CONTINUOUS
 10
4.967160
 20
1.630640
  0
SEQEND
  8
0
  0
SOLID
  8
0
 62
    15
 10
4.957920
 20
1.601600
 11
5.605160
 21
1.970760
 12
4.992240
 22
1.584880
 13
5.639920
 23
1.954040
  0
POLYLINE
  8
0
  6
CONTINUOUS
 66
     1
 40
0.000000
 41
0.000000
  0
VERTEX
  8
0
  6
CONTINUOUS
 10
4.957920
 20
1.601600
  0
VERTEX
  8
0
  6
CONTINUOUS
 10
5.605160
 20
1.970760
  0
VERTEX
  8
0
  6
CONTINUOUS
 10
5.639920
 20
1.954040
  0
VERTEX
  8
0
  6
CONTINUOUS
 10
4.992240
 20
1.584880
  0
VERTEX
  8
0
  6
CONTINUOUS
 10
4.957920
 20
1.601600
  0
SEQEND
  8
0
  0
SOLID
  8
0
 62
     7
 10
4.992240
 20
1.584880
 11
5.639920
 21
1.954040
 12
5.019960
 22
1.566400
 13
5.667640
 23
1.935560
  0
POLYLINE
  8
0
  6
CONTINUOUS
 66
     1
 40
0.000000
 41
0.000000
  0
VERTEX
  8
0
  6
CONTINUOUS
 10
4.992240
 20
1.584880
  0
VERTEX
  8
0
  6
CONTINUOUS
 10
5.639920
 20
1.954040
  0
VERTEX
  8
0
  6
CONTINUOUS
 10
5.667640
 20
1.935560
  0
VERTEX
  8
0
  6
CONTINUOUS
 10
5.019960
 20
1.566400
  0
VERTEX
  8
0
  6
CONTINUOUS
 10
4.992240
 20
1.584880
  0
SEQEND
  8
0
  0
SOLID
  8
0
 62
     7
 10
5.019960
 20
1.566400
 11
5.667640
 21
1.935560
 12
5.041520
 22
1.546600
 13
5.689200
 23
1.915760
  0
POLYLINE
  8
0
  6
CONTINUOUS
 66
     1
 40
0.000000
 41
0.000000
  0
VERTEX
  8
0
  6
CONTINUOUS
 10
5.019960
 20
1.566400
  0
VERTEX
  8
0
  6
CONTINUOUS
 10
5.667640
 20
1.935560
  0
VERTEX
  8
0
  6
CONTINUOUS
 10
5.689200
 20
1.915760
  0
VERTEX
  8
0
  6
CONTINUOUS
 10
5.041520
 20
1.546600
  0
VERTEX
  8
0
  6
CONTINUOUS
 10
5.019960
 20
1.566400
  0
SEQEND
  8
0
  0
SOLID
  8
0
 62
    15
 10
4.702280
 20
2.540560
 11
5.349520
 21
2.909720
 12
5.327080
 22
2.540560
 13
5.974760
 23
2.909720
  0
POLYLINE
  8
0
  6
CONTINUOUS
 66
     1
 40
0.000000
 41
0.000000
  0
VERTEX
  8
0
  6
CONTINUOUS
 10
4.702280
 20
2.540560
  0
VERTEX
  8
0
  6
CONTINUOUS
 10
5.349520
 20
2.909720
  0
VERTEX
  8
0
  6
CONTINUOUS
 10
5.974760
 20
2.909720
  0
VERTEX
  8
0
  6
CONTINUOUS
 10
5.327080
 20
2.540560
  0
VERTEX
  8
0
  6
CONTINUOUS
 10
4.702280
 20
2.540560
  0
SEQEND
  8
0
  0
SOLID
  8
0
 62
     7
 10
5.056920
 20
1.525920
 11
5.704600
 21
1.894640
 12
5.067040
 22
1.504360
 13
5.714720
 23
1.873520
  0
POLYLINE
  8
0
  6
CONTINUOUS
 66
     1
 40
0.000000
 41
0.000000
  0
VERTEX
  8
0
  6
CONTINUOUS
 10
5.056920
 20
1.525920
  0
VERTEX
  8
0
  6
CONTINUOUS
 10
5.704600
 20
1.894640
  0
VERTEX
  8
0
  6
CONTINUOUS
 10
5.714720
 20
1.873520
  0
VERTEX
  8
0
  6
CONTINUOUS
 10
5.067040
 20
1.504360
  0
VERTEX
  8
0
  6
CONTINUOUS
 10
5.056920
 20
1.525920
  0
SEQEND
  8
0
  0
SOLID
  8
0
 62
     7
 10
5.067040
 20
1.504360
 11
5.714720
 21
1.873520
 12
5.071440
 22
1.482800
 13
5.719120
 23
1.851960
  0
POLYLINE
  8
0
  6
CONTINUOUS
 66
     1
 40
0.000000
 41
0.000000
  0
VERTEX
  8
0
  6
CONTINUOUS
 10
5.067040
 20
1.504360
  0
VERTEX
  8
0
  6
CONTINUOUS
 10
5.714720
 20
1.873520
  0
VERTEX
  8
0
  6
CONTINUOUS
 10
5.719120
 20
1.851960
  0
VERTEX
  8
0
  6
CONTINUOUS
 10
5.071440
 20
1.482800
  0
VERTEX
  8
0
  6
CONTINUOUS
 10
5.067040
 20
1.504360
  0
SEQEND
  8
0
  0
SOLID
  8
0
 62
    15
 10
5.071440
 20
1.482800
 11
5.719120
 21
1.851960
 12
5.071000
 22
1.461680
 13
5.718680
 23
1.830840
  0
POLYLINE
  8
0
  6
CONTINUOUS
 66
     1
 40
0.000000
 41
0.000000
  0
VERTEX
  8
0
  6
CONTINUOUS
 10
5.071440
 20
1.482800
  0
VERTEX
  8
0
  6
CONTINUOUS
 10
5.719120
 20
1.851960
  0
VERTEX
  8
0
  6
CONTINUOUS
 10
5.718680
 20
1.830840
  0
VERTEX
  8
0
  6
CONTINUOUS
 10
5.071000
 20
1.461680
  0
VERTEX
  8
0
  6
CONTINUOUS
 10
5.071440
 20
1.482800
  0
SEQEND
  8
0
  0
SOLID
  8
0
 62
    15
 10
4.895880
 20
1.349480
 11
5.543560
 21
1.718640
 12
4.895440
 22
1.347720
 13
5.543120
 23
1.716880
  0
POLYLINE
  8
0
  6
CONTINUOUS
 66
     1
 40
0.000000
 41
0.000000
  0
VERTEX
  8
0
  6
CONTINUOUS
 10
4.895880
 20
1.349480
  0
VERTEX
  8
0
  6
CONTINUOUS
 10
5.543560
 20
1.718640
  0
VERTEX
  8
0
  6
CONTINUOUS
 10
5.543120
 20
1.716880
  0
VERTEX
  8
0
  6
CONTINUOUS
 10
4.895440
 20
1.347720
  0
VERTEX
  8
0
  6
CONTINUOUS
 10
4.895880
 20
1.349480
  0
SEQEND
  8
0
  0
SOLID
  8
0
 62
    15
 10
4.895440
 20
1.347720
 11
5.543120
 21
1.716880
 12
4.891920
 22
1.323520
 13
5.539160
 23
1.692240
  0
POLYLINE
  8
0
  6
CONTINUOUS
 66
     1
 40
0.000000
 41
0.000000
  0
VERTEX
  8
0
  6
CONTINUOUS
 10
4.895440
 20
1.347720
  0
VERTEX
  8
0
  6
CONTINUOUS
 10
5.543120
 20
1.716880
  0
VERTEX
  8
0
  6
CONTINUOUS
 10
5.539160
 20
1.692240
  0
VERTEX
  8
0
  6
CONTINUOUS
 10
4.891920
 20
1.323520
  0
VERTEX
  8
0
  6
CONTINUOUS
 10
4.895440
 20
1.347720
  0
SEQEND
  8
0
  0
SOLID
  8
0
 62
    15
 10
4.891920
 20
1.323520
 11
5.539160
 21
1.692240
 12
4.887520
 22
1.293160
 13
5.535200
 23
1.662320
  0
POLYLINE
  8
0
  6
CONTINUOUS
 66
     1
 40
0.000000
 41
0.000000
  0
VERTEX
  8
0
  6
CONTINUOUS
 10
4.891920
 20
1.323520
  0
VERTEX
  8
0
  6
CONTINUOUS
 10
5.539160
 20
1.692240
  0
VERTEX
  8
0
  6
CONTINUOUS
 10
5.535200
 20
1.662320
  0
VERTEX
  8
0
  6
CONTINUOUS
 10
4.887520
 20
1.293160
  0
VERTEX
  8
0
  6
CONTINUOUS
 10
4.891920
 20
1.323520
  0
SEQEND
  8
0
  0
SOLID
  8
0
 62
    15
 10
5.043280
 20
1.403600
 11
5.690960
 21
1.772760
 12
5.026120
 22
1.387320
 13
5.673800
 23
1.756480
  0
POLYLINE
  8
0
  6
CONTINUOUS
 66
     1
 40
0.000000
 41
0.000000
  0
VERTEX
  8
0
  6
CONTINUOUS
 10
5.043280
 20
1.403600
  0
VERTEX
  8
0
  6
CONTINUOUS
 10
5.690960
 20
1.772760
  0
VERTEX
  8
0
  6
CONTINUOUS
 10
5.673800
 20
1.756480
  0
VERTEX
  8
0
  6
CONTINUOUS
 10
5.026120
 20
1.387320
  0
VERTEX
  8
0
  6
CONTINUOUS
 10
5.043280
 20
1.403600
  0
SEQEND
  8
0
  0
SOLID
  8
0
 62
    15
 10
5.026120
 20
1.387320
 11
5.673800
 21
1.756480
 12
5.005440
 22
1.373680
 13
5.653120
 23
1.742840
  0
POLYLINE
  8
0
  6
CONTINUOUS
 66
     1
 40
0.000000
 41
0.000000
  0
VERTEX
  8
0
  6
CONTINUOUS
 10
5.026120
 20
1.387320
  0
VERTEX
  8
0
  6
CONTINUOUS
 10
5.673800
 20
1.756480
  0
VERTEX
  8
0
  6
CONTINUOUS
 10
5.653120
 20
1.742840
  0
VERTEX
  8
0
  6
CONTINUOUS
 10
5.005440
 20
1.373680
  0
VERTEX
  8
0
  6
CONTINUOUS
 10
5.026120
 20
1.387320
  0
SEQEND
  8
0
  0
SOLID
  8
0
 62
    15
 10
5.071000
 20
1.461680
 11
5.718680
 21
1.830840
 12
5.066160
 22
1.441000
 13
5.713840
 23
1.810160
  0
POLYLINE
  8
0
  6
CONTINUOUS
 66
     1
 40
0.000000
 41
0.000000
  0
VERTEX
  8
0
  6
CONTINUOUS
 10
5.071000
 20
1.461680
  0
VERTEX
  8
0
  6
CONTINUOUS
 10
5.718680
 20
1.830840
  0
VERTEX
  8
0
  6
CONTINUOUS
 10
5.713840
 20
1.810160
  0
VERTEX
  8
0
  6
CONTINUOUS
 10
5.066160
 20
1.441000
  0
VERTEX
  8
0
  6
CONTINUOUS
 10
5.071000
 20
1.461680
  0
SEQEND
  8
0
  0
SOLID
  8
0
 62
    15
 10
5.066160
 20
1.441000
 11
5.713840
 21
1.810160
 12
5.056920
 22
1.421640
 13
5.704160
 23
1.790360
  0
POLYLINE
  8
0
  6
CONTINUOUS
 66
     1
 40
0.000000
 41
0.000000
  0
VERTEX
  8
0
  6
CONTINUOUS
 10
5.066160
 20
1.441000
  0
VERTEX
  8
0
  6
CONTINUOUS
 10
5.713840
 20
1.810160
  0
VERTEX
  8
0
  6
CONTINUOUS
 10
5.704160
 20
1.790360
  0
VERTEX
  8
0
  6
CONTINUOUS
 10
5.056920
 20
1.421640
  0
VERTEX
  8
0
  6
CONTINUOUS
 10
5.066160
 20
1.441000
  0
SEQEND
  8
0
  0
SOLID
  8
0
 62
    15
 10
5.056920
 20
1.421640
 11
5.704160
 21
1.790360
 12
5.043280
 22
1.403600
 13
5.690960
 23
1.772760
  0
POLYLINE
  8
0
  6
CONTINUOUS
 66
     1
 40
0.000000
 41
0.000000
  0
VERTEX
  8
0
  6
CONTINUOUS
 10
5.056920
 20
1.421640
  0
VERTEX
  8
0
  6
CONTINUOUS
 10
5.704160
 20
1.790360
  0
VERTEX
  8
0
  6
CONTINUOUS
 10
5.690960
 20
1.772760
  0
VERTEX
  8
0
  6
CONTINUOUS
 10
5.043280
 20
1.403600
  0
VERTEX
  8
0
  6
CONTINUOUS
 10
5.056920
 20
1.421640
  0
SEQEND
  8
0
  0
SOLID
  8
0
 62
    15
 10
4.887520
 20
1.293160
 11
5.535200
 21
1.662320
 12
4.882680
 22
1.254000
 13
5.530360
 23
1.623160
  0
POLYLINE
  8
0
  6
CONTINUOUS
 66
     1
 40
0.000000
 41
0.000000
  0
VERTEX
  8
0
  6
CONTINUOUS
 10
4.887520
 20
1.293160
  0
VERTEX
  8
0
  6
CONTINUOUS
 10
5.535200
 20
1.662320
  0
VERTEX
  8
0
  6
CONTINUOUS
 10
5.530360
 20
1.623160
  0
VERTEX
  8
0
  6
CONTINUOUS
 10
4.882680
 20
1.254000
  0
VERTEX
  8
0
  6
CONTINUOUS
 10
4.887520
 20
1.293160
  0
SEQEND
  8
0
  0
SOLID
  8
0
 62
    15
 10
4.882680
 20
1.254000
 11
5.530360
 21
1.623160
 12
4.877840
 22
1.207360
 13
5.525520
 23
1.576520
  0
POLYLINE
  8
0
  6
CONTINUOUS
 66
     1
 40
0.000000
 41
0.000000
  0
VERTEX
  8
0
  6
CONTINUOUS
 10
4.882680
 20
1.254000
  0
VERTEX
  8
0
  6
CONTINUOUS
 10
5.530360
 20
1.623160
  0
VERTEX
  8
0
  6
CONTINUOUS
 10
5.525520
 20
1.576520
  0
VERTEX
  8
0
  6
CONTINUOUS
 10
4.877840
 20
1.207360
  0
VERTEX
  8
0
  6
CONTINUOUS
 10
4.882680
 20
1.254000
  0
SEQEND
  8
0
  0
SOLID
  8
0
 62
    15
 10
4.877840
 20
1.207360
 11
5.525520
 21
1.576520
 12
4.873880
 22
1.155000
 13
5.521120
 23
1.524160
  0
POLYLINE
  8
0
  6
CONTINUOUS
 66
     1
 40
0.000000
 41
0.000000
  0
VERTEX
  8
0
  6
CONTINUOUS
 10
4.877840
 20
1.207360
  0
VERTEX
  8
0
  6
CONTINUOUS
 10
5.525520
 20
1.576520
  0
VERTEX
  8
0
  6
CONTINUOUS
 10
5.521120
 20
1.524160
  0
VERTEX
  8
0
  6
CONTINUOUS
 10
4.873880
 20
1.155000
  0
VERTEX
  8
0
  6
CONTINUOUS
 10
4.877840
 20
1.207360
  0
SEQEND
  8
0
  0
SOLID
  8
0
 62
    15
 10
4.873880
 20
1.155000
 11
5.521120
 21
1.524160
 12
4.869480
 22
1.040160
 13
5.517160
 23
1.409320
  0
POLYLINE
  8
0
  6
CONTINUOUS
 66
     1
 40
0.000000
 41
0.000000
  0
VERTEX
  8
0
  6
CONTINUOUS
 10
4.873880
 20
1.155000
  0
VERTEX
  8
0
  6
CONTINUOUS
 10
5.521120
 20
1.524160
  0
VERTEX
  8
0
  6
CONTINUOUS
 10
5.517160
 20
1.409320
  0
VERTEX
  8
0
  6
CONTINUOUS
 10
4.869480
 20
1.040160
  0
VERTEX
  8
0
  6
CONTINUOUS
 10
4.873880
 20
1.155000
  0
SEQEND
  8
0
  0
POLYLINE
  8
0
  6
CONTINUOUS
 66
     1
 40
0.000000
 41
0.000000
  0
VERTEX
  8
0
  6
CONTINUOUS
 10
4.869480
 20
1.040160
  0
VERTEX
  8
0
  6
CONTINUOUS
 10
5.517160
 20
1.409320
  0
VERTEX
  8
0
  6
CONTINUOUS
 10
4.869480
 20
1.040160
  0
SEQEND
  8
0
  0
POLYLINE
  8
0
  6
CONTINUOUS
 66
     1
 40
0.000000
 41
0.000000
  0
VERTEX
  8
0
  6
CONTINUOUS
 10
4.869480
 20
1.040160
  0
VERTEX
  8
0
  6
CONTINUOUS
 10
4.702280
 20
1.040160
  0
VERTEX
  8
0
  6
CONTINUOUS
 10
4.702280
 20
2.540560
  0
VERTEX
  8
0
  6
CONTINUOUS
 10
5.327080
 20
2.540560
  0
VERTEX
  8
0
  6
CONTINUOUS
 10
5.327080
 20
2.167000
  0
VERTEX
  8
0
  6
CONTINUOUS
 10
5.304200
 20
2.143240
  0
VERTEX
  8
0
  6
CONTINUOUS
 10
5.279560
 20
2.115520
  0
VERTEX
  8
0
  6
CONTINUOUS
 10
5.253600
 20
2.084280
  0
VERTEX
  8
0
  6
CONTINUOUS
 10
5.226320
 20
2.050400
  0
VERTEX
  8
0
  6
CONTINUOUS
 10
5.170000
 20
1.975600
  0
VERTEX
  8
0
  6
CONTINUOUS
 10
5.113680
 20
1.895520
  0
VERTEX
  8
0
  6
CONTINUOUS
 10
5.061320
 20
1.813680
  0
VERTEX
  8
0
  6
CONTINUOUS
 10
5.015560
 20
1.734920
  0
VERTEX
  8
0
  6
CONTINUOUS
 10
4.996200
 20
1.697520
  0
VERTEX
  8
0
  6
CONTINUOUS
 10
4.979920
 20
1.662760
  0
VERTEX
  8
0
  6
CONTINUOUS
 10
4.967160
 20
1.630640
  0
VERTEX
  8
0
  6
CONTINUOUS
 10
4.957920
 20
1.601600
  0
VERTEX
  8
0
  6
CONTINUOUS
 10
4.992240
 20
1.584880
  0
VERTEX
  8
0
  6
CONTINUOUS
 10
5.019960
 20
1.566400
  0
VERTEX
  8
0
  6
CONTINUOUS
 10
5.041520
 20
1.546600
  0
VERTEX
  8
0
  6
CONTINUOUS
 10
5.056920
 20
1.525920
  0
VERTEX
  8
0
  6
CONTINUOUS
 10
5.067040
 20
1.504360
  0
VERTEX
  8
0
  6
CONTINUOUS
 10
5.071440
 20
1.482800
  0
VERTEX
  8
0
  6
CONTINUOUS
 10
5.071000
 20
1.461680
  0
VERTEX
  8
0
  6
CONTINUOUS
 10
5.066160
 20
1.441000
  0
VERTEX
  8
0
  6
CONTINUOUS
 10
5.056920
 20
1.421640
  0
VERTEX
  8
0
  6
CONTINUOUS
 10
5.043280
 20
1.403600
  0
VERTEX
  8
0
  6
CONTINUOUS
 10
5.026120
 20
1.387320
  0
VERTEX
  8
0
  6
CONTINUOUS
 10
5.005440
 20
1.373680
  0
VERTEX
  8
0
  6
CONTINUOUS
 10
4.982120
 20
1.362680
  0
VERTEX
  8
0
  6
CONTINUOUS
 10
4.955720
 20
1.354760
  0
VERTEX
  8
0
  6
CONTINUOUS
 10
4.926680
 20
1.349920
  0
VERTEX
  8
0
  6
CONTINUOUS
 10
4.895880
 20
1.349480
  0
VERTEX
  8
0
  6
CONTINUOUS
 10
4.895440
 20
1.347720
  0
VERTEX
  8
0
  6
CONTINUOUS
 10
4.891920
 20
1.323520
  0
VERTEX
  8
0
  6
CONTINUOUS
 10
4.887520
 20
1.293160
  0
VERTEX
  8
0
  6
CONTINUOUS
 10
4.882680
 20
1.254000
  0
VERTEX
  8
0
  6
CONTINUOUS
 10
4.877840
 20
1.207360
  0
VERTEX
  8
0
  6
CONTINUOUS
 10
4.873880
 20
1.155000
  0
VERTEX
  8
0
  6
CONTINUOUS
 10
4.869480
 20
1.040160
  0
SEQEND
  8
0
  0
TEXT
  8
0
 10
5.043720
 20
0.847000
 40
0.138153
  1
BA  623
 41
1.000000
  7
SN0
 71
     0
 72
     5
 11
5.633364
 21
0.847000
  0
TEXT
  8
0
 10
4.887960
 20
0.655600
 40
0.138153
  1
5/8" x 1-1/2"
 41
1.000000
  7
SN0
 71
     0
 72
     5
 11
5.787578
 21
0.655600
  0
ENDSEC
  0
EOF
