  0
SECTION
  2
HEADER
  9
$ACADVER
  1
AC1006
  9
$EXTMIN
 10
0.881320
 20
1.679040
  9
$EXTMAX
 10
7.618160
 20
10.134520
  9
$LTSCALE
 40
0.044000
  9
$PDMODE
 70
    35
  9
$PDSIZE
 40
0.035200
  0
ENDSEC
  0
SECTION
  2
TABLES
  0
TABLE
  2
LTYPE
 70
     9
  0
LTYPE
  2
CONTINUOUS
 70
    64
  3
Solid line
 72
    65
 73
     0
 40
0.000000
  0
LTYPE
  2
DASHED
 70
    64
  3
__ __ __ __ __ __ __ __ __ __ __ __ __ __ __
 72
    65
 73
     2
 40
0.000330
 49
0.000220
 49
-0.000110
  0
LTYPE
  2
HIDDEN
 70
    64
  3
 _ _ _ _ _ _ _ _ _ _ _ _ _ _ _ _ _ _ _ _ _ _
 72
    65
 73
     2
 40
0.000165
 49
0.000110
 49
-0.000055
  0
LTYPE
  2
CENTER
 70
    64
  3
____ _ ____ _ ____ _ ____ _ ____ _ ____ _ ____
 72
    65
 73
     4
 40
0.000880
 49
0.000550
 49
-0.000110
 49
0.000110
 49
-0.000110
  0
LTYPE
  2
PHANTOM
 70
    64
  3
_____ _ _ _____ _ _ _____ _ _ _____ _ _ ____
 72
    65
 73
     6
 40
0.001100
 49
0.000550
 49
-0.000110
 49
0.000110
 49
-0.000110
 49
0.000110
 49
-0.000110
  0
LTYPE
  2
DOT
 70
    64
  3
...............................................
 72
    65
 73
     2
 40
0.000110
 49
0.000000
 49
-0.000110
  0
LTYPE
  2
DASHDOT
 70
    64
  3
__ . __ . __ . __ . __ . __ . __ . __ . __ . __
 72
    65
 73
     4
 40
0.000440
 49
0.000220
 49
-0.000110
 49
0.000000
 49
-0.000110
  0
LTYPE
  2
BORDER
 70
    64
  3
__ __ . __ __ . __ __ . __ __ . __ __ . __ __
 72
    65
 73
     6
 40
0.000770
 49
0.000220
 49
-0.000110
 49
0.000220
 49
-0.000110
 49
0.000000
 49
-0.000110
  0
LTYPE
  2
DIVIDE
 70
    64
  3
__ . . __ . . __ . . __ . . __ . . __ . . __
 72
    65
 73
     6
 40
0.000550
 49
0.000220
 49
-0.000110
 49
0.000000
 49
-0.000110
 49
0.000000
 49
-0.000110
  0
LTYPE
  2
DOTDOT
 70
    64
  3
 . .  . .  . .  . .  . .  . . 
 72
    65
 73
     5
 40
0.000242
 49
-0.000110
 49
0.000000
 49
-0.000110
 49
0.000000
 49
-0.000110
  0
ENDTAB
  0
TABLE
  2
STYLE
 70
     2
  0
STYLE
 70
     0
  2
SN0
 40
0.000000
 41
0.000440
 50
0.000000
 71
     0
 42
0.000000
  3
ROMAND
  0
STYLE
 70
    68
  2
SV0
 40
0.000000
 41
0.000440
 50
0.000000
 71
     0
 42
0.000000
  3
ROMAND
  0
ENDTAB
  0
TABLE
  2
LAYER
 70
     3
  0
LAYER
  2
FOREGROUND
 70
    64
 62
     7
  6
CONTINUOUS
  0
LAYER
  2
BACKGROUND
 70
    65
 62
    -7
  6
CONTINUOUS
  0
LAYER
  2
0
 70
    64
 62
     7
  6
CONTINUOUS
  0
ENDTAB
  0
ENDSEC
  0
SECTION
  2
ENTITIES
  0
POLYLINE
  8
FOREGROUND
  6
CONTINUOUS
 66
     1
 40
0.000000
 41
0.000000
  0
VERTEX
  8
FOREGROUND
  6
CONTINUOUS
 10
0.000000
 20
11.813560
  0
VERTEX
  8
FOREGROUND
  6
CONTINUOUS
 10
8.499920
 20
11.813560
  0
VERTEX
  8
FOREGROUND
  6
CONTINUOUS
 10
8.499920
 20
0.813560
  0
VERTEX
  8
FOREGROUND
  6
CONTINUOUS
 10
0.000000
 20
0.813560
  0
VERTEX
  8
FOREGROUND
  6
CONTINUOUS
 10
0.000000
 20
11.813560
  0
SEQEND
  8
0
  0
POLYLINE
  8
FOREGROUND
  6
CONTINUOUS
 66
     1
 40
0.000000
 41
0.000000
  0
VERTEX
  8
FOREGROUND
  6
CONTINUOUS
 10
0.000000
 20
11.813560
  0
VERTEX
  8
FOREGROUND
  6
CONTINUOUS
 10
8.499920
 20
11.813560
  0
VERTEX
  8
FOREGROUND
  6
CONTINUOUS
 10
8.499920
 20
0.813560
  0
VERTEX
  8
FOREGROUND
  6
CONTINUOUS
 10
0.000000
 20
0.813560
  0
VERTEX
  8
FOREGROUND
  6
CONTINUOUS
 10
0.000000
 20
11.813560
  0
SEQEND
  8
0
  0
POLYLINE
  8
0
  6
CONTINUOUS
 66
     1
 40
0.014080
 41
0.014080
  0
VERTEX
  8
0
  6
CONTINUOUS
 10
6.359760
 20
9.872720
  0
VERTEX
  8
0
  6
CONTINUOUS
 10
6.424000
 20
9.870960
  0
VERTEX
  8
0
  6
CONTINUOUS
 10
6.487800
 20
9.866120
  0
VERTEX
  8
0
  6
CONTINUOUS
 10
6.581520
 20
9.853360
  0
VERTEX
  8
0
  6
CONTINUOUS
 10
6.672600
 20
9.833120
  0
VERTEX
  8
0
  6
CONTINUOUS
 10
6.732000
 20
9.816400
  0
VERTEX
  8
0
  6
CONTINUOUS
 10
6.790080
 20
9.796600
  0
VERTEX
  8
0
  6
CONTINUOUS
 10
6.846840
 20
9.774600
  0
VERTEX
  8
0
  6
CONTINUOUS
 10
6.929560
 20
9.735880
  0
VERTEX
  8
0
  6
CONTINUOUS
 10
7.008760
 20
9.691440
  0
VERTEX
  8
0
  6
CONTINUOUS
 10
7.084000
 20
9.641720
  0
VERTEX
  8
0
  6
CONTINUOUS
 10
7.132400
 20
9.606080
  0
VERTEX
  8
0
  6
CONTINUOUS
 10
7.201040
 20
9.547560
  0
VERTEX
  8
0
  6
CONTINUOUS
 10
7.265720
 20
9.484640
  0
VERTEX
  8
0
  6
CONTINUOUS
 10
7.325560
 20
9.417320
  0
VERTEX
  8
0
  6
CONTINUOUS
 10
7.362520
 20
9.370240
  0
VERTEX
  8
0
  6
CONTINUOUS
 10
7.414000
 20
9.295880
  0
VERTEX
  8
0
  6
CONTINUOUS
 10
7.460200
 20
9.218000
  0
VERTEX
  8
0
  6
CONTINUOUS
 10
7.500680
 20
9.136600
  0
VERTEX
  8
0
  6
CONTINUOUS
 10
7.524440
 20
9.080280
  0
VERTEX
  8
0
  6
CONTINUOUS
 10
7.545560
 20
9.022640
  0
VERTEX
  8
0
  6
CONTINUOUS
 10
7.563600
 20
8.964120
  0
VERTEX
  8
0
  6
CONTINUOUS
 10
7.585600
 20
8.873480
  0
VERTEX
  8
0
  6
CONTINUOUS
 10
7.596600
 20
8.811880
  0
VERTEX
  8
0
  6
CONTINUOUS
 10
7.604520
 20
8.749400
  0
VERTEX
  8
0
  6
CONTINUOUS
 10
7.609360
 20
8.685600
  0
VERTEX
  8
0
  6
CONTINUOUS
 10
7.611120
 20
8.621360
  0
VERTEX
  8
0
  6
CONTINUOUS
 10
7.609360
 20
8.557120
  0
VERTEX
  8
0
  6
CONTINUOUS
 10
7.604520
 20
8.493320
  0
VERTEX
  8
0
  6
CONTINUOUS
 10
7.591760
 20
8.399600
  0
VERTEX
  8
0
  6
CONTINUOUS
 10
7.571520
 20
8.308520
  0
VERTEX
  8
0
  6
CONTINUOUS
 10
7.554800
 20
8.249120
  0
VERTEX
  8
0
  6
CONTINUOUS
 10
7.535000
 20
8.191040
  0
VERTEX
  8
0
  6
CONTINUOUS
 10
7.513000
 20
8.134280
  0
VERTEX
  8
0
  6
CONTINUOUS
 10
7.474280
 20
8.051560
  0
VERTEX
  8
0
  6
CONTINUOUS
 10
7.429840
 20
7.972360
  0
VERTEX
  8
0
  6
CONTINUOUS
 10
7.380120
 20
7.897120
  0
VERTEX
  8
0
  6
CONTINUOUS
 10
7.344480
 20
7.848720
  0
VERTEX
  8
0
  6
CONTINUOUS
 10
7.285960
 20
7.780080
  0
VERTEX
  8
0
  6
CONTINUOUS
 10
7.223040
 20
7.715400
  0
VERTEX
  8
0
  6
CONTINUOUS
 10
7.155720
 20
7.655560
  0
VERTEX
  8
0
  6
CONTINUOUS
 10
7.108640
 20
7.618600
  0
VERTEX
  8
0
  6
CONTINUOUS
 10
7.034280
 20
7.567120
  0
VERTEX
  8
0
  6
CONTINUOUS
 10
6.956400
 20
7.520920
  0
VERTEX
  8
0
  6
CONTINUOUS
 10
6.875000
 20
7.480440
  0
VERTEX
  8
0
  6
CONTINUOUS
 10
6.818680
 20
7.456680
  0
VERTEX
  8
0
  6
CONTINUOUS
 10
6.761040
 20
7.435560
  0
VERTEX
  8
0
  6
CONTINUOUS
 10
6.702520
 20
7.417520
  0
VERTEX
  8
0
  6
CONTINUOUS
 10
6.611880
 20
7.395520
  0
VERTEX
  8
0
  6
CONTINUOUS
 10
6.550280
 20
7.384520
  0
VERTEX
  8
0
  6
CONTINUOUS
 10
6.487800
 20
7.376600
  0
VERTEX
  8
0
  6
CONTINUOUS
 10
6.424000
 20
7.371760
  0
VERTEX
  8
0
  6
CONTINUOUS
 10
6.359760
 20
7.370000
  0
VERTEX
  8
0
  6
CONTINUOUS
 10
6.359760
 20
7.872920
  0
VERTEX
  8
0
  6
CONTINUOUS
 10
5.869600
 20
7.872920
  0
VERTEX
  8
0
  6
CONTINUOUS
 10
5.869600
 20
9.375080
  0
VERTEX
  8
0
  6
CONTINUOUS
 10
6.364160
 20
9.375080
  0
VERTEX
  8
0
  6
CONTINUOUS
 10
6.364160
 20
9.872720
  0
VERTEX
  8
0
  6
CONTINUOUS
 10
6.359760
 20
9.872720
  0
SEQEND
  8
0
  0
POLYLINE
  8
0
  6
CONTINUOUS
 66
     1
 40
0.014080
 41
0.014080
  0
VERTEX
  8
0
  6
CONTINUOUS
 10
6.358000
 20
7.874680
  0
VERTEX
  8
0
  6
CONTINUOUS
 10
5.118080
 20
7.874680
  0
VERTEX
  8
0
  6
CONTINUOUS
 10
5.118080
 20
1.863400
  0
VERTEX
  8
0
  6
CONTINUOUS
 10
5.464800
 20
1.863400
  0
VERTEX
  8
0
  6
CONTINUOUS
 10
5.470520
 20
1.946120
  0
VERTEX
  8
0
  6
CONTINUOUS
 10
5.475360
 20
1.983520
  0
VERTEX
  8
0
  6
CONTINUOUS
 10
5.483280
 20
2.019160
  0
VERTEX
  8
0
  6
CONTINUOUS
 10
5.494720
 20
2.053480
  0
VERTEX
  8
0
  6
CONTINUOUS
 10
5.511880
 20
2.086920
  0
VERTEX
  8
0
  6
CONTINUOUS
 10
5.534760
 20
2.119480
  0
VERTEX
  8
0
  6
CONTINUOUS
 10
5.565120
 20
2.151160
  0
VERTEX
  8
0
  6
CONTINUOUS
 10
5.611760
 20
2.198240
  0
VERTEX
  8
0
  6
CONTINUOUS
 10
5.638160
 20
2.231680
  0
VERTEX
  8
0
  6
CONTINUOUS
 10
5.659720
 20
2.267760
  0
VERTEX
  8
0
  6
CONTINUOUS
 10
5.676440
 20
2.309120
  0
VERTEX
  8
0
  6
CONTINUOUS
 10
5.683480
 20
2.331560
  0
VERTEX
  8
0
  6
CONTINUOUS
 10
5.693160
 20
2.382600
  0
VERTEX
  8
0
  6
CONTINUOUS
 10
5.697120
 20
2.426160
  0
VERTEX
  8
0
  6
CONTINUOUS
 10
5.698000
 20
2.475000
  0
VERTEX
  8
0
  6
CONTINUOUS
 10
5.696680
 20
2.511080
  0
VERTEX
  8
0
  6
CONTINUOUS
 10
5.855520
 20
2.524280
  0
VERTEX
  8
0
  6
CONTINUOUS
 10
5.863880
 20
3.280640
  0
VERTEX
  8
0
  6
CONTINUOUS
 10
5.869600
 20
3.525720
  0
VERTEX
  8
0
  6
CONTINUOUS
 10
5.879720
 20
3.770360
  0
VERTEX
  8
0
  6
CONTINUOUS
 10
5.886760
 20
3.893120
  0
VERTEX
  8
0
  6
CONTINUOUS
 10
5.895560
 20
4.016320
  0
VERTEX
  8
0
  6
CONTINUOUS
 10
5.912720
 20
4.202880
  0
VERTEX
  8
0
  6
CONTINUOUS
 10
5.935160
 20
4.391640
  0
VERTEX
  8
0
  6
CONTINUOUS
 10
5.953200
 20
4.519240
  0
VERTEX
  8
0
  6
CONTINUOUS
 10
5.962880
 20
4.576000
  0
VERTEX
  8
0
  6
CONTINUOUS
 10
5.988840
 20
4.689520
  0
VERTEX
  8
0
  6
CONTINUOUS
 10
6.020960
 20
4.803920
  0
VERTEX
  8
0
  6
CONTINUOUS
 10
6.110720
 20
5.093440
  0
VERTEX
  8
0
  6
CONTINUOUS
 10
6.142840
 20
5.210920
  0
VERTEX
  8
0
  6
CONTINUOUS
 10
6.156920
 20
5.269880
  0
VERTEX
  8
0
  6
CONTINUOUS
 10
6.169240
 20
5.329280
  0
VERTEX
  8
0
  6
CONTINUOUS
 10
6.183760
 20
5.419040
  0
VERTEX
  8
0
  6
CONTINUOUS
 10
6.202680
 20
5.602080
  0
VERTEX
  8
0
  6
CONTINUOUS
 10
6.215440
 20
5.756960
  0
VERTEX
  8
0
  6
CONTINUOUS
 10
6.225120
 20
5.916240
  0
VERTEX
  8
0
  6
CONTINUOUS
 10
6.232600
 20
6.124360
  0
VERTEX
  8
0
  6
CONTINUOUS
 10
6.233480
 20
6.301240
  0
VERTEX
  8
0
  6
CONTINUOUS
 10
6.231280
 20
6.441160
  0
VERTEX
  8
0
  6
CONTINUOUS
 10
6.223360
 20
6.639160
  0
VERTEX
  8
0
  6
CONTINUOUS
 10
6.209720
 20
6.852560
  0
VERTEX
  8
0
  6
CONTINUOUS
 10
6.361520
 20
6.858280
  0
VERTEX
  8
0
  6
CONTINUOUS
 10
6.360640
 20
7.873360
  0
VERTEX
  8
0
  6
CONTINUOUS
 10
6.358000
 20
7.874680
  0
SEQEND
  8
0
  0
SOLID
  8
0
 62
    15
 10
1.660120
 20
4.270200
 11
2.401520
 21
4.263600
 12
1.643840
 22
4.023800
 13
2.385680
 23
4.017640
  0
POLYLINE
  8
0
  6
CONTINUOUS
 66
     1
 40
0.000000
 41
0.000000
  0
VERTEX
  8
0
  6
CONTINUOUS
 10
1.660120
 20
4.270200
  0
VERTEX
  8
0
  6
CONTINUOUS
 10
2.401520
 20
4.263600
  0
VERTEX
  8
0
  6
CONTINUOUS
 10
2.385680
 20
4.017640
  0
VERTEX
  8
0
  6
CONTINUOUS
 10
1.643840
 20
4.023800
  0
VERTEX
  8
0
  6
CONTINUOUS
 10
1.660120
 20
4.270200
  0
SEQEND
  8
0
  0
SOLID
  8
0
 62
    15
 10
2.125640
 20
7.111720
 11
2.867040
 21
7.105120
 12
1.973840
 22
7.106000
 13
2.715240
 23
7.099840
  0
POLYLINE
  8
0
  6
CONTINUOUS
 66
     1
 40
0.000000
 41
0.000000
  0
VERTEX
  8
0
  6
CONTINUOUS
 10
2.125640
 20
7.111720
  0
VERTEX
  8
0
  6
CONTINUOUS
 10
2.867040
 20
7.105120
  0
VERTEX
  8
0
  6
CONTINUOUS
 10
2.715240
 20
7.099840
  0
VERTEX
  8
0
  6
CONTINUOUS
 10
1.973840
 20
7.106000
  0
VERTEX
  8
0
  6
CONTINUOUS
 10
2.125640
 20
7.111720
  0
SEQEND
  8
0
  0
SOLID
  8
0
 62
    15
 10
1.973840
 20
7.106000
 11
2.715240
 21
7.099840
 12
1.987480
 22
6.892600
 13
2.728880
 23
6.886440
  0
POLYLINE
  8
0
  6
CONTINUOUS
 66
     1
 40
0.000000
 41
0.000000
  0
VERTEX
  8
0
  6
CONTINUOUS
 10
1.973840
 20
7.106000
  0
VERTEX
  8
0
  6
CONTINUOUS
 10
2.715240
 20
7.099840
  0
VERTEX
  8
0
  6
CONTINUOUS
 10
2.728880
 20
6.886440
  0
VERTEX
  8
0
  6
CONTINUOUS
 10
1.987480
 20
6.892600
  0
VERTEX
  8
0
  6
CONTINUOUS
 10
1.973840
 20
7.106000
  0
SEQEND
  8
0
  0
SOLID
  8
0
 62
    15
 10
1.987480
 20
6.892600
 11
2.728880
 21
6.886440
 12
1.994960
 22
6.694600
 13
2.736800
 23
6.688440
  0
POLYLINE
  8
0
  6
CONTINUOUS
 66
     1
 40
0.000000
 41
0.000000
  0
VERTEX
  8
0
  6
CONTINUOUS
 10
1.987480
 20
6.892600
  0
VERTEX
  8
0
  6
CONTINUOUS
 10
2.728880
 20
6.886440
  0
VERTEX
  8
0
  6
CONTINUOUS
 10
2.736800
 20
6.688440
  0
VERTEX
  8
0
  6
CONTINUOUS
 10
1.994960
 20
6.694600
  0
VERTEX
  8
0
  6
CONTINUOUS
 10
1.987480
 20
6.892600
  0
SEQEND
  8
0
  0
SOLID
  8
0
 62
    15
 10
1.994960
 20
6.694600
 11
2.736800
 21
6.688440
 12
1.997600
 22
6.509800
 13
2.739440
 23
6.503200
  0
POLYLINE
  8
0
  6
CONTINUOUS
 66
     1
 40
0.000000
 41
0.000000
  0
VERTEX
  8
0
  6
CONTINUOUS
 10
1.994960
 20
6.694600
  0
VERTEX
  8
0
  6
CONTINUOUS
 10
2.736800
 20
6.688440
  0
VERTEX
  8
0
  6
CONTINUOUS
 10
2.739440
 20
6.503200
  0
VERTEX
  8
0
  6
CONTINUOUS
 10
1.997600
 20
6.509800
  0
VERTEX
  8
0
  6
CONTINUOUS
 10
1.994960
 20
6.694600
  0
SEQEND
  8
0
  0
SOLID
  8
0
 62
    15
 10
1.997600
 20
6.509800
 11
2.739440
 21
6.503200
 12
1.995400
 22
6.335120
 13
2.737240
 23
6.328960
  0
POLYLINE
  8
0
  6
CONTINUOUS
 66
     1
 40
0.000000
 41
0.000000
  0
VERTEX
  8
0
  6
CONTINUOUS
 10
1.997600
 20
6.509800
  0
VERTEX
  8
0
  6
CONTINUOUS
 10
2.739440
 20
6.503200
  0
VERTEX
  8
0
  6
CONTINUOUS
 10
2.737240
 20
6.328960
  0
VERTEX
  8
0
  6
CONTINUOUS
 10
1.995400
 20
6.335120
  0
VERTEX
  8
0
  6
CONTINUOUS
 10
1.997600
 20
6.509800
  0
SEQEND
  8
0
  0
SOLID
  8
0
 62
    15
 10
1.995400
 20
6.335120
 11
2.737240
 21
6.328960
 12
1.989240
 22
6.169680
 13
2.731080
 23
6.163080
  0
POLYLINE
  8
0
  6
CONTINUOUS
 66
     1
 40
0.000000
 41
0.000000
  0
VERTEX
  8
0
  6
CONTINUOUS
 10
1.995400
 20
6.335120
  0
VERTEX
  8
0
  6
CONTINUOUS
 10
2.737240
 20
6.328960
  0
VERTEX
  8
0
  6
CONTINUOUS
 10
2.731080
 20
6.163080
  0
VERTEX
  8
0
  6
CONTINUOUS
 10
1.989240
 20
6.169680
  0
VERTEX
  8
0
  6
CONTINUOUS
 10
1.995400
 20
6.335120
  0
SEQEND
  8
0
  0
SOLID
  8
0
 62
    15
 10
1.989240
 20
6.169680
 11
2.731080
 21
6.163080
 12
1.979560
 22
6.010400
 13
2.721400
 23
6.003800
  0
POLYLINE
  8
0
  6
CONTINUOUS
 66
     1
 40
0.000000
 41
0.000000
  0
VERTEX
  8
0
  6
CONTINUOUS
 10
1.989240
 20
6.169680
  0
VERTEX
  8
0
  6
CONTINUOUS
 10
2.731080
 20
6.163080
  0
VERTEX
  8
0
  6
CONTINUOUS
 10
2.721400
 20
6.003800
  0
VERTEX
  8
0
  6
CONTINUOUS
 10
1.979560
 20
6.010400
  0
VERTEX
  8
0
  6
CONTINUOUS
 10
1.989240
 20
6.169680
  0
SEQEND
  8
0
  0
SOLID
  8
0
 62
    15
 10
1.979560
 20
6.010400
 11
2.721400
 21
6.003800
 12
1.951400
 22
5.702400
 13
2.693240
 23
5.695800
  0
POLYLINE
  8
0
  6
CONTINUOUS
 66
     1
 40
0.000000
 41
0.000000
  0
VERTEX
  8
0
  6
CONTINUOUS
 10
1.979560
 20
6.010400
  0
VERTEX
  8
0
  6
CONTINUOUS
 10
2.721400
 20
6.003800
  0
VERTEX
  8
0
  6
CONTINUOUS
 10
2.693240
 20
5.695800
  0
VERTEX
  8
0
  6
CONTINUOUS
 10
1.951400
 20
5.702400
  0
VERTEX
  8
0
  6
CONTINUOUS
 10
1.979560
 20
6.010400
  0
SEQEND
  8
0
  0
SOLID
  8
0
 62
    15
 10
1.951400
 20
5.702400
 11
2.693240
 21
5.695800
 12
1.933360
 22
5.582720
 13
2.675200
 23
5.576120
  0
POLYLINE
  8
0
  6
CONTINUOUS
 66
     1
 40
0.000000
 41
0.000000
  0
VERTEX
  8
0
  6
CONTINUOUS
 10
1.951400
 20
5.702400
  0
VERTEX
  8
0
  6
CONTINUOUS
 10
2.693240
 20
5.695800
  0
VERTEX
  8
0
  6
CONTINUOUS
 10
2.675200
 20
5.576120
  0
VERTEX
  8
0
  6
CONTINUOUS
 10
1.933360
 20
5.582720
  0
VERTEX
  8
0
  6
CONTINUOUS
 10
1.951400
 20
5.702400
  0
SEQEND
  8
0
  0
SOLID
  8
0
 62
    15
 10
1.933360
 20
5.582720
 11
2.675200
 21
5.576120
 12
1.906960
 22
5.464360
 13
2.648800
 23
5.457760
  0
POLYLINE
  8
0
  6
CONTINUOUS
 66
     1
 40
0.000000
 41
0.000000
  0
VERTEX
  8
0
  6
CONTINUOUS
 10
1.933360
 20
5.582720
  0
VERTEX
  8
0
  6
CONTINUOUS
 10
2.675200
 20
5.576120
  0
VERTEX
  8
0
  6
CONTINUOUS
 10
2.648800
 20
5.457760
  0
VERTEX
  8
0
  6
CONTINUOUS
 10
1.906960
 20
5.464360
  0
VERTEX
  8
0
  6
CONTINUOUS
 10
1.933360
 20
5.582720
  0
SEQEND
  8
0
  0
SOLID
  8
0
 62
    15
 10
1.906960
 20
5.464360
 11
2.648800
 21
5.457760
 12
1.838760
 22
5.230280
 13
2.580600
 23
5.224120
  0
POLYLINE
  8
0
  6
CONTINUOUS
 66
     1
 40
0.000000
 41
0.000000
  0
VERTEX
  8
0
  6
CONTINUOUS
 10
1.906960
 20
5.464360
  0
VERTEX
  8
0
  6
CONTINUOUS
 10
2.648800
 20
5.457760
  0
VERTEX
  8
0
  6
CONTINUOUS
 10
2.580600
 20
5.224120
  0
VERTEX
  8
0
  6
CONTINUOUS
 10
1.838760
 20
5.230280
  0
VERTEX
  8
0
  6
CONTINUOUS
 10
1.906960
 20
5.464360
  0
SEQEND
  8
0
  0
SOLID
  8
0
 62
    15
 10
1.838760
 20
5.230280
 11
2.580600
 21
5.224120
 12
1.820720
 22
5.172640
 13
2.562120
 23
5.166040
  0
POLYLINE
  8
0
  6
CONTINUOUS
 66
     1
 40
0.000000
 41
0.000000
  0
VERTEX
  8
0
  6
CONTINUOUS
 10
1.838760
 20
5.230280
  0
VERTEX
  8
0
  6
CONTINUOUS
 10
2.580600
 20
5.224120
  0
VERTEX
  8
0
  6
CONTINUOUS
 10
2.562120
 20
5.166040
  0
VERTEX
  8
0
  6
CONTINUOUS
 10
1.820720
 20
5.172640
  0
VERTEX
  8
0
  6
CONTINUOUS
 10
1.838760
 20
5.230280
  0
SEQEND
  8
0
  0
SOLID
  8
0
 62
    15
 10
1.820720
 20
5.172640
 11
2.562120
 21
5.166040
 12
1.802680
 22
5.115000
 13
2.544520
 23
5.108400
  0
POLYLINE
  8
0
  6
CONTINUOUS
 66
     1
 40
0.000000
 41
0.000000
  0
VERTEX
  8
0
  6
CONTINUOUS
 10
1.820720
 20
5.172640
  0
VERTEX
  8
0
  6
CONTINUOUS
 10
2.562120
 20
5.166040
  0
VERTEX
  8
0
  6
CONTINUOUS
 10
2.544520
 20
5.108400
  0
VERTEX
  8
0
  6
CONTINUOUS
 10
1.802680
 20
5.115000
  0
VERTEX
  8
0
  6
CONTINUOUS
 10
1.820720
 20
5.172640
  0
SEQEND
  8
0
  0
SOLID
  8
0
 62
    15
 10
1.802680
 20
5.115000
 11
2.544520
 21
5.108400
 12
1.768800
 22
5.000160
 13
2.510200
 23
4.993560
  0
POLYLINE
  8
0
  6
CONTINUOUS
 66
     1
 40
0.000000
 41
0.000000
  0
VERTEX
  8
0
  6
CONTINUOUS
 10
1.802680
 20
5.115000
  0
VERTEX
  8
0
  6
CONTINUOUS
 10
2.544520
 20
5.108400
  0
VERTEX
  8
0
  6
CONTINUOUS
 10
2.510200
 20
4.993560
  0
VERTEX
  8
0
  6
CONTINUOUS
 10
1.768800
 20
5.000160
  0
VERTEX
  8
0
  6
CONTINUOUS
 10
1.802680
 20
5.115000
  0
SEQEND
  8
0
  0
SOLID
  8
0
 62
    15
 10
1.768800
 20
5.000160
 11
2.510200
 21
4.993560
 12
1.739320
 22
4.886200
 13
2.481160
 23
4.879600
  0
POLYLINE
  8
0
  6
CONTINUOUS
 66
     1
 40
0.000000
 41
0.000000
  0
VERTEX
  8
0
  6
CONTINUOUS
 10
1.768800
 20
5.000160
  0
VERTEX
  8
0
  6
CONTINUOUS
 10
2.510200
 20
4.993560
  0
VERTEX
  8
0
  6
CONTINUOUS
 10
2.481160
 20
4.879600
  0
VERTEX
  8
0
  6
CONTINUOUS
 10
1.739320
 20
4.886200
  0
VERTEX
  8
0
  6
CONTINUOUS
 10
1.768800
 20
5.000160
  0
SEQEND
  8
0
  0
SOLID
  8
0
 62
    15
 10
1.739320
 20
4.886200
 11
2.481160
 21
4.879600
 12
1.717320
 22
4.772680
 13
2.459160
 23
4.766520
  0
POLYLINE
  8
0
  6
CONTINUOUS
 66
     1
 40
0.000000
 41
0.000000
  0
VERTEX
  8
0
  6
CONTINUOUS
 10
1.739320
 20
4.886200
  0
VERTEX
  8
0
  6
CONTINUOUS
 10
2.481160
 20
4.879600
  0
VERTEX
  8
0
  6
CONTINUOUS
 10
2.459160
 20
4.766520
  0
VERTEX
  8
0
  6
CONTINUOUS
 10
1.717320
 20
4.772680
  0
VERTEX
  8
0
  6
CONTINUOUS
 10
1.739320
 20
4.886200
  0
SEQEND
  8
0
  0
SOLID
  8
0
 62
    15
 10
1.717320
 20
4.772680
 11
2.459160
 21
4.766520
 12
1.683880
 22
4.519240
 13
2.425720
 23
4.512640
  0
POLYLINE
  8
0
  6
CONTINUOUS
 66
     1
 40
0.000000
 41
0.000000
  0
VERTEX
  8
0
  6
CONTINUOUS
 10
1.717320
 20
4.772680
  0
VERTEX
  8
0
  6
CONTINUOUS
 10
2.459160
 20
4.766520
  0
VERTEX
  8
0
  6
CONTINUOUS
 10
2.425720
 20
4.512640
  0
VERTEX
  8
0
  6
CONTINUOUS
 10
1.683880
 20
4.519240
  0
VERTEX
  8
0
  6
CONTINUOUS
 10
1.717320
 20
4.772680
  0
SEQEND
  8
0
  0
SOLID
  8
0
 62
    15
 10
1.683880
 20
4.519240
 11
2.425720
 21
4.512640
 12
1.660120
 22
4.270200
 13
2.401520
 23
4.263600
  0
POLYLINE
  8
0
  6
CONTINUOUS
 66
     1
 40
0.000000
 41
0.000000
  0
VERTEX
  8
0
  6
CONTINUOUS
 10
1.683880
 20
4.519240
  0
VERTEX
  8
0
  6
CONTINUOUS
 10
2.425720
 20
4.512640
  0
VERTEX
  8
0
  6
CONTINUOUS
 10
2.401520
 20
4.263600
  0
VERTEX
  8
0
  6
CONTINUOUS
 10
1.660120
 20
4.270200
  0
VERTEX
  8
0
  6
CONTINUOUS
 10
1.683880
 20
4.519240
  0
SEQEND
  8
0
  0
SOLID
  8
0
 62
    15
 10
2.122120
 20
8.128120
 11
2.863960
 21
8.121520
 12
2.124760
 22
8.126800
 13
2.866600
 23
8.120200
  0
POLYLINE
  8
0
  6
CONTINUOUS
 66
     1
 40
0.000000
 41
0.000000
  0
VERTEX
  8
0
  6
CONTINUOUS
 10
2.122120
 20
8.128120
  0
VERTEX
  8
0
  6
CONTINUOUS
 10
2.863960
 20
8.121520
  0
VERTEX
  8
0
  6
CONTINUOUS
 10
2.866600
 20
8.120200
  0
VERTEX
  8
0
  6
CONTINUOUS
 10
2.124760
 20
8.126800
  0
VERTEX
  8
0
  6
CONTINUOUS
 10
2.122120
 20
8.128120
  0
SEQEND
  8
0
  0
SOLID
  8
0
 62
    15
 10
1.643840
 20
4.023800
 11
2.385680
 21
4.017640
 12
1.633720
 22
3.779160
 13
2.375560
 23
3.772560
  0
POLYLINE
  8
0
  6
CONTINUOUS
 66
     1
 40
0.000000
 41
0.000000
  0
VERTEX
  8
0
  6
CONTINUOUS
 10
1.643840
 20
4.023800
  0
VERTEX
  8
0
  6
CONTINUOUS
 10
2.385680
 20
4.017640
  0
VERTEX
  8
0
  6
CONTINUOUS
 10
2.375560
 20
3.772560
  0
VERTEX
  8
0
  6
CONTINUOUS
 10
1.633720
 20
3.779160
  0
VERTEX
  8
0
  6
CONTINUOUS
 10
1.643840
 20
4.023800
  0
SEQEND
  8
0
  0
SOLID
  8
0
 62
    15
 10
1.633720
 20
3.779160
 11
2.375560
 21
3.772560
 12
1.624920
 22
3.286360
 13
2.366760
 23
3.279760
  0
POLYLINE
  8
0
  6
CONTINUOUS
 66
     1
 40
0.000000
 41
0.000000
  0
VERTEX
  8
0
  6
CONTINUOUS
 10
1.633720
 20
3.779160
  0
VERTEX
  8
0
  6
CONTINUOUS
 10
2.375560
 20
3.772560
  0
VERTEX
  8
0
  6
CONTINUOUS
 10
2.366760
 20
3.279760
  0
VERTEX
  8
0
  6
CONTINUOUS
 10
1.624920
 20
3.286360
  0
VERTEX
  8
0
  6
CONTINUOUS
 10
1.633720
 20
3.779160
  0
SEQEND
  8
0
  0
SOLID
  8
0
 62
    15
 10
1.460800
 20
2.764520
 11
2.202200
 21
2.757920
 12
1.461680
 22
2.695440
 13
2.203080
 23
2.688840
  0
POLYLINE
  8
0
  6
CONTINUOUS
 66
     1
 40
0.000000
 41
0.000000
  0
VERTEX
  8
0
  6
CONTINUOUS
 10
1.460800
 20
2.764520
  0
VERTEX
  8
0
  6
CONTINUOUS
 10
2.202200
 20
2.757920
  0
VERTEX
  8
0
  6
CONTINUOUS
 10
2.203080
 20
2.688840
  0
VERTEX
  8
0
  6
CONTINUOUS
 10
1.461680
 20
2.695440
  0
VERTEX
  8
0
  6
CONTINUOUS
 10
1.460800
 20
2.764520
  0
SEQEND
  8
0
  0
SOLID
  8
0
 62
    15
 10
1.619640
 20
2.777280
 11
2.361040
 21
2.771120
 12
1.460800
 22
2.764520
 13
2.202200
 23
2.757920
  0
POLYLINE
  8
0
  6
CONTINUOUS
 66
     1
 40
0.000000
 41
0.000000
  0
VERTEX
  8
0
  6
CONTINUOUS
 10
1.619640
 20
2.777280
  0
VERTEX
  8
0
  6
CONTINUOUS
 10
2.361040
 20
2.771120
  0
VERTEX
  8
0
  6
CONTINUOUS
 10
2.202200
 20
2.757920
  0
VERTEX
  8
0
  6
CONTINUOUS
 10
1.460800
 20
2.764520
  0
VERTEX
  8
0
  6
CONTINUOUS
 10
1.619640
 20
2.777280
  0
SEQEND
  8
0
  0
SOLID
  8
0
 62
    15
 10
1.624920
 20
3.286360
 11
2.366760
 21
3.279760
 12
1.619640
 22
2.777280
 13
2.361040
 23
2.771120
  0
POLYLINE
  8
0
  6
CONTINUOUS
 66
     1
 40
0.000000
 41
0.000000
  0
VERTEX
  8
0
  6
CONTINUOUS
 10
1.624920
 20
3.286360
  0
VERTEX
  8
0
  6
CONTINUOUS
 10
2.366760
 20
3.279760
  0
VERTEX
  8
0
  6
CONTINUOUS
 10
2.361040
 20
2.771120
  0
VERTEX
  8
0
  6
CONTINUOUS
 10
1.619640
 20
2.777280
  0
VERTEX
  8
0
  6
CONTINUOUS
 10
1.624920
 20
3.286360
  0
SEQEND
  8
0
  0
SOLID
  8
0
 62
    15
 10
1.461680
 20
2.695440
 11
2.203080
 21
2.688840
 12
1.457280
 22
2.636040
 13
2.198680
 23
2.629440
  0
POLYLINE
  8
0
  6
CONTINUOUS
 66
     1
 40
0.000000
 41
0.000000
  0
VERTEX
  8
0
  6
CONTINUOUS
 10
1.461680
 20
2.695440
  0
VERTEX
  8
0
  6
CONTINUOUS
 10
2.203080
 20
2.688840
  0
VERTEX
  8
0
  6
CONTINUOUS
 10
2.198680
 20
2.629440
  0
VERTEX
  8
0
  6
CONTINUOUS
 10
1.457280
 20
2.636040
  0
VERTEX
  8
0
  6
CONTINUOUS
 10
1.461680
 20
2.695440
  0
SEQEND
  8
0
  0
SOLID
  8
0
 62
    15
 10
1.457280
 20
2.636040
 11
2.198680
 21
2.629440
 12
1.447600
 22
2.585000
 13
2.189000
 23
2.578840
  0
POLYLINE
  8
0
  6
CONTINUOUS
 66
     1
 40
0.000000
 41
0.000000
  0
VERTEX
  8
0
  6
CONTINUOUS
 10
1.457280
 20
2.636040
  0
VERTEX
  8
0
  6
CONTINUOUS
 10
2.198680
 20
2.629440
  0
VERTEX
  8
0
  6
CONTINUOUS
 10
2.189000
 20
2.578840
  0
VERTEX
  8
0
  6
CONTINUOUS
 10
1.447600
 20
2.585000
  0
VERTEX
  8
0
  6
CONTINUOUS
 10
1.457280
 20
2.636040
  0
SEQEND
  8
0
  0
SOLID
  8
0
 62
    15
 10
1.447600
 20
2.585000
 11
2.189000
 21
2.578840
 12
1.432640
 22
2.541000
 13
2.174480
 23
2.534840
  0
POLYLINE
  8
0
  6
CONTINUOUS
 66
     1
 40
0.000000
 41
0.000000
  0
VERTEX
  8
0
  6
CONTINUOUS
 10
1.447600
 20
2.585000
  0
VERTEX
  8
0
  6
CONTINUOUS
 10
2.189000
 20
2.578840
  0
VERTEX
  8
0
  6
CONTINUOUS
 10
2.174480
 20
2.534840
  0
VERTEX
  8
0
  6
CONTINUOUS
 10
1.432640
 20
2.541000
  0
VERTEX
  8
0
  6
CONTINUOUS
 10
1.447600
 20
2.585000
  0
SEQEND
  8
0
  0
SOLID
  8
0
 62
    15
 10
1.432640
 20
2.541000
 11
2.174480
 21
2.534840
 12
1.413280
 22
2.502720
 13
2.155120
 23
2.496120
  0
POLYLINE
  8
0
  6
CONTINUOUS
 66
     1
 40
0.000000
 41
0.000000
  0
VERTEX
  8
0
  6
CONTINUOUS
 10
1.432640
 20
2.541000
  0
VERTEX
  8
0
  6
CONTINUOUS
 10
2.174480
 20
2.534840
  0
VERTEX
  8
0
  6
CONTINUOUS
 10
2.155120
 20
2.496120
  0
VERTEX
  8
0
  6
CONTINUOUS
 10
1.413280
 20
2.502720
  0
VERTEX
  8
0
  6
CONTINUOUS
 10
1.432640
 20
2.541000
  0
SEQEND
  8
0
  0
SOLID
  8
0
 62
    15
 10
1.413280
 20
2.502720
 11
2.155120
 21
2.496120
 12
1.389520
 22
2.467960
 13
2.131360
 23
2.461800
  0
POLYLINE
  8
0
  6
CONTINUOUS
 66
     1
 40
0.000000
 41
0.000000
  0
VERTEX
  8
0
  6
CONTINUOUS
 10
1.413280
 20
2.502720
  0
VERTEX
  8
0
  6
CONTINUOUS
 10
2.155120
 20
2.496120
  0
VERTEX
  8
0
  6
CONTINUOUS
 10
2.131360
 20
2.461800
  0
VERTEX
  8
0
  6
CONTINUOUS
 10
1.389520
 20
2.467960
  0
VERTEX
  8
0
  6
CONTINUOUS
 10
1.413280
 20
2.502720
  0
SEQEND
  8
0
  0
SOLID
  8
0
 62
    15
 10
1.389520
 20
2.467960
 11
2.131360
 21
2.461800
 12
1.329240
 22
2.404160
 13
2.070640
 23
2.398000
  0
POLYLINE
  8
0
  6
CONTINUOUS
 66
     1
 40
0.000000
 41
0.000000
  0
VERTEX
  8
0
  6
CONTINUOUS
 10
1.389520
 20
2.467960
  0
VERTEX
  8
0
  6
CONTINUOUS
 10
2.131360
 20
2.461800
  0
VERTEX
  8
0
  6
CONTINUOUS
 10
2.070640
 20
2.398000
  0
VERTEX
  8
0
  6
CONTINUOUS
 10
1.329240
 20
2.404160
  0
VERTEX
  8
0
  6
CONTINUOUS
 10
1.389520
 20
2.467960
  0
SEQEND
  8
0
  0
SOLID
  8
0
 62
    15
 10
1.329240
 20
2.404160
 11
2.070640
 21
2.398000
 12
1.298880
 22
2.372480
 13
2.040720
 23
2.366320
  0
POLYLINE
  8
0
  6
CONTINUOUS
 66
     1
 40
0.000000
 41
0.000000
  0
VERTEX
  8
0
  6
CONTINUOUS
 10
1.329240
 20
2.404160
  0
VERTEX
  8
0
  6
CONTINUOUS
 10
2.070640
 20
2.398000
  0
VERTEX
  8
0
  6
CONTINUOUS
 10
2.040720
 20
2.366320
  0
VERTEX
  8
0
  6
CONTINUOUS
 10
1.298880
 20
2.372480
  0
VERTEX
  8
0
  6
CONTINUOUS
 10
1.329240
 20
2.404160
  0
SEQEND
  8
0
  0
SOLID
  8
0
 62
    15
 10
1.298880
 20
2.372480
 11
2.040720
 21
2.366320
 12
1.276000
 22
2.340360
 13
2.017400
 23
2.333760
  0
POLYLINE
  8
0
  6
CONTINUOUS
 66
     1
 40
0.000000
 41
0.000000
  0
VERTEX
  8
0
  6
CONTINUOUS
 10
1.298880
 20
2.372480
  0
VERTEX
  8
0
  6
CONTINUOUS
 10
2.040720
 20
2.366320
  0
VERTEX
  8
0
  6
CONTINUOUS
 10
2.017400
 20
2.333760
  0
VERTEX
  8
0
  6
CONTINUOUS
 10
1.276000
 20
2.340360
  0
VERTEX
  8
0
  6
CONTINUOUS
 10
1.298880
 20
2.372480
  0
SEQEND
  8
0
  0
SOLID
  8
0
 62
    15
 10
1.276000
 20
2.340360
 11
2.017400
 21
2.333760
 12
1.247400
 22
2.272600
 13
1.988800
 23
2.266000
  0
POLYLINE
  8
0
  6
CONTINUOUS
 66
     1
 40
0.000000
 41
0.000000
  0
VERTEX
  8
0
  6
CONTINUOUS
 10
1.276000
 20
2.340360
  0
VERTEX
  8
0
  6
CONTINUOUS
 10
2.017400
 20
2.333760
  0
VERTEX
  8
0
  6
CONTINUOUS
 10
1.988800
 20
2.266000
  0
VERTEX
  8
0
  6
CONTINUOUS
 10
1.247400
 20
2.272600
  0
VERTEX
  8
0
  6
CONTINUOUS
 10
1.276000
 20
2.340360
  0
SEQEND
  8
0
  0
SOLID
  8
0
 62
    15
 10
1.247400
 20
2.272600
 11
1.988800
 21
2.266000
 12
1.234640
 22
2.199560
 13
1.976040
 23
2.192960
  0
POLYLINE
  8
0
  6
CONTINUOUS
 66
     1
 40
0.000000
 41
0.000000
  0
VERTEX
  8
0
  6
CONTINUOUS
 10
1.247400
 20
2.272600
  0
VERTEX
  8
0
  6
CONTINUOUS
 10
1.988800
 20
2.266000
  0
VERTEX
  8
0
  6
CONTINUOUS
 10
1.976040
 20
2.192960
  0
VERTEX
  8
0
  6
CONTINUOUS
 10
1.234640
 20
2.199560
  0
VERTEX
  8
0
  6
CONTINUOUS
 10
1.247400
 20
2.272600
  0
SEQEND
  8
0
  0
SOLID
  8
0
 62
    15
 10
1.234640
 20
2.199560
 11
1.976040
 21
2.192960
 12
1.228920
 22
2.119480
 13
1.970760
 23
2.112880
  0
POLYLINE
  8
0
  6
CONTINUOUS
 66
     1
 40
0.000000
 41
0.000000
  0
VERTEX
  8
0
  6
CONTINUOUS
 10
1.234640
 20
2.199560
  0
VERTEX
  8
0
  6
CONTINUOUS
 10
1.976040
 20
2.192960
  0
VERTEX
  8
0
  6
CONTINUOUS
 10
1.970760
 20
2.112880
  0
VERTEX
  8
0
  6
CONTINUOUS
 10
1.228920
 20
2.119480
  0
VERTEX
  8
0
  6
CONTINUOUS
 10
1.234640
 20
2.199560
  0
SEQEND
  8
0
  0
SOLID
  8
0
 62
    15
 10
1.228920
 20
2.116840
 11
1.970760
 21
2.110240
 12
0.882200
 22
2.116840
 13
1.623600
 23
2.110240
  0
POLYLINE
  8
0
  6
CONTINUOUS
 66
     1
 40
0.000000
 41
0.000000
  0
VERTEX
  8
0
  6
CONTINUOUS
 10
1.228920
 20
2.116840
  0
VERTEX
  8
0
  6
CONTINUOUS
 10
1.970760
 20
2.110240
  0
VERTEX
  8
0
  6
CONTINUOUS
 10
1.623600
 20
2.110240
  0
VERTEX
  8
0
  6
CONTINUOUS
 10
0.882200
 20
2.116840
  0
VERTEX
  8
0
  6
CONTINUOUS
 10
1.228920
 20
2.116840
  0
SEQEND
  8
0
  0
SOLID
  8
0
 62
    15
 10
1.228920
 20
2.119480
 11
1.970760
 21
2.112880
 12
1.228920
 22
2.116840
 13
1.970760
 23
2.110240
  0
POLYLINE
  8
0
  6
CONTINUOUS
 66
     1
 40
0.000000
 41
0.000000
  0
VERTEX
  8
0
  6
CONTINUOUS
 10
1.228920
 20
2.119480
  0
VERTEX
  8
0
  6
CONTINUOUS
 10
1.970760
 20
2.112880
  0
VERTEX
  8
0
  6
CONTINUOUS
 10
1.970760
 20
2.110240
  0
VERTEX
  8
0
  6
CONTINUOUS
 10
1.228920
 20
2.116840
  0
VERTEX
  8
0
  6
CONTINUOUS
 10
1.228920
 20
2.119480
  0
SEQEND
  8
0
  0
SOLID
  8
0
 62
    15
 10
2.124760
 20
8.126800
 11
2.866600
 21
8.120200
 12
2.125640
 22
7.111720
 13
2.867040
 23
7.105120
  0
POLYLINE
  8
0
  6
CONTINUOUS
 66
     1
 40
0.000000
 41
0.000000
  0
VERTEX
  8
0
  6
CONTINUOUS
 10
2.124760
 20
8.126800
  0
VERTEX
  8
0
  6
CONTINUOUS
 10
2.866600
 20
8.120200
  0
VERTEX
  8
0
  6
CONTINUOUS
 10
2.867040
 20
7.105120
  0
VERTEX
  8
0
  6
CONTINUOUS
 10
2.125640
 20
7.111720
  0
VERTEX
  8
0
  6
CONTINUOUS
 10
2.124760
 20
8.126800
  0
SEQEND
  8
0
  0
POLYLINE
  8
0
  6
CONTINUOUS
 66
     1
 40
0.000000
 41
0.000000
  0
VERTEX
  8
0
  6
CONTINUOUS
 10
2.124760
 20
8.126800
  0
VERTEX
  8
0
  6
CONTINUOUS
 10
2.125640
 20
7.111720
  0
VERTEX
  8
0
  6
CONTINUOUS
 10
1.973840
 20
7.106000
  0
VERTEX
  8
0
  6
CONTINUOUS
 10
1.987480
 20
6.892600
  0
VERTEX
  8
0
  6
CONTINUOUS
 10
1.994960
 20
6.694600
  0
VERTEX
  8
0
  6
CONTINUOUS
 10
1.997600
 20
6.509800
  0
VERTEX
  8
0
  6
CONTINUOUS
 10
1.995400
 20
6.335120
  0
VERTEX
  8
0
  6
CONTINUOUS
 10
1.989240
 20
6.169680
  0
VERTEX
  8
0
  6
CONTINUOUS
 10
1.979560
 20
6.010400
  0
VERTEX
  8
0
  6
CONTINUOUS
 10
1.951400
 20
5.702400
  0
VERTEX
  8
0
  6
CONTINUOUS
 10
1.933360
 20
5.582720
  0
VERTEX
  8
0
  6
CONTINUOUS
 10
1.906960
 20
5.464360
  0
VERTEX
  8
0
  6
CONTINUOUS
 10
1.838760
 20
5.230280
  0
VERTEX
  8
0
  6
CONTINUOUS
 10
1.820720
 20
5.172640
  0
VERTEX
  8
0
  6
CONTINUOUS
 10
1.802680
 20
5.115000
  0
VERTEX
  8
0
  6
CONTINUOUS
 10
1.768800
 20
5.000160
  0
VERTEX
  8
0
  6
CONTINUOUS
 10
1.739320
 20
4.886200
  0
VERTEX
  8
0
  6
CONTINUOUS
 10
1.717320
 20
4.772680
  0
VERTEX
  8
0
  6
CONTINUOUS
 10
1.683880
 20
4.519240
  0
VERTEX
  8
0
  6
CONTINUOUS
 10
1.660120
 20
4.270200
  0
VERTEX
  8
0
  6
CONTINUOUS
 10
1.643840
 20
4.023800
  0
VERTEX
  8
0
  6
CONTINUOUS
 10
1.633720
 20
3.779160
  0
VERTEX
  8
0
  6
CONTINUOUS
 10
1.624920
 20
3.286360
  0
VERTEX
  8
0
  6
CONTINUOUS
 10
1.619640
 20
2.777280
  0
VERTEX
  8
0
  6
CONTINUOUS
 10
1.460800
 20
2.764520
  0
VERTEX
  8
0
  6
CONTINUOUS
 10
1.461680
 20
2.695440
  0
VERTEX
  8
0
  6
CONTINUOUS
 10
1.457280
 20
2.636040
  0
VERTEX
  8
0
  6
CONTINUOUS
 10
1.447600
 20
2.585000
  0
VERTEX
  8
0
  6
CONTINUOUS
 10
1.432640
 20
2.541000
  0
VERTEX
  8
0
  6
CONTINUOUS
 10
1.413280
 20
2.502720
  0
VERTEX
  8
0
  6
CONTINUOUS
 10
1.389520
 20
2.467960
  0
VERTEX
  8
0
  6
CONTINUOUS
 10
1.329240
 20
2.404160
  0
VERTEX
  8
0
  6
CONTINUOUS
 10
1.298880
 20
2.372480
  0
VERTEX
  8
0
  6
CONTINUOUS
 10
1.276000
 20
2.340360
  0
VERTEX
  8
0
  6
CONTINUOUS
 10
1.247400
 20
2.272600
  0
VERTEX
  8
0
  6
CONTINUOUS
 10
1.234640
 20
2.199560
  0
VERTEX
  8
0
  6
CONTINUOUS
 10
1.228920
 20
2.119480
  0
VERTEX
  8
0
  6
CONTINUOUS
 10
1.228920
 20
2.116840
  0
VERTEX
  8
0
  6
CONTINUOUS
 10
0.882200
 20
2.116840
  0
VERTEX
  8
0
  6
CONTINUOUS
 10
0.882200
 20
8.128120
  0
VERTEX
  8
0
  6
CONTINUOUS
 10
2.122120
 20
8.128120
  0
VERTEX
  8
0
  6
CONTINUOUS
 10
2.124760
 20
8.126800
  0
SEQEND
  8
0
  0
SOLID
  8
0
 62
    15
 10
3.373040
 20
8.875680
 11
4.116200
 21
8.882280
 12
3.366440
 22
8.747640
 13
4.109600
 23
8.754240
  0
POLYLINE
  8
0
  6
CONTINUOUS
 66
     1
 40
0.000000
 41
0.000000
  0
VERTEX
  8
0
  6
CONTINUOUS
 10
3.373040
 20
8.875680
  0
VERTEX
  8
0
  6
CONTINUOUS
 10
4.116200
 20
8.882280
  0
VERTEX
  8
0
  6
CONTINUOUS
 10
4.109600
 20
8.754240
  0
VERTEX
  8
0
  6
CONTINUOUS
 10
3.366440
 20
8.747640
  0
VERTEX
  8
0
  6
CONTINUOUS
 10
3.373040
 20
8.875680
  0
SEQEND
  8
0
  0
SOLID
  8
0
 62
    15
 10
2.121240
 20
10.127040
 11
2.864400
 21
10.134080
 12
2.249280
 22
10.120880
 13
2.992440
 23
10.127480
  0
POLYLINE
  8
0
  6
CONTINUOUS
 66
     1
 40
0.000000
 41
0.000000
  0
VERTEX
  8
0
  6
CONTINUOUS
 10
2.121240
 20
10.127040
  0
VERTEX
  8
0
  6
CONTINUOUS
 10
2.864400
 20
10.134080
  0
VERTEX
  8
0
  6
CONTINUOUS
 10
2.992440
 20
10.127480
  0
VERTEX
  8
0
  6
CONTINUOUS
 10
2.249280
 20
10.120880
  0
VERTEX
  8
0
  6
CONTINUOUS
 10
2.121240
 20
10.127040
  0
SEQEND
  8
0
  0
SOLID
  8
0
 62
    15
 10
2.373800
 20
10.101960
 11
3.116520
 21
10.108560
 12
2.493480
 22
10.071160
 13
3.236640
 23
10.077760
  0
POLYLINE
  8
0
  6
CONTINUOUS
 66
     1
 40
0.000000
 41
0.000000
  0
VERTEX
  8
0
  6
CONTINUOUS
 10
2.373800
 20
10.101960
  0
VERTEX
  8
0
  6
CONTINUOUS
 10
3.116520
 20
10.108560
  0
VERTEX
  8
0
  6
CONTINUOUS
 10
3.236640
 20
10.077760
  0
VERTEX
  8
0
  6
CONTINUOUS
 10
2.493480
 20
10.071160
  0
VERTEX
  8
0
  6
CONTINUOUS
 10
2.373800
 20
10.101960
  0
SEQEND
  8
0
  0
SOLID
  8
0
 62
    15
 10
2.493480
 20
10.071160
 11
3.236640
 21
10.077760
 12
2.608760
 22
10.028920
 13
3.351480
 23
10.035520
  0
POLYLINE
  8
0
  6
CONTINUOUS
 66
     1
 40
0.000000
 41
0.000000
  0
VERTEX
  8
0
  6
CONTINUOUS
 10
2.493480
 20
10.071160
  0
VERTEX
  8
0
  6
CONTINUOUS
 10
3.236640
 20
10.077760
  0
VERTEX
  8
0
  6
CONTINUOUS
 10
3.351480
 20
10.035520
  0
VERTEX
  8
0
  6
CONTINUOUS
 10
2.608760
 20
10.028920
  0
VERTEX
  8
0
  6
CONTINUOUS
 10
2.493480
 20
10.071160
  0
SEQEND
  8
0
  0
SOLID
  8
0
 62
    15
 10
2.608760
 20
10.028920
 11
3.351480
 21
10.035520
 12
2.717880
 22
9.976120
 13
3.461040
 23
9.982720
  0
POLYLINE
  8
0
  6
CONTINUOUS
 66
     1
 40
0.000000
 41
0.000000
  0
VERTEX
  8
0
  6
CONTINUOUS
 10
2.608760
 20
10.028920
  0
VERTEX
  8
0
  6
CONTINUOUS
 10
3.351480
 20
10.035520
  0
VERTEX
  8
0
  6
CONTINUOUS
 10
3.461040
 20
9.982720
  0
VERTEX
  8
0
  6
CONTINUOUS
 10
2.717880
 20
9.976120
  0
VERTEX
  8
0
  6
CONTINUOUS
 10
2.608760
 20
10.028920
  0
SEQEND
  8
0
  0
SOLID
  8
0
 62
    15
 10
2.717880
 20
9.976120
 11
3.461040
 21
9.982720
 12
2.821280
 22
9.913640
 13
3.564000
 23
9.920240
  0
POLYLINE
  8
0
  6
CONTINUOUS
 66
     1
 40
0.000000
 41
0.000000
  0
VERTEX
  8
0
  6
CONTINUOUS
 10
2.717880
 20
9.976120
  0
VERTEX
  8
0
  6
CONTINUOUS
 10
3.461040
 20
9.982720
  0
VERTEX
  8
0
  6
CONTINUOUS
 10
3.564000
 20
9.920240
  0
VERTEX
  8
0
  6
CONTINUOUS
 10
2.821280
 20
9.913640
  0
VERTEX
  8
0
  6
CONTINUOUS
 10
2.717880
 20
9.976120
  0
SEQEND
  8
0
  0
SOLID
  8
0
 62
    15
 10
2.821280
 20
9.913640
 11
3.564000
 21
9.920240
 12
2.917640
 22
9.841480
 13
3.660360
 23
9.848080
  0
POLYLINE
  8
0
  6
CONTINUOUS
 66
     1
 40
0.000000
 41
0.000000
  0
VERTEX
  8
0
  6
CONTINUOUS
 10
2.821280
 20
9.913640
  0
VERTEX
  8
0
  6
CONTINUOUS
 10
3.564000
 20
9.920240
  0
VERTEX
  8
0
  6
CONTINUOUS
 10
3.660360
 20
9.848080
  0
VERTEX
  8
0
  6
CONTINUOUS
 10
2.917640
 20
9.841480
  0
VERTEX
  8
0
  6
CONTINUOUS
 10
2.821280
 20
9.913640
  0
SEQEND
  8
0
  0
SOLID
  8
0
 62
    15
 10
2.917640
 20
9.841480
 11
3.660360
 21
9.848080
 12
3.006520
 22
9.760520
 13
3.749240
 23
9.767120
  0
POLYLINE
  8
0
  6
CONTINUOUS
 66
     1
 40
0.000000
 41
0.000000
  0
VERTEX
  8
0
  6
CONTINUOUS
 10
2.917640
 20
9.841480
  0
VERTEX
  8
0
  6
CONTINUOUS
 10
3.660360
 20
9.848080
  0
VERTEX
  8
0
  6
CONTINUOUS
 10
3.749240
 20
9.767120
  0
VERTEX
  8
0
  6
CONTINUOUS
 10
3.006520
 20
9.760520
  0
VERTEX
  8
0
  6
CONTINUOUS
 10
2.917640
 20
9.841480
  0
SEQEND
  8
0
  0
SOLID
  8
0
 62
    15
 10
3.006520
 20
9.760520
 11
3.749240
 21
9.767120
 12
3.087040
 22
9.671640
 13
3.830200
 23
9.678240
  0
POLYLINE
  8
0
  6
CONTINUOUS
 66
     1
 40
0.000000
 41
0.000000
  0
VERTEX
  8
0
  6
CONTINUOUS
 10
3.006520
 20
9.760520
  0
VERTEX
  8
0
  6
CONTINUOUS
 10
3.749240
 20
9.767120
  0
VERTEX
  8
0
  6
CONTINUOUS
 10
3.830200
 20
9.678240
  0
VERTEX
  8
0
  6
CONTINUOUS
 10
3.087040
 20
9.671640
  0
VERTEX
  8
0
  6
CONTINUOUS
 10
3.006520
 20
9.760520
  0
SEQEND
  8
0
  0
SOLID
  8
0
 62
    15
 10
3.087040
 20
9.671640
 11
3.830200
 21
9.678240
 12
3.159200
 22
9.575280
 13
3.902360
 23
9.582320
  0
POLYLINE
  8
0
  6
CONTINUOUS
 66
     1
 40
0.000000
 41
0.000000
  0
VERTEX
  8
0
  6
CONTINUOUS
 10
3.087040
 20
9.671640
  0
VERTEX
  8
0
  6
CONTINUOUS
 10
3.830200
 20
9.678240
  0
VERTEX
  8
0
  6
CONTINUOUS
 10
3.902360
 20
9.582320
  0
VERTEX
  8
0
  6
CONTINUOUS
 10
3.159200
 20
9.575280
  0
VERTEX
  8
0
  6
CONTINUOUS
 10
3.087040
 20
9.671640
  0
SEQEND
  8
0
  0
SOLID
  8
0
 62
    15
 10
3.159200
 20
9.575280
 11
3.902360
 21
9.582320
 12
3.221680
 22
9.472320
 13
3.964840
 23
9.478920
  0
POLYLINE
  8
0
  6
CONTINUOUS
 66
     1
 40
0.000000
 41
0.000000
  0
VERTEX
  8
0
  6
CONTINUOUS
 10
3.159200
 20
9.575280
  0
VERTEX
  8
0
  6
CONTINUOUS
 10
3.902360
 20
9.582320
  0
VERTEX
  8
0
  6
CONTINUOUS
 10
3.964840
 20
9.478920
  0
VERTEX
  8
0
  6
CONTINUOUS
 10
3.221680
 20
9.472320
  0
VERTEX
  8
0
  6
CONTINUOUS
 10
3.159200
 20
9.575280
  0
SEQEND
  8
0
  0
SOLID
  8
0
 62
    15
 10
3.221680
 20
9.472320
 11
3.964840
 21
9.478920
 12
3.274480
 22
9.362760
 13
4.017640
 23
9.369360
  0
POLYLINE
  8
0
  6
CONTINUOUS
 66
     1
 40
0.000000
 41
0.000000
  0
VERTEX
  8
0
  6
CONTINUOUS
 10
3.221680
 20
9.472320
  0
VERTEX
  8
0
  6
CONTINUOUS
 10
3.964840
 20
9.478920
  0
VERTEX
  8
0
  6
CONTINUOUS
 10
4.017640
 20
9.369360
  0
VERTEX
  8
0
  6
CONTINUOUS
 10
3.274480
 20
9.362760
  0
VERTEX
  8
0
  6
CONTINUOUS
 10
3.221680
 20
9.472320
  0
SEQEND
  8
0
  0
SOLID
  8
0
 62
    15
 10
3.274480
 20
9.362760
 11
4.017640
 21
9.369360
 12
3.316720
 22
9.247920
 13
4.059880
 23
9.254520
  0
POLYLINE
  8
0
  6
CONTINUOUS
 66
     1
 40
0.000000
 41
0.000000
  0
VERTEX
  8
0
  6
CONTINUOUS
 10
3.274480
 20
9.362760
  0
VERTEX
  8
0
  6
CONTINUOUS
 10
4.017640
 20
9.369360
  0
VERTEX
  8
0
  6
CONTINUOUS
 10
4.059880
 20
9.254520
  0
VERTEX
  8
0
  6
CONTINUOUS
 10
3.316720
 20
9.247920
  0
VERTEX
  8
0
  6
CONTINUOUS
 10
3.274480
 20
9.362760
  0
SEQEND
  8
0
  0
SOLID
  8
0
 62
    15
 10
3.316720
 20
9.247920
 11
4.059880
 21
9.254520
 12
3.347520
 22
9.127800
 13
4.090680
 23
9.134400
  0
POLYLINE
  8
0
  6
CONTINUOUS
 66
     1
 40
0.000000
 41
0.000000
  0
VERTEX
  8
0
  6
CONTINUOUS
 10
3.316720
 20
9.247920
  0
VERTEX
  8
0
  6
CONTINUOUS
 10
4.059880
 20
9.254520
  0
VERTEX
  8
0
  6
CONTINUOUS
 10
4.090680
 20
9.134400
  0
VERTEX
  8
0
  6
CONTINUOUS
 10
3.347520
 20
9.127800
  0
VERTEX
  8
0
  6
CONTINUOUS
 10
3.316720
 20
9.247920
  0
SEQEND
  8
0
  0
SOLID
  8
0
 62
    15
 10
3.347520
 20
9.127800
 11
4.090680
 21
9.134400
 12
3.366440
 22
9.003720
 13
4.109600
 23
9.010320
  0
POLYLINE
  8
0
  6
CONTINUOUS
 66
     1
 40
0.000000
 41
0.000000
  0
VERTEX
  8
0
  6
CONTINUOUS
 10
3.347520
 20
9.127800
  0
VERTEX
  8
0
  6
CONTINUOUS
 10
4.090680
 20
9.134400
  0
VERTEX
  8
0
  6
CONTINUOUS
 10
4.109600
 20
9.010320
  0
VERTEX
  8
0
  6
CONTINUOUS
 10
3.366440
 20
9.003720
  0
VERTEX
  8
0
  6
CONTINUOUS
 10
3.347520
 20
9.127800
  0
SEQEND
  8
0
  0
SOLID
  8
0
 62
    15
 10
3.366440
 20
9.003720
 11
4.109600
 21
9.010320
 12
3.373040
 22
8.875680
 13
4.116200
 23
8.882280
  0
POLYLINE
  8
0
  6
CONTINUOUS
 66
     1
 40
0.000000
 41
0.000000
  0
VERTEX
  8
0
  6
CONTINUOUS
 10
3.366440
 20
9.003720
  0
VERTEX
  8
0
  6
CONTINUOUS
 10
4.109600
 20
9.010320
  0
VERTEX
  8
0
  6
CONTINUOUS
 10
4.116200
 20
8.882280
  0
VERTEX
  8
0
  6
CONTINUOUS
 10
3.373040
 20
8.875680
  0
VERTEX
  8
0
  6
CONTINUOUS
 10
3.366440
 20
9.003720
  0
SEQEND
  8
0
  0
SOLID
  8
0
 62
    15
 10
2.249280
 20
10.120880
 11
2.992440
 21
10.127480
 12
2.373800
 22
10.101960
 13
3.116520
 23
10.108560
  0
POLYLINE
  8
0
  6
CONTINUOUS
 66
     1
 40
0.000000
 41
0.000000
  0
VERTEX
  8
0
  6
CONTINUOUS
 10
2.249280
 20
10.120880
  0
VERTEX
  8
0
  6
CONTINUOUS
 10
2.992440
 20
10.127480
  0
VERTEX
  8
0
  6
CONTINUOUS
 10
3.116520
 20
10.108560
  0
VERTEX
  8
0
  6
CONTINUOUS
 10
2.373800
 20
10.101960
  0
VERTEX
  8
0
  6
CONTINUOUS
 10
2.249280
 20
10.120880
  0
SEQEND
  8
0
  0
SOLID
  8
0
 62
    15
 10
3.366440
 20
8.747640
 11
4.109600
 21
8.754240
 12
3.347520
 22
8.623560
 13
4.090680
 23
8.630160
  0
POLYLINE
  8
0
  6
CONTINUOUS
 66
     1
 40
0.000000
 41
0.000000
  0
VERTEX
  8
0
  6
CONTINUOUS
 10
3.366440
 20
8.747640
  0
VERTEX
  8
0
  6
CONTINUOUS
 10
4.109600
 20
8.754240
  0
VERTEX
  8
0
  6
CONTINUOUS
 10
4.090680
 20
8.630160
  0
VERTEX
  8
0
  6
CONTINUOUS
 10
3.347520
 20
8.623560
  0
VERTEX
  8
0
  6
CONTINUOUS
 10
3.366440
 20
8.747640
  0
SEQEND
  8
0
  0
SOLID
  8
0
 62
    15
 10
3.347520
 20
8.623560
 11
4.090680
 21
8.630160
 12
3.316720
 22
8.503440
 13
4.059880
 23
8.510040
  0
POLYLINE
  8
0
  6
CONTINUOUS
 66
     1
 40
0.000000
 41
0.000000
  0
VERTEX
  8
0
  6
CONTINUOUS
 10
3.347520
 20
8.623560
  0
VERTEX
  8
0
  6
CONTINUOUS
 10
4.090680
 20
8.630160
  0
VERTEX
  8
0
  6
CONTINUOUS
 10
4.059880
 20
8.510040
  0
VERTEX
  8
0
  6
CONTINUOUS
 10
3.316720
 20
8.503440
  0
VERTEX
  8
0
  6
CONTINUOUS
 10
3.347520
 20
8.623560
  0
SEQEND
  8
0
  0
SOLID
  8
0
 62
    15
 10
3.316720
 20
8.503440
 11
4.059880
 21
8.510040
 12
3.274480
 22
8.388600
 13
4.017640
 23
8.395200
  0
POLYLINE
  8
0
  6
CONTINUOUS
 66
     1
 40
0.000000
 41
0.000000
  0
VERTEX
  8
0
  6
CONTINUOUS
 10
3.316720
 20
8.503440
  0
VERTEX
  8
0
  6
CONTINUOUS
 10
4.059880
 20
8.510040
  0
VERTEX
  8
0
  6
CONTINUOUS
 10
4.017640
 20
8.395200
  0
VERTEX
  8
0
  6
CONTINUOUS
 10
3.274480
 20
8.388600
  0
VERTEX
  8
0
  6
CONTINUOUS
 10
3.316720
 20
8.503440
  0
SEQEND
  8
0
  0
SOLID
  8
0
 62
    15
 10
3.274480
 20
8.388600
 11
4.017640
 21
8.395200
 12
3.221680
 22
8.279040
 13
3.964840
 23
8.285640
  0
POLYLINE
  8
0
  6
CONTINUOUS
 66
     1
 40
0.000000
 41
0.000000
  0
VERTEX
  8
0
  6
CONTINUOUS
 10
3.274480
 20
8.388600
  0
VERTEX
  8
0
  6
CONTINUOUS
 10
4.017640
 20
8.395200
  0
VERTEX
  8
0
  6
CONTINUOUS
 10
3.964840
 20
8.285640
  0
VERTEX
  8
0
  6
CONTINUOUS
 10
3.221680
 20
8.279040
  0
VERTEX
  8
0
  6
CONTINUOUS
 10
3.274480
 20
8.388600
  0
SEQEND
  8
0
  0
SOLID
  8
0
 62
    15
 10
3.221680
 20
8.279040
 11
3.964840
 21
8.285640
 12
3.159200
 22
8.176080
 13
3.902360
 23
8.182680
  0
POLYLINE
  8
0
  6
CONTINUOUS
 66
     1
 40
0.000000
 41
0.000000
  0
VERTEX
  8
0
  6
CONTINUOUS
 10
3.221680
 20
8.279040
  0
VERTEX
  8
0
  6
CONTINUOUS
 10
3.964840
 20
8.285640
  0
VERTEX
  8
0
  6
CONTINUOUS
 10
3.902360
 20
8.182680
  0
VERTEX
  8
0
  6
CONTINUOUS
 10
3.159200
 20
8.176080
  0
VERTEX
  8
0
  6
CONTINUOUS
 10
3.221680
 20
8.279040
  0
SEQEND
  8
0
  0
SOLID
  8
0
 62
    15
 10
3.159200
 20
8.176080
 11
3.902360
 21
8.182680
 12
3.087040
 22
8.079720
 13
3.830200
 23
8.086320
  0
POLYLINE
  8
0
  6
CONTINUOUS
 66
     1
 40
0.000000
 41
0.000000
  0
VERTEX
  8
0
  6
CONTINUOUS
 10
3.159200
 20
8.176080
  0
VERTEX
  8
0
  6
CONTINUOUS
 10
3.902360
 20
8.182680
  0
VERTEX
  8
0
  6
CONTINUOUS
 10
3.830200
 20
8.086320
  0
VERTEX
  8
0
  6
CONTINUOUS
 10
3.087040
 20
8.079720
  0
VERTEX
  8
0
  6
CONTINUOUS
 10
3.159200
 20
8.176080
  0
SEQEND
  8
0
  0
SOLID
  8
0
 62
    15
 10
3.087040
 20
8.079720
 11
3.830200
 21
8.086320
 12
3.006520
 22
7.990840
 13
3.749240
 23
7.997440
  0
POLYLINE
  8
0
  6
CONTINUOUS
 66
     1
 40
0.000000
 41
0.000000
  0
VERTEX
  8
0
  6
CONTINUOUS
 10
3.087040
 20
8.079720
  0
VERTEX
  8
0
  6
CONTINUOUS
 10
3.830200
 20
8.086320
  0
VERTEX
  8
0
  6
CONTINUOUS
 10
3.749240
 20
7.997440
  0
VERTEX
  8
0
  6
CONTINUOUS
 10
3.006520
 20
7.990840
  0
VERTEX
  8
0
  6
CONTINUOUS
 10
3.087040
 20
8.079720
  0
SEQEND
  8
0
  0
SOLID
  8
0
 62
    15
 10
3.006520
 20
7.990840
 11
3.749240
 21
7.997440
 12
2.917640
 22
7.909880
 13
3.660360
 23
7.916480
  0
POLYLINE
  8
0
  6
CONTINUOUS
 66
     1
 40
0.000000
 41
0.000000
  0
VERTEX
  8
0
  6
CONTINUOUS
 10
3.006520
 20
7.990840
  0
VERTEX
  8
0
  6
CONTINUOUS
 10
3.749240
 20
7.997440
  0
VERTEX
  8
0
  6
CONTINUOUS
 10
3.660360
 20
7.916480
  0
VERTEX
  8
0
  6
CONTINUOUS
 10
2.917640
 20
7.909880
  0
VERTEX
  8
0
  6
CONTINUOUS
 10
3.006520
 20
7.990840
  0
SEQEND
  8
0
  0
SOLID
  8
0
 62
    15
 10
2.917640
 20
7.909880
 11
3.660360
 21
7.916480
 12
2.821280
 22
7.837720
 13
3.564000
 23
7.844760
  0
POLYLINE
  8
0
  6
CONTINUOUS
 66
     1
 40
0.000000
 41
0.000000
  0
VERTEX
  8
0
  6
CONTINUOUS
 10
2.917640
 20
7.909880
  0
VERTEX
  8
0
  6
CONTINUOUS
 10
3.660360
 20
7.916480
  0
VERTEX
  8
0
  6
CONTINUOUS
 10
3.564000
 20
7.844760
  0
VERTEX
  8
0
  6
CONTINUOUS
 10
2.821280
 20
7.837720
  0
VERTEX
  8
0
  6
CONTINUOUS
 10
2.917640
 20
7.909880
  0
SEQEND
  8
0
  0
SOLID
  8
0
 62
    15
 10
2.821280
 20
7.837720
 11
3.564000
 21
7.844760
 12
2.717880
 22
7.775240
 13
3.461040
 23
7.781840
  0
POLYLINE
  8
0
  6
CONTINUOUS
 66
     1
 40
0.000000
 41
0.000000
  0
VERTEX
  8
0
  6
CONTINUOUS
 10
2.821280
 20
7.837720
  0
VERTEX
  8
0
  6
CONTINUOUS
 10
3.564000
 20
7.844760
  0
VERTEX
  8
0
  6
CONTINUOUS
 10
3.461040
 20
7.781840
  0
VERTEX
  8
0
  6
CONTINUOUS
 10
2.717880
 20
7.775240
  0
VERTEX
  8
0
  6
CONTINUOUS
 10
2.821280
 20
7.837720
  0
SEQEND
  8
0
  0
SOLID
  8
0
 62
    15
 10
2.717880
 20
7.775240
 11
3.461040
 21
7.781840
 12
2.608760
 22
7.722440
 13
3.351480
 23
7.729040
  0
POLYLINE
  8
0
  6
CONTINUOUS
 66
     1
 40
0.000000
 41
0.000000
  0
VERTEX
  8
0
  6
CONTINUOUS
 10
2.717880
 20
7.775240
  0
VERTEX
  8
0
  6
CONTINUOUS
 10
3.461040
 20
7.781840
  0
VERTEX
  8
0
  6
CONTINUOUS
 10
3.351480
 20
7.729040
  0
VERTEX
  8
0
  6
CONTINUOUS
 10
2.608760
 20
7.722440
  0
VERTEX
  8
0
  6
CONTINUOUS
 10
2.717880
 20
7.775240
  0
SEQEND
  8
0
  0
SOLID
  8
0
 62
    15
 10
2.608760
 20
7.722440
 11
3.351480
 21
7.729040
 12
2.493480
 22
7.680200
 13
3.236640
 23
7.687240
  0
POLYLINE
  8
0
  6
CONTINUOUS
 66
     1
 40
0.000000
 41
0.000000
  0
VERTEX
  8
0
  6
CONTINUOUS
 10
2.608760
 20
7.722440
  0
VERTEX
  8
0
  6
CONTINUOUS
 10
3.351480
 20
7.729040
  0
VERTEX
  8
0
  6
CONTINUOUS
 10
3.236640
 20
7.687240
  0
VERTEX
  8
0
  6
CONTINUOUS
 10
2.493480
 20
7.680200
  0
VERTEX
  8
0
  6
CONTINUOUS
 10
2.608760
 20
7.722440
  0
SEQEND
  8
0
  0
SOLID
  8
0
 62
    15
 10
2.493480
 20
7.680200
 11
3.236640
 21
7.687240
 12
2.373800
 22
7.649400
 13
3.116520
 23
7.656000
  0
POLYLINE
  8
0
  6
CONTINUOUS
 66
     1
 40
0.000000
 41
0.000000
  0
VERTEX
  8
0
  6
CONTINUOUS
 10
2.493480
 20
7.680200
  0
VERTEX
  8
0
  6
CONTINUOUS
 10
3.236640
 20
7.687240
  0
VERTEX
  8
0
  6
CONTINUOUS
 10
3.116520
 20
7.656000
  0
VERTEX
  8
0
  6
CONTINUOUS
 10
2.373800
 20
7.649400
  0
VERTEX
  8
0
  6
CONTINUOUS
 10
2.493480
 20
7.680200
  0
SEQEND
  8
0
  0
SOLID
  8
0
 62
    15
 10
2.249280
 20
7.630480
 11
2.992440
 21
7.637080
 12
2.121240
 22
7.623880
 13
2.864400
 23
7.630920
  0
POLYLINE
  8
0
  6
CONTINUOUS
 66
     1
 40
0.000000
 41
0.000000
  0
VERTEX
  8
0
  6
CONTINUOUS
 10
2.249280
 20
7.630480
  0
VERTEX
  8
0
  6
CONTINUOUS
 10
2.992440
 20
7.637080
  0
VERTEX
  8
0
  6
CONTINUOUS
 10
2.864400
 20
7.630920
  0
VERTEX
  8
0
  6
CONTINUOUS
 10
2.121240
 20
7.623880
  0
VERTEX
  8
0
  6
CONTINUOUS
 10
2.249280
 20
7.630480
  0
SEQEND
  8
0
  0
SOLID
  8
0
 62
    15
 10
2.373800
 20
7.649400
 11
3.116520
 21
7.656000
 12
2.249280
 22
7.630480
 13
2.992440
 23
7.637080
  0
POLYLINE
  8
0
  6
CONTINUOUS
 66
     1
 40
0.000000
 41
0.000000
  0
VERTEX
  8
0
  6
CONTINUOUS
 10
2.373800
 20
7.649400
  0
VERTEX
  8
0
  6
CONTINUOUS
 10
3.116520
 20
7.656000
  0
VERTEX
  8
0
  6
CONTINUOUS
 10
2.992440
 20
7.637080
  0
VERTEX
  8
0
  6
CONTINUOUS
 10
2.249280
 20
7.630480
  0
VERTEX
  8
0
  6
CONTINUOUS
 10
2.373800
 20
7.649400
  0
SEQEND
  8
0
  0
SOLID
  8
0
 62
    15
 10
1.631080
 20
9.629400
 11
2.374240
 21
9.636440
 12
2.126080
 22
9.629400
 13
2.868800
 23
9.636440
  0
POLYLINE
  8
0
  6
CONTINUOUS
 66
     1
 40
0.000000
 41
0.000000
  0
VERTEX
  8
0
  6
CONTINUOUS
 10
1.631080
 20
9.629400
  0
VERTEX
  8
0
  6
CONTINUOUS
 10
2.374240
 20
9.636440
  0
VERTEX
  8
0
  6
CONTINUOUS
 10
2.868800
 20
9.636440
  0
VERTEX
  8
0
  6
CONTINUOUS
 10
2.126080
 20
9.629400
  0
VERTEX
  8
0
  6
CONTINUOUS
 10
1.631080
 20
9.629400
  0
SEQEND
  8
0
  0
POLYLINE
  8
0
  6
CONTINUOUS
 66
     1
 40
0.000000
 41
0.000000
  0
VERTEX
  8
0
  6
CONTINUOUS
 10
2.121240
 20
10.127040
  0
VERTEX
  8
0
  6
CONTINUOUS
 10
2.249280
 20
10.120880
  0
VERTEX
  8
0
  6
CONTINUOUS
 10
2.373800
 20
10.101960
  0
VERTEX
  8
0
  6
CONTINUOUS
 10
2.493480
 20
10.071160
  0
VERTEX
  8
0
  6
CONTINUOUS
 10
2.608760
 20
10.028920
  0
VERTEX
  8
0
  6
CONTINUOUS
 10
2.717880
 20
9.976120
  0
VERTEX
  8
0
  6
CONTINUOUS
 10
2.821280
 20
9.913640
  0
VERTEX
  8
0
  6
CONTINUOUS
 10
2.917640
 20
9.841480
  0
VERTEX
  8
0
  6
CONTINUOUS
 10
3.006520
 20
9.760520
  0
VERTEX
  8
0
  6
CONTINUOUS
 10
3.087040
 20
9.671640
  0
VERTEX
  8
0
  6
CONTINUOUS
 10
3.159200
 20
9.575280
  0
VERTEX
  8
0
  6
CONTINUOUS
 10
3.221680
 20
9.472320
  0
VERTEX
  8
0
  6
CONTINUOUS
 10
3.274480
 20
9.362760
  0
VERTEX
  8
0
  6
CONTINUOUS
 10
3.316720
 20
9.247920
  0
VERTEX
  8
0
  6
CONTINUOUS
 10
3.347520
 20
9.127800
  0
VERTEX
  8
0
  6
CONTINUOUS
 10
3.366440
 20
9.003720
  0
VERTEX
  8
0
  6
CONTINUOUS
 10
3.373040
 20
8.875680
  0
VERTEX
  8
0
  6
CONTINUOUS
 10
3.366440
 20
8.747640
  0
VERTEX
  8
0
  6
CONTINUOUS
 10
3.347520
 20
8.623560
  0
VERTEX
  8
0
  6
CONTINUOUS
 10
3.316720
 20
8.503440
  0
VERTEX
  8
0
  6
CONTINUOUS
 10
3.274480
 20
8.388600
  0
VERTEX
  8
0
  6
CONTINUOUS
 10
3.221680
 20
8.279040
  0
VERTEX
  8
0
  6
CONTINUOUS
 10
3.159200
 20
8.176080
  0
VERTEX
  8
0
  6
CONTINUOUS
 10
3.087040
 20
8.079720
  0
VERTEX
  8
0
  6
CONTINUOUS
 10
3.006520
 20
7.990840
  0
VERTEX
  8
0
  6
CONTINUOUS
 10
2.917640
 20
7.909880
  0
VERTEX
  8
0
  6
CONTINUOUS
 10
2.821280
 20
7.837720
  0
VERTEX
  8
0
  6
CONTINUOUS
 10
2.717880
 20
7.775240
  0
VERTEX
  8
0
  6
CONTINUOUS
 10
2.608760
 20
7.722440
  0
VERTEX
  8
0
  6
CONTINUOUS
 10
2.493480
 20
7.680200
  0
VERTEX
  8
0
  6
CONTINUOUS
 10
2.373800
 20
7.649400
  0
VERTEX
  8
0
  6
CONTINUOUS
 10
2.249280
 20
7.630480
  0
VERTEX
  8
0
  6
CONTINUOUS
 10
2.121240
 20
7.623880
  0
VERTEX
  8
0
  6
CONTINUOUS
 10
2.121240
 20
8.127240
  0
VERTEX
  8
0
  6
CONTINUOUS
 10
1.631080
 20
8.127240
  0
VERTEX
  8
0
  6
CONTINUOUS
 10
1.631080
 20
9.629400
  0
VERTEX
  8
0
  6
CONTINUOUS
 10
2.126080
 20
9.629400
  0
VERTEX
  8
0
  6
CONTINUOUS
 10
2.126080
 20
10.127040
  0
VERTEX
  8
0
  6
CONTINUOUS
 10
2.121240
 20
10.127040
  0
SEQEND
  8
0
  0
TEXT
  8
0
 10
1.985720
 20
1.914440
 40
0.138358
  1
BA  620 2-1/2"
 41
1.000000
  7
SN0
 71
     0
 72
     5
 11
3.057029
 21
1.914440
  0
TEXT
  8
0
 10
1.985720
 20
1.723040
 40
0.138358
  1
BA  621 1-1/4" x 6
 41
1.000000
  7
SN0
 71
     0
 72
     5
 11
3.323377
 21
1.723040
  0
TEXT
  8
0
 10
1.724360
 20
9.435360
 40
0.138358
  1
620
 41
1.000000
  7
SN0
 71
     0
 72
     5
 11
2.001277
 21
9.435360
  0
TEXT
  8
0
 10
0.976360
 20
7.916040
 40
0.138358
  1
621
 41
1.000000
  7
SN0
 71
     0
 72
     5
 11
1.253277
 21
7.916040
  0
ENDSEC
  0
EOF
