  0
SECTION
  2
HEADER
  9
$ACADVER
  1
AC1006
  9
$EXTMIN
 10
0.585200
 20
1.650880
  9
$EXTMAX
 10
7.322040
 20
10.106360
  9
$LTSCALE
 40
0.044000
  9
$PDMODE
 70
    35
  9
$PDSIZE
 40
0.035200
  0
ENDSEC
  0
SECTION
  2
TABLES
  0
TABLE
  2
LTYPE
 70
     9
  0
LTYPE
  2
CONTINUOUS
 70
    64
  3
Solid line
 72
    65
 73
     0
 40
0.000000
  0
LTYPE
  2
DASHED
 70
    64
  3
__ __ __ __ __ __ __ __ __ __ __ __ __ __ __
 72
    65
 73
     2
 40
0.000330
 49
0.000220
 49
-0.000110
  0
LTYPE
  2
HIDDEN
 70
    64
  3
 _ _ _ _ _ _ _ _ _ _ _ _ _ _ _ _ _ _ _ _ _ _
 72
    65
 73
     2
 40
0.000165
 49
0.000110
 49
-0.000055
  0
LTYPE
  2
CENTER
 70
    64
  3
____ _ ____ _ ____ _ ____ _ ____ _ ____ _ ____
 72
    65
 73
     4
 40
0.000880
 49
0.000550
 49
-0.000110
 49
0.000110
 49
-0.000110
  0
LTYPE
  2
PHANTOM
 70
    64
  3
_____ _ _ _____ _ _ _____ _ _ _____ _ _ ____
 72
    65
 73
     6
 40
0.001100
 49
0.000550
 49
-0.000110
 49
0.000110
 49
-0.000110
 49
0.000110
 49
-0.000110
  0
LTYPE
  2
DOT
 70
    64
  3
...............................................
 72
    65
 73
     2
 40
0.000110
 49
0.000000
 49
-0.000110
  0
LTYPE
  2
DASHDOT
 70
    64
  3
__ . __ . __ . __ . __ . __ . __ . __ . __ . __
 72
    65
 73
     4
 40
0.000440
 49
0.000220
 49
-0.000110
 49
0.000000
 49
-0.000110
  0
LTYPE
  2
BORDER
 70
    64
  3
__ __ . __ __ . __ __ . __ __ . __ __ . __ __
 72
    65
 73
     6
 40
0.000770
 49
0.000220
 49
-0.000110
 49
0.000220
 49
-0.000110
 49
0.000000
 49
-0.000110
  0
LTYPE
  2
DIVIDE
 70
    64
  3
__ . . __ . . __ . . __ . . __ . . __ . . __
 72
    65
 73
     6
 40
0.000550
 49
0.000220
 49
-0.000110
 49
0.000000
 49
-0.000110
 49
0.000000
 49
-0.000110
  0
LTYPE
  2
DOTDOT
 70
    64
  3
 . .  . .  . .  . .  . .  . . 
 72
    65
 73
     5
 40
0.000242
 49
-0.000110
 49
0.000000
 49
-0.000110
 49
0.000000
 49
-0.000110
  0
ENDTAB
  0
TABLE
  2
STYLE
 70
     2
  0
STYLE
 70
     0
  2
SN0
 40
0.000000
 41
0.000440
 50
0.000000
 71
     0
 42
0.000000
  3
ROMAND
  0
STYLE
 70
    68
  2
SV0
 40
0.000000
 41
0.000440
 50
0.000000
 71
     0
 42
0.000000
  3
ROMAND
  0
ENDTAB
  0
TABLE
  2
LAYER
 70
     3
  0
LAYER
  2
FOREGROUND
 70
    64
 62
     7
  6
CONTINUOUS
  0
LAYER
  2
BACKGROUND
 70
    65
 62
    -7
  6
CONTINUOUS
  0
LAYER
  2
0
 70
    64
 62
     7
  6
CONTINUOUS
  0
ENDTAB
  0
ENDSEC
  0
SECTION
  2
ENTITIES
  0
POLYLINE
  8
FOREGROUND
  6
CONTINUOUS
 66
     1
 40
0.000000
 41
0.000000
  0
VERTEX
  8
FOREGROUND
  6
CONTINUOUS
 10
0.000000
 20
11.757240
  0
VERTEX
  8
FOREGROUND
  6
CONTINUOUS
 10
8.499920
 20
11.757240
  0
VERTEX
  8
FOREGROUND
  6
CONTINUOUS
 10
8.499920
 20
0.757240
  0
VERTEX
  8
FOREGROUND
  6
CONTINUOUS
 10
0.000000
 20
0.757240
  0
VERTEX
  8
FOREGROUND
  6
CONTINUOUS
 10
0.000000
 20
11.757240
  0
SEQEND
  8
0
  0
POLYLINE
  8
FOREGROUND
  6
CONTINUOUS
 66
     1
 40
0.000000
 41
0.000000
  0
VERTEX
  8
FOREGROUND
  6
CONTINUOUS
 10
0.000000
 20
11.757240
  0
VERTEX
  8
FOREGROUND
  6
CONTINUOUS
 10
8.499920
 20
11.757240
  0
VERTEX
  8
FOREGROUND
  6
CONTINUOUS
 10
8.499920
 20
0.757240
  0
VERTEX
  8
FOREGROUND
  6
CONTINUOUS
 10
0.000000
 20
0.757240
  0
VERTEX
  8
FOREGROUND
  6
CONTINUOUS
 10
0.000000
 20
11.757240
  0
SEQEND
  8
0
  0
POLYLINE
  8
0
  6
CONTINUOUS
 66
     1
 40
0.014080
 41
0.014080
  0
VERTEX
  8
0
  6
CONTINUOUS
 10
6.063200
 20
9.844560
  0
VERTEX
  8
0
  6
CONTINUOUS
 10
6.127440
 20
9.842800
  0
VERTEX
  8
0
  6
CONTINUOUS
 10
6.191240
 20
9.837960
  0
VERTEX
  8
0
  6
CONTINUOUS
 10
6.284960
 20
9.825200
  0
VERTEX
  8
0
  6
CONTINUOUS
 10
6.376040
 20
9.804960
  0
VERTEX
  8
0
  6
CONTINUOUS
 10
6.435440
 20
9.788240
  0
VERTEX
  8
0
  6
CONTINUOUS
 10
6.493520
 20
9.768440
  0
VERTEX
  8
0
  6
CONTINUOUS
 10
6.550280
 20
9.746440
  0
VERTEX
  8
0
  6
CONTINUOUS
 10
6.633000
 20
9.707720
  0
VERTEX
  8
0
  6
CONTINUOUS
 10
6.712200
 20
9.663280
  0
VERTEX
  8
0
  6
CONTINUOUS
 10
6.787880
 20
9.613560
  0
VERTEX
  8
0
  6
CONTINUOUS
 10
6.859600
 20
9.559000
  0
VERTEX
  8
0
  6
CONTINUOUS
 10
6.926920
 20
9.499160
  0
VERTEX
  8
0
  6
CONTINUOUS
 10
6.989840
 20
9.434480
  0
VERTEX
  8
0
  6
CONTINUOUS
 10
7.047920
 20
9.365840
  0
VERTEX
  8
0
  6
CONTINUOUS
 10
7.084000
 20
9.317440
  0
VERTEX
  8
0
  6
CONTINUOUS
 10
7.133720
 20
9.242200
  0
VERTEX
  8
0
  6
CONTINUOUS
 10
7.178160
 20
9.163000
  0
VERTEX
  8
0
  6
CONTINUOUS
 10
7.204560
 20
9.108440
  0
VERTEX
  8
0
  6
CONTINUOUS
 10
7.228320
 20
9.052120
  0
VERTEX
  8
0
  6
CONTINUOUS
 10
7.258680
 20
8.965440
  0
VERTEX
  8
0
  6
CONTINUOUS
 10
7.275400
 20
8.906040
  0
VERTEX
  8
0
  6
CONTINUOUS
 10
7.295640
 20
8.814960
  0
VERTEX
  8
0
  6
CONTINUOUS
 10
7.308400
 20
8.721240
  0
VERTEX
  8
0
  6
CONTINUOUS
 10
7.313240
 20
8.657440
  0
VERTEX
  8
0
  6
CONTINUOUS
 10
7.315000
 20
8.593200
  0
VERTEX
  8
0
  6
CONTINUOUS
 10
7.313240
 20
8.528960
  0
VERTEX
  8
0
  6
CONTINUOUS
 10
7.308400
 20
8.465160
  0
VERTEX
  8
0
  6
CONTINUOUS
 10
7.295640
 20
8.371440
  0
VERTEX
  8
0
  6
CONTINUOUS
 10
7.275400
 20
8.280360
  0
VERTEX
  8
0
  6
CONTINUOUS
 10
7.258680
 20
8.220960
  0
VERTEX
  8
0
  6
CONTINUOUS
 10
7.228320
 20
8.134280
  0
VERTEX
  8
0
  6
CONTINUOUS
 10
7.204560
 20
8.077960
  0
VERTEX
  8
0
  6
CONTINUOUS
 10
7.164080
 20
7.996560
  0
VERTEX
  8
0
  6
CONTINUOUS
 10
7.117880
 20
7.918680
  0
VERTEX
  8
0
  6
CONTINUOUS
 10
7.066400
 20
7.844320
  0
VERTEX
  8
0
  6
CONTINUOUS
 10
7.009640
 20
7.773920
  0
VERTEX
  8
0
  6
CONTINUOUS
 10
6.948480
 20
7.707920
  0
VERTEX
  8
0
  6
CONTINUOUS
 10
6.882480
 20
7.646760
  0
VERTEX
  8
0
  6
CONTINUOUS
 10
6.812080
 20
7.590000
  0
VERTEX
  8
0
  6
CONTINUOUS
 10
6.737720
 20
7.538520
  0
VERTEX
  8
0
  6
CONTINUOUS
 10
6.659840
 20
7.492320
  0
VERTEX
  8
0
  6
CONTINUOUS
 10
6.578440
 20
7.451840
  0
VERTEX
  8
0
  6
CONTINUOUS
 10
6.522120
 20
7.428080
  0
VERTEX
  8
0
  6
CONTINUOUS
 10
6.435440
 20
7.397720
  0
VERTEX
  8
0
  6
CONTINUOUS
 10
6.376040
 20
7.381000
  0
VERTEX
  8
0
  6
CONTINUOUS
 10
6.284960
 20
7.360760
  0
VERTEX
  8
0
  6
CONTINUOUS
 10
6.191240
 20
7.348000
  0
VERTEX
  8
0
  6
CONTINUOUS
 10
6.127440
 20
7.343160
  0
VERTEX
  8
0
  6
CONTINUOUS
 10
6.063200
 20
7.341400
  0
VERTEX
  8
0
  6
CONTINUOUS
 10
6.063200
 20
7.844760
  0
VERTEX
  8
0
  6
CONTINUOUS
 10
5.573040
 20
7.844760
  0
VERTEX
  8
0
  6
CONTINUOUS
 10
5.573040
 20
9.346920
  0
VERTEX
  8
0
  6
CONTINUOUS
 10
6.068040
 20
9.346920
  0
VERTEX
  8
0
  6
CONTINUOUS
 10
6.068040
 20
9.844560
  0
VERTEX
  8
0
  6
CONTINUOUS
 10
6.063200
 20
9.844560
  0
SEQEND
  8
0
  0
POLYLINE
  8
0
  6
CONTINUOUS
 66
     1
 40
0.014080
 41
0.014080
  0
VERTEX
  8
0
  6
CONTINUOUS
 10
6.061880
 20
7.846080
  0
VERTEX
  8
0
  6
CONTINUOUS
 10
4.821520
 20
7.846080
  0
VERTEX
  8
0
  6
CONTINUOUS
 10
4.821520
 20
1.835240
  0
VERTEX
  8
0
  6
CONTINUOUS
 10
5.168680
 20
1.835240
  0
VERTEX
  8
0
  6
CONTINUOUS
 10
5.173960
 20
1.917960
  0
VERTEX
  8
0
  6
CONTINUOUS
 10
5.178800
 20
1.954920
  0
VERTEX
  8
0
  6
CONTINUOUS
 10
5.186720
 20
1.990560
  0
VERTEX
  8
0
  6
CONTINUOUS
 10
5.198600
 20
2.025320
  0
VERTEX
  8
0
  6
CONTINUOUS
 10
5.215320
 20
2.058320
  0
VERTEX
  8
0
  6
CONTINUOUS
 10
5.238200
 20
2.090880
  0
VERTEX
  8
0
  6
CONTINUOUS
 10
5.268560
 20
2.122560
  0
VERTEX
  8
0
  6
CONTINUOUS
 10
5.300680
 20
2.153800
  0
VERTEX
  8
0
  6
CONTINUOUS
 10
5.341600
 20
2.203080
  0
VERTEX
  8
0
  6
CONTINUOUS
 10
5.363160
 20
2.239600
  0
VERTEX
  8
0
  6
CONTINUOUS
 10
5.380320
 20
2.280520
  0
VERTEX
  8
0
  6
CONTINUOUS
 10
5.392640
 20
2.328040
  0
VERTEX
  8
0
  6
CONTINUOUS
 10
5.399680
 20
2.383040
  0
VERTEX
  8
0
  6
CONTINUOUS
 10
5.401440
 20
2.446840
  0
VERTEX
  8
0
  6
CONTINUOUS
 10
5.400120
 20
2.482920
  0
VERTEX
  8
0
  6
CONTINUOUS
 10
5.558960
 20
2.495680
  0
VERTEX
  8
0
  6
CONTINUOUS
 10
5.567760
 20
3.252040
  0
VERTEX
  8
0
  6
CONTINUOUS
 10
5.573480
 20
3.497560
  0
VERTEX
  8
0
  6
CONTINUOUS
 10
5.583600
 20
3.742200
  0
VERTEX
  8
0
  6
CONTINUOUS
 10
5.590640
 20
3.864960
  0
VERTEX
  8
0
  6
CONTINUOUS
 10
5.599440
 20
3.988160
  0
VERTEX
  8
0
  6
CONTINUOUS
 10
5.616600
 20
4.174720
  0
VERTEX
  8
0
  6
CONTINUOUS
 10
5.639040
 20
4.363480
  0
VERTEX
  8
0
  6
CONTINUOUS
 10
5.657080
 20
4.491080
  0
VERTEX
  8
0
  6
CONTINUOUS
 10
5.666760
 20
4.547840
  0
VERTEX
  8
0
  6
CONTINUOUS
 10
5.692720
 20
4.661360
  0
VERTEX
  8
0
  6
CONTINUOUS
 10
5.724840
 20
4.775760
  0
VERTEX
  8
0
  6
CONTINUOUS
 10
5.814160
 20
5.065280
  0
VERTEX
  8
0
  6
CONTINUOUS
 10
5.846720
 20
5.182760
  0
VERTEX
  8
0
  6
CONTINUOUS
 10
5.860800
 20
5.241720
  0
VERTEX
  8
0
  6
CONTINUOUS
 10
5.873120
 20
5.301120
  0
VERTEX
  8
0
  6
CONTINUOUS
 10
5.887640
 20
5.390880
  0
VERTEX
  8
0
  6
CONTINUOUS
 10
5.913160
 20
5.650920
  0
VERTEX
  8
0
  6
CONTINUOUS
 10
5.929000
 20
5.888080
  0
VERTEX
  8
0
  6
CONTINUOUS
 10
5.935160
 20
6.053520
  0
VERTEX
  8
0
  6
CONTINUOUS
 10
5.937360
 20
6.227760
  0
VERTEX
  8
0
  6
CONTINUOUS
 10
5.933400
 20
6.461400
  0
VERTEX
  8
0
  6
CONTINUOUS
 10
5.927240
 20
6.611000
  0
VERTEX
  8
0
  6
CONTINUOUS
 10
5.913600
 20
6.824400
  0
VERTEX
  8
0
  6
CONTINUOUS
 10
6.064960
 20
6.830120
  0
VERTEX
  8
0
  6
CONTINUOUS
 10
6.064520
 20
7.845200
  0
VERTEX
  8
0
  6
CONTINUOUS
 10
6.061880
 20
7.846080
  0
SEQEND
  8
0
  0
SOLID
  8
0
 62
    15
 10
1.363560
 20
4.241600
 11
2.105400
 21
4.235440
 12
1.347720
 22
3.995640
 13
2.089120
 23
3.989480
  0
POLYLINE
  8
0
  6
CONTINUOUS
 66
     1
 40
0.000000
 41
0.000000
  0
VERTEX
  8
0
  6
CONTINUOUS
 10
1.363560
 20
4.241600
  0
VERTEX
  8
0
  6
CONTINUOUS
 10
2.105400
 20
4.235440
  0
VERTEX
  8
0
  6
CONTINUOUS
 10
2.089120
 20
3.989480
  0
VERTEX
  8
0
  6
CONTINUOUS
 10
1.347720
 20
3.995640
  0
VERTEX
  8
0
  6
CONTINUOUS
 10
1.363560
 20
4.241600
  0
SEQEND
  8
0
  0
SOLID
  8
0
 62
    15
 10
1.829080
 20
7.083120
 11
2.570920
 21
7.076960
 12
1.677720
 22
7.077840
 13
2.419120
 23
7.071240
  0
POLYLINE
  8
0
  6
CONTINUOUS
 66
     1
 40
0.000000
 41
0.000000
  0
VERTEX
  8
0
  6
CONTINUOUS
 10
1.829080
 20
7.083120
  0
VERTEX
  8
0
  6
CONTINUOUS
 10
2.570920
 20
7.076960
  0
VERTEX
  8
0
  6
CONTINUOUS
 10
2.419120
 20
7.071240
  0
VERTEX
  8
0
  6
CONTINUOUS
 10
1.677720
 20
7.077840
  0
VERTEX
  8
0
  6
CONTINUOUS
 10
1.829080
 20
7.083120
  0
SEQEND
  8
0
  0
SOLID
  8
0
 62
    15
 10
1.677720
 20
7.077840
 11
2.419120
 21
7.071240
 12
1.690920
 22
6.864440
 13
2.432760
 23
6.858280
  0
POLYLINE
  8
0
  6
CONTINUOUS
 66
     1
 40
0.000000
 41
0.000000
  0
VERTEX
  8
0
  6
CONTINUOUS
 10
1.677720
 20
7.077840
  0
VERTEX
  8
0
  6
CONTINUOUS
 10
2.419120
 20
7.071240
  0
VERTEX
  8
0
  6
CONTINUOUS
 10
2.432760
 20
6.858280
  0
VERTEX
  8
0
  6
CONTINUOUS
 10
1.690920
 20
6.864440
  0
VERTEX
  8
0
  6
CONTINUOUS
 10
1.677720
 20
7.077840
  0
SEQEND
  8
0
  0
SOLID
  8
0
 62
    15
 10
1.690920
 20
6.864440
 11
2.432760
 21
6.858280
 12
1.698840
 22
6.666440
 13
2.440680
 23
6.659840
  0
POLYLINE
  8
0
  6
CONTINUOUS
 66
     1
 40
0.000000
 41
0.000000
  0
VERTEX
  8
0
  6
CONTINUOUS
 10
1.690920
 20
6.864440
  0
VERTEX
  8
0
  6
CONTINUOUS
 10
2.432760
 20
6.858280
  0
VERTEX
  8
0
  6
CONTINUOUS
 10
2.440680
 20
6.659840
  0
VERTEX
  8
0
  6
CONTINUOUS
 10
1.698840
 20
6.666440
  0
VERTEX
  8
0
  6
CONTINUOUS
 10
1.690920
 20
6.864440
  0
SEQEND
  8
0
  0
SOLID
  8
0
 62
    15
 10
1.698840
 20
6.666440
 11
2.440680
 21
6.659840
 12
1.701480
 22
6.481200
 13
2.442880
 23
6.475040
  0
POLYLINE
  8
0
  6
CONTINUOUS
 66
     1
 40
0.000000
 41
0.000000
  0
VERTEX
  8
0
  6
CONTINUOUS
 10
1.698840
 20
6.666440
  0
VERTEX
  8
0
  6
CONTINUOUS
 10
2.440680
 20
6.659840
  0
VERTEX
  8
0
  6
CONTINUOUS
 10
2.442880
 20
6.475040
  0
VERTEX
  8
0
  6
CONTINUOUS
 10
1.701480
 20
6.481200
  0
VERTEX
  8
0
  6
CONTINUOUS
 10
1.698840
 20
6.666440
  0
SEQEND
  8
0
  0
SOLID
  8
0
 62
    15
 10
1.701480
 20
6.481200
 11
2.442880
 21
6.475040
 12
1.699280
 22
6.306960
 13
2.440680
 23
6.300800
  0
POLYLINE
  8
0
  6
CONTINUOUS
 66
     1
 40
0.000000
 41
0.000000
  0
VERTEX
  8
0
  6
CONTINUOUS
 10
1.701480
 20
6.481200
  0
VERTEX
  8
0
  6
CONTINUOUS
 10
2.442880
 20
6.475040
  0
VERTEX
  8
0
  6
CONTINUOUS
 10
2.440680
 20
6.300800
  0
VERTEX
  8
0
  6
CONTINUOUS
 10
1.699280
 20
6.306960
  0
VERTEX
  8
0
  6
CONTINUOUS
 10
1.701480
 20
6.481200
  0
SEQEND
  8
0
  0
SOLID
  8
0
 62
    15
 10
1.699280
 20
6.306960
 11
2.440680
 21
6.300800
 12
1.693120
 22
6.141520
 13
2.434520
 23
6.134920
  0
POLYLINE
  8
0
  6
CONTINUOUS
 66
     1
 40
0.000000
 41
0.000000
  0
VERTEX
  8
0
  6
CONTINUOUS
 10
1.699280
 20
6.306960
  0
VERTEX
  8
0
  6
CONTINUOUS
 10
2.440680
 20
6.300800
  0
VERTEX
  8
0
  6
CONTINUOUS
 10
2.434520
 20
6.134920
  0
VERTEX
  8
0
  6
CONTINUOUS
 10
1.693120
 20
6.141520
  0
VERTEX
  8
0
  6
CONTINUOUS
 10
1.699280
 20
6.306960
  0
SEQEND
  8
0
  0
SOLID
  8
0
 62
    15
 10
1.693120
 20
6.141520
 11
2.434520
 21
6.134920
 12
1.683440
 22
5.982240
 13
2.424840
 23
5.975640
  0
POLYLINE
  8
0
  6
CONTINUOUS
 66
     1
 40
0.000000
 41
0.000000
  0
VERTEX
  8
0
  6
CONTINUOUS
 10
1.693120
 20
6.141520
  0
VERTEX
  8
0
  6
CONTINUOUS
 10
2.434520
 20
6.134920
  0
VERTEX
  8
0
  6
CONTINUOUS
 10
2.424840
 20
5.975640
  0
VERTEX
  8
0
  6
CONTINUOUS
 10
1.683440
 20
5.982240
  0
VERTEX
  8
0
  6
CONTINUOUS
 10
1.693120
 20
6.141520
  0
SEQEND
  8
0
  0
SOLID
  8
0
 62
    15
 10
1.683440
 20
5.982240
 11
2.424840
 21
5.975640
 12
1.655280
 22
5.673800
 13
2.396680
 23
5.667640
  0
POLYLINE
  8
0
  6
CONTINUOUS
 66
     1
 40
0.000000
 41
0.000000
  0
VERTEX
  8
0
  6
CONTINUOUS
 10
1.683440
 20
5.982240
  0
VERTEX
  8
0
  6
CONTINUOUS
 10
2.424840
 20
5.975640
  0
VERTEX
  8
0
  6
CONTINUOUS
 10
2.396680
 20
5.667640
  0
VERTEX
  8
0
  6
CONTINUOUS
 10
1.655280
 20
5.673800
  0
VERTEX
  8
0
  6
CONTINUOUS
 10
1.683440
 20
5.982240
  0
SEQEND
  8
0
  0
SOLID
  8
0
 62
    15
 10
1.655280
 20
5.673800
 11
2.396680
 21
5.667640
 12
1.637240
 22
5.554560
 13
2.378640
 23
5.547960
  0
POLYLINE
  8
0
  6
CONTINUOUS
 66
     1
 40
0.000000
 41
0.000000
  0
VERTEX
  8
0
  6
CONTINUOUS
 10
1.655280
 20
5.673800
  0
VERTEX
  8
0
  6
CONTINUOUS
 10
2.396680
 20
5.667640
  0
VERTEX
  8
0
  6
CONTINUOUS
 10
2.378640
 20
5.547960
  0
VERTEX
  8
0
  6
CONTINUOUS
 10
1.637240
 20
5.554560
  0
VERTEX
  8
0
  6
CONTINUOUS
 10
1.655280
 20
5.673800
  0
SEQEND
  8
0
  0
SOLID
  8
0
 62
    15
 10
1.637240
 20
5.554560
 11
2.378640
 21
5.547960
 12
1.610840
 22
5.436200
 13
2.352240
 23
5.429600
  0
POLYLINE
  8
0
  6
CONTINUOUS
 66
     1
 40
0.000000
 41
0.000000
  0
VERTEX
  8
0
  6
CONTINUOUS
 10
1.637240
 20
5.554560
  0
VERTEX
  8
0
  6
CONTINUOUS
 10
2.378640
 20
5.547960
  0
VERTEX
  8
0
  6
CONTINUOUS
 10
2.352240
 20
5.429600
  0
VERTEX
  8
0
  6
CONTINUOUS
 10
1.610840
 20
5.436200
  0
VERTEX
  8
0
  6
CONTINUOUS
 10
1.637240
 20
5.554560
  0
SEQEND
  8
0
  0
SOLID
  8
0
 62
    15
 10
1.610840
 20
5.436200
 11
2.352240
 21
5.429600
 12
1.542640
 22
5.202120
 13
2.284040
 23
5.195520
  0
POLYLINE
  8
0
  6
CONTINUOUS
 66
     1
 40
0.000000
 41
0.000000
  0
VERTEX
  8
0
  6
CONTINUOUS
 10
1.610840
 20
5.436200
  0
VERTEX
  8
0
  6
CONTINUOUS
 10
2.352240
 20
5.429600
  0
VERTEX
  8
0
  6
CONTINUOUS
 10
2.284040
 20
5.195520
  0
VERTEX
  8
0
  6
CONTINUOUS
 10
1.542640
 20
5.202120
  0
VERTEX
  8
0
  6
CONTINUOUS
 10
1.610840
 20
5.436200
  0
SEQEND
  8
0
  0
SOLID
  8
0
 62
    15
 10
1.542640
 20
5.202120
 11
2.284040
 21
5.195520
 12
1.524600
 22
5.144040
 13
2.266000
 23
5.137880
  0
POLYLINE
  8
0
  6
CONTINUOUS
 66
     1
 40
0.000000
 41
0.000000
  0
VERTEX
  8
0
  6
CONTINUOUS
 10
1.542640
 20
5.202120
  0
VERTEX
  8
0
  6
CONTINUOUS
 10
2.284040
 20
5.195520
  0
VERTEX
  8
0
  6
CONTINUOUS
 10
2.266000
 20
5.137880
  0
VERTEX
  8
0
  6
CONTINUOUS
 10
1.524600
 20
5.144040
  0
VERTEX
  8
0
  6
CONTINUOUS
 10
1.542640
 20
5.202120
  0
SEQEND
  8
0
  0
SOLID
  8
0
 62
    15
 10
1.524600
 20
5.144040
 11
2.266000
 21
5.137880
 12
1.506560
 22
5.086400
 13
2.247960
 23
5.080240
  0
POLYLINE
  8
0
  6
CONTINUOUS
 66
     1
 40
0.000000
 41
0.000000
  0
VERTEX
  8
0
  6
CONTINUOUS
 10
1.524600
 20
5.144040
  0
VERTEX
  8
0
  6
CONTINUOUS
 10
2.266000
 20
5.137880
  0
VERTEX
  8
0
  6
CONTINUOUS
 10
2.247960
 20
5.080240
  0
VERTEX
  8
0
  6
CONTINUOUS
 10
1.506560
 20
5.086400
  0
VERTEX
  8
0
  6
CONTINUOUS
 10
1.524600
 20
5.144040
  0
SEQEND
  8
0
  0
SOLID
  8
0
 62
    15
 10
1.506560
 20
5.086400
 11
2.247960
 21
5.080240
 12
1.472240
 22
4.972000
 13
2.214080
 23
4.965400
  0
POLYLINE
  8
0
  6
CONTINUOUS
 66
     1
 40
0.000000
 41
0.000000
  0
VERTEX
  8
0
  6
CONTINUOUS
 10
1.506560
 20
5.086400
  0
VERTEX
  8
0
  6
CONTINUOUS
 10
2.247960
 20
5.080240
  0
VERTEX
  8
0
  6
CONTINUOUS
 10
2.214080
 20
4.965400
  0
VERTEX
  8
0
  6
CONTINUOUS
 10
1.472240
 20
4.972000
  0
VERTEX
  8
0
  6
CONTINUOUS
 10
1.506560
 20
5.086400
  0
SEQEND
  8
0
  0
SOLID
  8
0
 62
    15
 10
1.472240
 20
4.972000
 11
2.214080
 21
4.965400
 12
1.443200
 22
4.858040
 13
2.184600
 23
4.851440
  0
POLYLINE
  8
0
  6
CONTINUOUS
 66
     1
 40
0.000000
 41
0.000000
  0
VERTEX
  8
0
  6
CONTINUOUS
 10
1.472240
 20
4.972000
  0
VERTEX
  8
0
  6
CONTINUOUS
 10
2.214080
 20
4.965400
  0
VERTEX
  8
0
  6
CONTINUOUS
 10
2.184600
 20
4.851440
  0
VERTEX
  8
0
  6
CONTINUOUS
 10
1.443200
 20
4.858040
  0
VERTEX
  8
0
  6
CONTINUOUS
 10
1.472240
 20
4.972000
  0
SEQEND
  8
0
  0
SOLID
  8
0
 62
    15
 10
1.443200
 20
4.858040
 11
2.184600
 21
4.851440
 12
1.421200
 22
4.744520
 13
2.163040
 23
4.737920
  0
POLYLINE
  8
0
  6
CONTINUOUS
 66
     1
 40
0.000000
 41
0.000000
  0
VERTEX
  8
0
  6
CONTINUOUS
 10
1.443200
 20
4.858040
  0
VERTEX
  8
0
  6
CONTINUOUS
 10
2.184600
 20
4.851440
  0
VERTEX
  8
0
  6
CONTINUOUS
 10
2.163040
 20
4.737920
  0
VERTEX
  8
0
  6
CONTINUOUS
 10
1.421200
 20
4.744520
  0
VERTEX
  8
0
  6
CONTINUOUS
 10
1.443200
 20
4.858040
  0
SEQEND
  8
0
  0
SOLID
  8
0
 62
    15
 10
1.421200
 20
4.744520
 11
2.163040
 21
4.737920
 12
1.387760
 22
4.490640
 13
2.129160
 23
4.484480
  0
POLYLINE
  8
0
  6
CONTINUOUS
 66
     1
 40
0.000000
 41
0.000000
  0
VERTEX
  8
0
  6
CONTINUOUS
 10
1.421200
 20
4.744520
  0
VERTEX
  8
0
  6
CONTINUOUS
 10
2.163040
 20
4.737920
  0
VERTEX
  8
0
  6
CONTINUOUS
 10
2.129160
 20
4.484480
  0
VERTEX
  8
0
  6
CONTINUOUS
 10
1.387760
 20
4.490640
  0
VERTEX
  8
0
  6
CONTINUOUS
 10
1.421200
 20
4.744520
  0
SEQEND
  8
0
  0
SOLID
  8
0
 62
    15
 10
1.387760
 20
4.490640
 11
2.129160
 21
4.484480
 12
1.363560
 22
4.241600
 13
2.105400
 23
4.235440
  0
POLYLINE
  8
0
  6
CONTINUOUS
 66
     1
 40
0.000000
 41
0.000000
  0
VERTEX
  8
0
  6
CONTINUOUS
 10
1.387760
 20
4.490640
  0
VERTEX
  8
0
  6
CONTINUOUS
 10
2.129160
 20
4.484480
  0
VERTEX
  8
0
  6
CONTINUOUS
 10
2.105400
 20
4.235440
  0
VERTEX
  8
0
  6
CONTINUOUS
 10
1.363560
 20
4.241600
  0
VERTEX
  8
0
  6
CONTINUOUS
 10
1.387760
 20
4.490640
  0
SEQEND
  8
0
  0
SOLID
  8
0
 62
    15
 10
1.826000
 20
8.099520
 11
2.567400
 21
8.093360
 12
1.828640
 22
8.098200
 13
2.570040
 23
8.092040
  0
POLYLINE
  8
0
  6
CONTINUOUS
 66
     1
 40
0.000000
 41
0.000000
  0
VERTEX
  8
0
  6
CONTINUOUS
 10
1.826000
 20
8.099520
  0
VERTEX
  8
0
  6
CONTINUOUS
 10
2.567400
 20
8.093360
  0
VERTEX
  8
0
  6
CONTINUOUS
 10
2.570040
 20
8.092040
  0
VERTEX
  8
0
  6
CONTINUOUS
 10
1.828640
 20
8.098200
  0
VERTEX
  8
0
  6
CONTINUOUS
 10
1.826000
 20
8.099520
  0
SEQEND
  8
0
  0
SOLID
  8
0
 62
    15
 10
1.347720
 20
3.995640
 11
2.089120
 21
3.989480
 12
1.337600
 22
3.751000
 13
2.079000
 23
3.744400
  0
POLYLINE
  8
0
  6
CONTINUOUS
 66
     1
 40
0.000000
 41
0.000000
  0
VERTEX
  8
0
  6
CONTINUOUS
 10
1.347720
 20
3.995640
  0
VERTEX
  8
0
  6
CONTINUOUS
 10
2.089120
 20
3.989480
  0
VERTEX
  8
0
  6
CONTINUOUS
 10
2.079000
 20
3.744400
  0
VERTEX
  8
0
  6
CONTINUOUS
 10
1.337600
 20
3.751000
  0
VERTEX
  8
0
  6
CONTINUOUS
 10
1.347720
 20
3.995640
  0
SEQEND
  8
0
  0
SOLID
  8
0
 62
    15
 10
1.337600
 20
3.751000
 11
2.079000
 21
3.744400
 12
1.328800
 22
3.258200
 13
2.070200
 23
3.251600
  0
POLYLINE
  8
0
  6
CONTINUOUS
 66
     1
 40
0.000000
 41
0.000000
  0
VERTEX
  8
0
  6
CONTINUOUS
 10
1.337600
 20
3.751000
  0
VERTEX
  8
0
  6
CONTINUOUS
 10
2.079000
 20
3.744400
  0
VERTEX
  8
0
  6
CONTINUOUS
 10
2.070200
 20
3.251600
  0
VERTEX
  8
0
  6
CONTINUOUS
 10
1.328800
 20
3.258200
  0
VERTEX
  8
0
  6
CONTINUOUS
 10
1.337600
 20
3.751000
  0
SEQEND
  8
0
  0
SOLID
  8
0
 62
    15
 10
1.164240
 20
2.736360
 11
1.906080
 21
2.729760
 12
1.165560
 22
2.666840
 13
1.906960
 23
2.660680
  0
POLYLINE
  8
0
  6
CONTINUOUS
 66
     1
 40
0.000000
 41
0.000000
  0
VERTEX
  8
0
  6
CONTINUOUS
 10
1.164240
 20
2.736360
  0
VERTEX
  8
0
  6
CONTINUOUS
 10
1.906080
 20
2.729760
  0
VERTEX
  8
0
  6
CONTINUOUS
 10
1.906960
 20
2.660680
  0
VERTEX
  8
0
  6
CONTINUOUS
 10
1.165560
 20
2.666840
  0
VERTEX
  8
0
  6
CONTINUOUS
 10
1.164240
 20
2.736360
  0
SEQEND
  8
0
  0
SOLID
  8
0
 62
    15
 10
1.323080
 20
2.749120
 11
2.064920
 21
2.742960
 12
1.164240
 22
2.736360
 13
1.906080
 23
2.729760
  0
POLYLINE
  8
0
  6
CONTINUOUS
 66
     1
 40
0.000000
 41
0.000000
  0
VERTEX
  8
0
  6
CONTINUOUS
 10
1.323080
 20
2.749120
  0
VERTEX
  8
0
  6
CONTINUOUS
 10
2.064920
 20
2.742960
  0
VERTEX
  8
0
  6
CONTINUOUS
 10
1.906080
 20
2.729760
  0
VERTEX
  8
0
  6
CONTINUOUS
 10
1.164240
 20
2.736360
  0
VERTEX
  8
0
  6
CONTINUOUS
 10
1.323080
 20
2.749120
  0
SEQEND
  8
0
  0
SOLID
  8
0
 62
    15
 10
1.328800
 20
3.258200
 11
2.070200
 21
3.251600
 12
1.323080
 22
2.749120
 13
2.064920
 23
2.742960
  0
POLYLINE
  8
0
  6
CONTINUOUS
 66
     1
 40
0.000000
 41
0.000000
  0
VERTEX
  8
0
  6
CONTINUOUS
 10
1.328800
 20
3.258200
  0
VERTEX
  8
0
  6
CONTINUOUS
 10
2.070200
 20
3.251600
  0
VERTEX
  8
0
  6
CONTINUOUS
 10
2.064920
 20
2.742960
  0
VERTEX
  8
0
  6
CONTINUOUS
 10
1.323080
 20
2.749120
  0
VERTEX
  8
0
  6
CONTINUOUS
 10
1.328800
 20
3.258200
  0
SEQEND
  8
0
  0
SOLID
  8
0
 62
    15
 10
1.165560
 20
2.666840
 11
1.906960
 21
2.660680
 12
1.160720
 22
2.607880
 13
1.902560
 23
2.601280
  0
POLYLINE
  8
0
  6
CONTINUOUS
 66
     1
 40
0.000000
 41
0.000000
  0
VERTEX
  8
0
  6
CONTINUOUS
 10
1.165560
 20
2.666840
  0
VERTEX
  8
0
  6
CONTINUOUS
 10
1.906960
 20
2.660680
  0
VERTEX
  8
0
  6
CONTINUOUS
 10
1.902560
 20
2.601280
  0
VERTEX
  8
0
  6
CONTINUOUS
 10
1.160720
 20
2.607880
  0
VERTEX
  8
0
  6
CONTINUOUS
 10
1.165560
 20
2.666840
  0
SEQEND
  8
0
  0
SOLID
  8
0
 62
    15
 10
1.160720
 20
2.607880
 11
1.902560
 21
2.601280
 12
1.151040
 22
2.556840
 13
1.892880
 23
2.550680
  0
POLYLINE
  8
0
  6
CONTINUOUS
 66
     1
 40
0.000000
 41
0.000000
  0
VERTEX
  8
0
  6
CONTINUOUS
 10
1.160720
 20
2.607880
  0
VERTEX
  8
0
  6
CONTINUOUS
 10
1.902560
 20
2.601280
  0
VERTEX
  8
0
  6
CONTINUOUS
 10
1.892880
 20
2.550680
  0
VERTEX
  8
0
  6
CONTINUOUS
 10
1.151040
 20
2.556840
  0
VERTEX
  8
0
  6
CONTINUOUS
 10
1.160720
 20
2.607880
  0
SEQEND
  8
0
  0
SOLID
  8
0
 62
    15
 10
1.151040
 20
2.556840
 11
1.892880
 21
2.550680
 12
1.136520
 22
2.512840
 13
1.878360
 23
2.506680
  0
POLYLINE
  8
0
  6
CONTINUOUS
 66
     1
 40
0.000000
 41
0.000000
  0
VERTEX
  8
0
  6
CONTINUOUS
 10
1.151040
 20
2.556840
  0
VERTEX
  8
0
  6
CONTINUOUS
 10
1.892880
 20
2.550680
  0
VERTEX
  8
0
  6
CONTINUOUS
 10
1.878360
 20
2.506680
  0
VERTEX
  8
0
  6
CONTINUOUS
 10
1.136520
 20
2.512840
  0
VERTEX
  8
0
  6
CONTINUOUS
 10
1.151040
 20
2.556840
  0
SEQEND
  8
0
  0
SOLID
  8
0
 62
    15
 10
1.136520
 20
2.512840
 11
1.878360
 21
2.506680
 12
1.117160
 22
2.474560
 13
1.858560
 23
2.467960
  0
POLYLINE
  8
0
  6
CONTINUOUS
 66
     1
 40
0.000000
 41
0.000000
  0
VERTEX
  8
0
  6
CONTINUOUS
 10
1.136520
 20
2.512840
  0
VERTEX
  8
0
  6
CONTINUOUS
 10
1.878360
 20
2.506680
  0
VERTEX
  8
0
  6
CONTINUOUS
 10
1.858560
 20
2.467960
  0
VERTEX
  8
0
  6
CONTINUOUS
 10
1.117160
 20
2.474560
  0
VERTEX
  8
0
  6
CONTINUOUS
 10
1.136520
 20
2.512840
  0
SEQEND
  8
0
  0
SOLID
  8
0
 62
    15
 10
1.117160
 20
2.474560
 11
1.858560
 21
2.467960
 12
1.093400
 22
2.439800
 13
1.834800
 23
2.433200
  0
POLYLINE
  8
0
  6
CONTINUOUS
 66
     1
 40
0.000000
 41
0.000000
  0
VERTEX
  8
0
  6
CONTINUOUS
 10
1.117160
 20
2.474560
  0
VERTEX
  8
0
  6
CONTINUOUS
 10
1.858560
 20
2.467960
  0
VERTEX
  8
0
  6
CONTINUOUS
 10
1.834800
 20
2.433200
  0
VERTEX
  8
0
  6
CONTINUOUS
 10
1.093400
 20
2.439800
  0
VERTEX
  8
0
  6
CONTINUOUS
 10
1.117160
 20
2.474560
  0
SEQEND
  8
0
  0
SOLID
  8
0
 62
    15
 10
1.093400
 20
2.439800
 11
1.834800
 21
2.433200
 12
1.032680
 22
2.376000
 13
1.774520
 23
2.369840
  0
POLYLINE
  8
0
  6
CONTINUOUS
 66
     1
 40
0.000000
 41
0.000000
  0
VERTEX
  8
0
  6
CONTINUOUS
 10
1.093400
 20
2.439800
  0
VERTEX
  8
0
  6
CONTINUOUS
 10
1.834800
 20
2.433200
  0
VERTEX
  8
0
  6
CONTINUOUS
 10
1.774520
 20
2.369840
  0
VERTEX
  8
0
  6
CONTINUOUS
 10
1.032680
 20
2.376000
  0
VERTEX
  8
0
  6
CONTINUOUS
 10
1.093400
 20
2.439800
  0
SEQEND
  8
0
  0
SOLID
  8
0
 62
    15
 10
1.032680
 20
2.376000
 11
1.774520
 21
2.369840
 12
1.002760
 22
2.344320
 13
1.744160
 23
2.338160
  0
POLYLINE
  8
0
  6
CONTINUOUS
 66
     1
 40
0.000000
 41
0.000000
  0
VERTEX
  8
0
  6
CONTINUOUS
 10
1.032680
 20
2.376000
  0
VERTEX
  8
0
  6
CONTINUOUS
 10
1.774520
 20
2.369840
  0
VERTEX
  8
0
  6
CONTINUOUS
 10
1.744160
 20
2.338160
  0
VERTEX
  8
0
  6
CONTINUOUS
 10
1.002760
 20
2.344320
  0
VERTEX
  8
0
  6
CONTINUOUS
 10
1.032680
 20
2.376000
  0
SEQEND
  8
0
  0
SOLID
  8
0
 62
    15
 10
1.002760
 20
2.344320
 11
1.744160
 21
2.338160
 12
0.979440
 22
2.311760
 13
1.721280
 23
2.305600
  0
POLYLINE
  8
0
  6
CONTINUOUS
 66
     1
 40
0.000000
 41
0.000000
  0
VERTEX
  8
0
  6
CONTINUOUS
 10
1.002760
 20
2.344320
  0
VERTEX
  8
0
  6
CONTINUOUS
 10
1.744160
 20
2.338160
  0
VERTEX
  8
0
  6
CONTINUOUS
 10
1.721280
 20
2.305600
  0
VERTEX
  8
0
  6
CONTINUOUS
 10
0.979440
 20
2.311760
  0
VERTEX
  8
0
  6
CONTINUOUS
 10
1.002760
 20
2.344320
  0
SEQEND
  8
0
  0
SOLID
  8
0
 62
    15
 10
0.979440
 20
2.311760
 11
1.721280
 21
2.305600
 12
0.950840
 22
2.244000
 13
1.692680
 23
2.237840
  0
POLYLINE
  8
0
  6
CONTINUOUS
 66
     1
 40
0.000000
 41
0.000000
  0
VERTEX
  8
0
  6
CONTINUOUS
 10
0.979440
 20
2.311760
  0
VERTEX
  8
0
  6
CONTINUOUS
 10
1.721280
 20
2.305600
  0
VERTEX
  8
0
  6
CONTINUOUS
 10
1.692680
 20
2.237840
  0
VERTEX
  8
0
  6
CONTINUOUS
 10
0.950840
 20
2.244000
  0
VERTEX
  8
0
  6
CONTINUOUS
 10
0.979440
 20
2.311760
  0
SEQEND
  8
0
  0
SOLID
  8
0
 62
    15
 10
0.950840
 20
2.244000
 11
1.692680
 21
2.237840
 12
0.938520
 22
2.170960
 13
1.679920
 23
2.164800
  0
POLYLINE
  8
0
  6
CONTINUOUS
 66
     1
 40
0.000000
 41
0.000000
  0
VERTEX
  8
0
  6
CONTINUOUS
 10
0.950840
 20
2.244000
  0
VERTEX
  8
0
  6
CONTINUOUS
 10
1.692680
 20
2.237840
  0
VERTEX
  8
0
  6
CONTINUOUS
 10
1.679920
 20
2.164800
  0
VERTEX
  8
0
  6
CONTINUOUS
 10
0.938520
 20
2.170960
  0
VERTEX
  8
0
  6
CONTINUOUS
 10
0.950840
 20
2.244000
  0
SEQEND
  8
0
  0
SOLID
  8
0
 62
    15
 10
0.938520
 20
2.170960
 11
1.679920
 21
2.164800
 12
0.932800
 22
2.090880
 13
1.674200
 23
2.084720
  0
POLYLINE
  8
0
  6
CONTINUOUS
 66
     1
 40
0.000000
 41
0.000000
  0
VERTEX
  8
0
  6
CONTINUOUS
 10
0.938520
 20
2.170960
  0
VERTEX
  8
0
  6
CONTINUOUS
 10
1.679920
 20
2.164800
  0
VERTEX
  8
0
  6
CONTINUOUS
 10
1.674200
 20
2.084720
  0
VERTEX
  8
0
  6
CONTINUOUS
 10
0.932800
 20
2.090880
  0
VERTEX
  8
0
  6
CONTINUOUS
 10
0.938520
 20
2.170960
  0
SEQEND
  8
0
  0
SOLID
  8
0
 62
    15
 10
0.932800
 20
2.088680
 11
1.674200
 21
2.082080
 12
0.585640
 22
2.088680
 13
1.327480
 23
2.082080
  0
POLYLINE
  8
0
  6
CONTINUOUS
 66
     1
 40
0.000000
 41
0.000000
  0
VERTEX
  8
0
  6
CONTINUOUS
 10
0.932800
 20
2.088680
  0
VERTEX
  8
0
  6
CONTINUOUS
 10
1.674200
 20
2.082080
  0
VERTEX
  8
0
  6
CONTINUOUS
 10
1.327480
 20
2.082080
  0
VERTEX
  8
0
  6
CONTINUOUS
 10
0.585640
 20
2.088680
  0
VERTEX
  8
0
  6
CONTINUOUS
 10
0.932800
 20
2.088680
  0
SEQEND
  8
0
  0
SOLID
  8
0
 62
    15
 10
0.932800
 20
2.090880
 11
1.674200
 21
2.084720
 12
0.932800
 22
2.088680
 13
1.674200
 23
2.082080
  0
POLYLINE
  8
0
  6
CONTINUOUS
 66
     1
 40
0.000000
 41
0.000000
  0
VERTEX
  8
0
  6
CONTINUOUS
 10
0.932800
 20
2.090880
  0
VERTEX
  8
0
  6
CONTINUOUS
 10
1.674200
 20
2.084720
  0
VERTEX
  8
0
  6
CONTINUOUS
 10
1.674200
 20
2.082080
  0
VERTEX
  8
0
  6
CONTINUOUS
 10
0.932800
 20
2.088680
  0
VERTEX
  8
0
  6
CONTINUOUS
 10
0.932800
 20
2.090880
  0
SEQEND
  8
0
  0
SOLID
  8
0
 62
    15
 10
1.828640
 20
8.098200
 11
2.570040
 21
8.092040
 12
1.829080
 22
7.083120
 13
2.570920
 23
7.076960
  0
POLYLINE
  8
0
  6
CONTINUOUS
 66
     1
 40
0.000000
 41
0.000000
  0
VERTEX
  8
0
  6
CONTINUOUS
 10
1.828640
 20
8.098200
  0
VERTEX
  8
0
  6
CONTINUOUS
 10
2.570040
 20
8.092040
  0
VERTEX
  8
0
  6
CONTINUOUS
 10
2.570920
 20
7.076960
  0
VERTEX
  8
0
  6
CONTINUOUS
 10
1.829080
 20
7.083120
  0
VERTEX
  8
0
  6
CONTINUOUS
 10
1.828640
 20
8.098200
  0
SEQEND
  8
0
  0
POLYLINE
  8
0
  6
CONTINUOUS
 66
     1
 40
0.000000
 41
0.000000
  0
VERTEX
  8
0
  6
CONTINUOUS
 10
1.828640
 20
8.098200
  0
VERTEX
  8
0
  6
CONTINUOUS
 10
1.829080
 20
7.083120
  0
VERTEX
  8
0
  6
CONTINUOUS
 10
1.677720
 20
7.077840
  0
VERTEX
  8
0
  6
CONTINUOUS
 10
1.690920
 20
6.864440
  0
VERTEX
  8
0
  6
CONTINUOUS
 10
1.698840
 20
6.666440
  0
VERTEX
  8
0
  6
CONTINUOUS
 10
1.701480
 20
6.481200
  0
VERTEX
  8
0
  6
CONTINUOUS
 10
1.699280
 20
6.306960
  0
VERTEX
  8
0
  6
CONTINUOUS
 10
1.693120
 20
6.141520
  0
VERTEX
  8
0
  6
CONTINUOUS
 10
1.683440
 20
5.982240
  0
VERTEX
  8
0
  6
CONTINUOUS
 10
1.655280
 20
5.673800
  0
VERTEX
  8
0
  6
CONTINUOUS
 10
1.637240
 20
5.554560
  0
VERTEX
  8
0
  6
CONTINUOUS
 10
1.610840
 20
5.436200
  0
VERTEX
  8
0
  6
CONTINUOUS
 10
1.542640
 20
5.202120
  0
VERTEX
  8
0
  6
CONTINUOUS
 10
1.524600
 20
5.144040
  0
VERTEX
  8
0
  6
CONTINUOUS
 10
1.506560
 20
5.086400
  0
VERTEX
  8
0
  6
CONTINUOUS
 10
1.472240
 20
4.972000
  0
VERTEX
  8
0
  6
CONTINUOUS
 10
1.443200
 20
4.858040
  0
VERTEX
  8
0
  6
CONTINUOUS
 10
1.421200
 20
4.744520
  0
VERTEX
  8
0
  6
CONTINUOUS
 10
1.387760
 20
4.490640
  0
VERTEX
  8
0
  6
CONTINUOUS
 10
1.363560
 20
4.241600
  0
VERTEX
  8
0
  6
CONTINUOUS
 10
1.347720
 20
3.995640
  0
VERTEX
  8
0
  6
CONTINUOUS
 10
1.337600
 20
3.751000
  0
VERTEX
  8
0
  6
CONTINUOUS
 10
1.328800
 20
3.258200
  0
VERTEX
  8
0
  6
CONTINUOUS
 10
1.323080
 20
2.749120
  0
VERTEX
  8
0
  6
CONTINUOUS
 10
1.164240
 20
2.736360
  0
VERTEX
  8
0
  6
CONTINUOUS
 10
1.165560
 20
2.666840
  0
VERTEX
  8
0
  6
CONTINUOUS
 10
1.160720
 20
2.607880
  0
VERTEX
  8
0
  6
CONTINUOUS
 10
1.151040
 20
2.556840
  0
VERTEX
  8
0
  6
CONTINUOUS
 10
1.136520
 20
2.512840
  0
VERTEX
  8
0
  6
CONTINUOUS
 10
1.117160
 20
2.474560
  0
VERTEX
  8
0
  6
CONTINUOUS
 10
1.093400
 20
2.439800
  0
VERTEX
  8
0
  6
CONTINUOUS
 10
1.032680
 20
2.376000
  0
VERTEX
  8
0
  6
CONTINUOUS
 10
1.002760
 20
2.344320
  0
VERTEX
  8
0
  6
CONTINUOUS
 10
0.979440
 20
2.311760
  0
VERTEX
  8
0
  6
CONTINUOUS
 10
0.950840
 20
2.244000
  0
VERTEX
  8
0
  6
CONTINUOUS
 10
0.938520
 20
2.170960
  0
VERTEX
  8
0
  6
CONTINUOUS
 10
0.932800
 20
2.090880
  0
VERTEX
  8
0
  6
CONTINUOUS
 10
0.932800
 20
2.088680
  0
VERTEX
  8
0
  6
CONTINUOUS
 10
0.585640
 20
2.088680
  0
VERTEX
  8
0
  6
CONTINUOUS
 10
0.585640
 20
8.099520
  0
VERTEX
  8
0
  6
CONTINUOUS
 10
1.826000
 20
8.099520
  0
VERTEX
  8
0
  6
CONTINUOUS
 10
1.828640
 20
8.098200
  0
SEQEND
  8
0
  0
SOLID
  8
0
 62
    15
 10
3.076480
 20
8.847520
 11
3.819640
 21
8.854120
 12
3.070320
 22
8.719480
 13
3.813040
 23
8.726080
  0
POLYLINE
  8
0
  6
CONTINUOUS
 66
     1
 40
0.000000
 41
0.000000
  0
VERTEX
  8
0
  6
CONTINUOUS
 10
3.076480
 20
8.847520
  0
VERTEX
  8
0
  6
CONTINUOUS
 10
3.819640
 20
8.854120
  0
VERTEX
  8
0
  6
CONTINUOUS
 10
3.813040
 20
8.726080
  0
VERTEX
  8
0
  6
CONTINUOUS
 10
3.070320
 20
8.719480
  0
VERTEX
  8
0
  6
CONTINUOUS
 10
3.076480
 20
8.847520
  0
SEQEND
  8
0
  0
SOLID
  8
0
 62
    15
 10
1.825120
 20
10.098880
 11
2.568280
 21
10.105480
 12
1.953160
 22
10.092720
 13
2.695880
 23
10.099320
  0
POLYLINE
  8
0
  6
CONTINUOUS
 66
     1
 40
0.000000
 41
0.000000
  0
VERTEX
  8
0
  6
CONTINUOUS
 10
1.825120
 20
10.098880
  0
VERTEX
  8
0
  6
CONTINUOUS
 10
2.568280
 20
10.105480
  0
VERTEX
  8
0
  6
CONTINUOUS
 10
2.695880
 20
10.099320
  0
VERTEX
  8
0
  6
CONTINUOUS
 10
1.953160
 20
10.092720
  0
VERTEX
  8
0
  6
CONTINUOUS
 10
1.825120
 20
10.098880
  0
SEQEND
  8
0
  0
SOLID
  8
0
 62
    15
 10
2.077240
 20
10.073360
 11
2.820400
 21
10.080400
 12
2.197360
 22
10.042560
 13
2.940080
 23
10.049600
  0
POLYLINE
  8
0
  6
CONTINUOUS
 66
     1
 40
0.000000
 41
0.000000
  0
VERTEX
  8
0
  6
CONTINUOUS
 10
2.077240
 20
10.073360
  0
VERTEX
  8
0
  6
CONTINUOUS
 10
2.820400
 20
10.080400
  0
VERTEX
  8
0
  6
CONTINUOUS
 10
2.940080
 20
10.049600
  0
VERTEX
  8
0
  6
CONTINUOUS
 10
2.197360
 20
10.042560
  0
VERTEX
  8
0
  6
CONTINUOUS
 10
2.077240
 20
10.073360
  0
SEQEND
  8
0
  0
SOLID
  8
0
 62
    15
 10
2.197360
 20
10.042560
 11
2.940080
 21
10.049600
 12
2.312200
 22
10.000760
 13
3.055360
 23
10.007360
  0
POLYLINE
  8
0
  6
CONTINUOUS
 66
     1
 40
0.000000
 41
0.000000
  0
VERTEX
  8
0
  6
CONTINUOUS
 10
2.197360
 20
10.042560
  0
VERTEX
  8
0
  6
CONTINUOUS
 10
2.940080
 20
10.049600
  0
VERTEX
  8
0
  6
CONTINUOUS
 10
3.055360
 20
10.007360
  0
VERTEX
  8
0
  6
CONTINUOUS
 10
2.312200
 20
10.000760
  0
VERTEX
  8
0
  6
CONTINUOUS
 10
2.197360
 20
10.042560
  0
SEQEND
  8
0
  0
SOLID
  8
0
 62
    15
 10
2.312200
 20
10.000760
 11
3.055360
 21
10.007360
 12
2.421760
 22
9.947960
 13
3.164480
 23
9.954560
  0
POLYLINE
  8
0
  6
CONTINUOUS
 66
     1
 40
0.000000
 41
0.000000
  0
VERTEX
  8
0
  6
CONTINUOUS
 10
2.312200
 20
10.000760
  0
VERTEX
  8
0
  6
CONTINUOUS
 10
3.055360
 20
10.007360
  0
VERTEX
  8
0
  6
CONTINUOUS
 10
3.164480
 20
9.954560
  0
VERTEX
  8
0
  6
CONTINUOUS
 10
2.421760
 20
9.947960
  0
VERTEX
  8
0
  6
CONTINUOUS
 10
2.312200
 20
10.000760
  0
SEQEND
  8
0
  0
SOLID
  8
0
 62
    15
 10
2.421760
 20
9.947960
 11
3.164480
 21
9.954560
 12
2.524720
 22
9.885040
 13
3.267880
 23
9.892080
  0
POLYLINE
  8
0
  6
CONTINUOUS
 66
     1
 40
0.000000
 41
0.000000
  0
VERTEX
  8
0
  6
CONTINUOUS
 10
2.421760
 20
9.947960
  0
VERTEX
  8
0
  6
CONTINUOUS
 10
3.164480
 20
9.954560
  0
VERTEX
  8
0
  6
CONTINUOUS
 10
3.267880
 20
9.892080
  0
VERTEX
  8
0
  6
CONTINUOUS
 10
2.524720
 20
9.885040
  0
VERTEX
  8
0
  6
CONTINUOUS
 10
2.421760
 20
9.947960
  0
SEQEND
  8
0
  0
SOLID
  8
0
 62
    15
 10
2.524720
 20
9.885040
 11
3.267880
 21
9.892080
 12
2.621080
 22
9.813320
 13
3.364240
 23
9.819920
  0
POLYLINE
  8
0
  6
CONTINUOUS
 66
     1
 40
0.000000
 41
0.000000
  0
VERTEX
  8
0
  6
CONTINUOUS
 10
2.524720
 20
9.885040
  0
VERTEX
  8
0
  6
CONTINUOUS
 10
3.267880
 20
9.892080
  0
VERTEX
  8
0
  6
CONTINUOUS
 10
3.364240
 20
9.819920
  0
VERTEX
  8
0
  6
CONTINUOUS
 10
2.621080
 20
9.813320
  0
VERTEX
  8
0
  6
CONTINUOUS
 10
2.524720
 20
9.885040
  0
SEQEND
  8
0
  0
SOLID
  8
0
 62
    15
 10
2.621080
 20
9.813320
 11
3.364240
 21
9.819920
 12
2.709960
 22
9.732360
 13
3.453120
 23
9.738960
  0
POLYLINE
  8
0
  6
CONTINUOUS
 66
     1
 40
0.000000
 41
0.000000
  0
VERTEX
  8
0
  6
CONTINUOUS
 10
2.621080
 20
9.813320
  0
VERTEX
  8
0
  6
CONTINUOUS
 10
3.364240
 20
9.819920
  0
VERTEX
  8
0
  6
CONTINUOUS
 10
3.453120
 20
9.738960
  0
VERTEX
  8
0
  6
CONTINUOUS
 10
2.709960
 20
9.732360
  0
VERTEX
  8
0
  6
CONTINUOUS
 10
2.621080
 20
9.813320
  0
SEQEND
  8
0
  0
SOLID
  8
0
 62
    15
 10
2.709960
 20
9.732360
 11
3.453120
 21
9.738960
 12
2.790920
 22
9.643480
 13
3.533640
 23
9.650080
  0
POLYLINE
  8
0
  6
CONTINUOUS
 66
     1
 40
0.000000
 41
0.000000
  0
VERTEX
  8
0
  6
CONTINUOUS
 10
2.709960
 20
9.732360
  0
VERTEX
  8
0
  6
CONTINUOUS
 10
3.453120
 20
9.738960
  0
VERTEX
  8
0
  6
CONTINUOUS
 10
3.533640
 20
9.650080
  0
VERTEX
  8
0
  6
CONTINUOUS
 10
2.790920
 20
9.643480
  0
VERTEX
  8
0
  6
CONTINUOUS
 10
2.709960
 20
9.732360
  0
SEQEND
  8
0
  0
SOLID
  8
0
 62
    15
 10
2.790920
 20
9.643480
 11
3.533640
 21
9.650080
 12
2.863080
 22
9.547120
 13
3.605800
 23
9.553720
  0
POLYLINE
  8
0
  6
CONTINUOUS
 66
     1
 40
0.000000
 41
0.000000
  0
VERTEX
  8
0
  6
CONTINUOUS
 10
2.790920
 20
9.643480
  0
VERTEX
  8
0
  6
CONTINUOUS
 10
3.533640
 20
9.650080
  0
VERTEX
  8
0
  6
CONTINUOUS
 10
3.605800
 20
9.553720
  0
VERTEX
  8
0
  6
CONTINUOUS
 10
2.863080
 20
9.547120
  0
VERTEX
  8
0
  6
CONTINUOUS
 10
2.790920
 20
9.643480
  0
SEQEND
  8
0
  0
SOLID
  8
0
 62
    15
 10
2.863080
 20
9.547120
 11
3.605800
 21
9.553720
 12
2.925560
 22
9.443720
 13
3.668720
 23
9.450760
  0
POLYLINE
  8
0
  6
CONTINUOUS
 66
     1
 40
0.000000
 41
0.000000
  0
VERTEX
  8
0
  6
CONTINUOUS
 10
2.863080
 20
9.547120
  0
VERTEX
  8
0
  6
CONTINUOUS
 10
3.605800
 20
9.553720
  0
VERTEX
  8
0
  6
CONTINUOUS
 10
3.668720
 20
9.450760
  0
VERTEX
  8
0
  6
CONTINUOUS
 10
2.925560
 20
9.443720
  0
VERTEX
  8
0
  6
CONTINUOUS
 10
2.863080
 20
9.547120
  0
SEQEND
  8
0
  0
SOLID
  8
0
 62
    15
 10
2.925560
 20
9.443720
 11
3.668720
 21
9.450760
 12
2.978360
 22
9.334600
 13
3.721520
 23
9.341200
  0
POLYLINE
  8
0
  6
CONTINUOUS
 66
     1
 40
0.000000
 41
0.000000
  0
VERTEX
  8
0
  6
CONTINUOUS
 10
2.925560
 20
9.443720
  0
VERTEX
  8
0
  6
CONTINUOUS
 10
3.668720
 20
9.450760
  0
VERTEX
  8
0
  6
CONTINUOUS
 10
3.721520
 20
9.341200
  0
VERTEX
  8
0
  6
CONTINUOUS
 10
2.978360
 20
9.334600
  0
VERTEX
  8
0
  6
CONTINUOUS
 10
2.925560
 20
9.443720
  0
SEQEND
  8
0
  0
SOLID
  8
0
 62
    15
 10
2.978360
 20
9.334600
 11
3.721520
 21
9.341200
 12
3.020600
 22
9.219760
 13
3.763320
 23
9.226360
  0
POLYLINE
  8
0
  6
CONTINUOUS
 66
     1
 40
0.000000
 41
0.000000
  0
VERTEX
  8
0
  6
CONTINUOUS
 10
2.978360
 20
9.334600
  0
VERTEX
  8
0
  6
CONTINUOUS
 10
3.721520
 20
9.341200
  0
VERTEX
  8
0
  6
CONTINUOUS
 10
3.763320
 20
9.226360
  0
VERTEX
  8
0
  6
CONTINUOUS
 10
3.020600
 20
9.219760
  0
VERTEX
  8
0
  6
CONTINUOUS
 10
2.978360
 20
9.334600
  0
SEQEND
  8
0
  0
SOLID
  8
0
 62
    15
 10
3.020600
 20
9.219760
 11
3.763320
 21
9.226360
 12
3.051400
 22
9.099640
 13
3.794120
 23
9.106240
  0
POLYLINE
  8
0
  6
CONTINUOUS
 66
     1
 40
0.000000
 41
0.000000
  0
VERTEX
  8
0
  6
CONTINUOUS
 10
3.020600
 20
9.219760
  0
VERTEX
  8
0
  6
CONTINUOUS
 10
3.763320
 20
9.226360
  0
VERTEX
  8
0
  6
CONTINUOUS
 10
3.794120
 20
9.106240
  0
VERTEX
  8
0
  6
CONTINUOUS
 10
3.051400
 20
9.099640
  0
VERTEX
  8
0
  6
CONTINUOUS
 10
3.020600
 20
9.219760
  0
SEQEND
  8
0
  0
SOLID
  8
0
 62
    15
 10
3.051400
 20
9.099640
 11
3.794120
 21
9.106240
 12
3.070320
 22
8.975560
 13
3.813040
 23
8.982160
  0
POLYLINE
  8
0
  6
CONTINUOUS
 66
     1
 40
0.000000
 41
0.000000
  0
VERTEX
  8
0
  6
CONTINUOUS
 10
3.051400
 20
9.099640
  0
VERTEX
  8
0
  6
CONTINUOUS
 10
3.794120
 20
9.106240
  0
VERTEX
  8
0
  6
CONTINUOUS
 10
3.813040
 20
8.982160
  0
VERTEX
  8
0
  6
CONTINUOUS
 10
3.070320
 20
8.975560
  0
VERTEX
  8
0
  6
CONTINUOUS
 10
3.051400
 20
9.099640
  0
SEQEND
  8
0
  0
SOLID
  8
0
 62
    15
 10
3.070320
 20
8.975560
 11
3.813040
 21
8.982160
 12
3.076480
 22
8.847520
 13
3.819640
 23
8.854120
  0
POLYLINE
  8
0
  6
CONTINUOUS
 66
     1
 40
0.000000
 41
0.000000
  0
VERTEX
  8
0
  6
CONTINUOUS
 10
3.070320
 20
8.975560
  0
VERTEX
  8
0
  6
CONTINUOUS
 10
3.813040
 20
8.982160
  0
VERTEX
  8
0
  6
CONTINUOUS
 10
3.819640
 20
8.854120
  0
VERTEX
  8
0
  6
CONTINUOUS
 10
3.076480
 20
8.847520
  0
VERTEX
  8
0
  6
CONTINUOUS
 10
3.070320
 20
8.975560
  0
SEQEND
  8
0
  0
SOLID
  8
0
 62
    15
 10
1.953160
 20
10.092720
 11
2.695880
 21
10.099320
 12
2.077240
 22
10.073360
 13
2.820400
 23
10.080400
  0
POLYLINE
  8
0
  6
CONTINUOUS
 66
     1
 40
0.000000
 41
0.000000
  0
VERTEX
  8
0
  6
CONTINUOUS
 10
1.953160
 20
10.092720
  0
VERTEX
  8
0
  6
CONTINUOUS
 10
2.695880
 20
10.099320
  0
VERTEX
  8
0
  6
CONTINUOUS
 10
2.820400
 20
10.080400
  0
VERTEX
  8
0
  6
CONTINUOUS
 10
2.077240
 20
10.073360
  0
VERTEX
  8
0
  6
CONTINUOUS
 10
1.953160
 20
10.092720
  0
SEQEND
  8
0
  0
SOLID
  8
0
 62
    15
 10
3.070320
 20
8.719480
 11
3.813040
 21
8.726080
 12
3.051400
 22
8.595400
 13
3.794120
 23
8.602000
  0
POLYLINE
  8
0
  6
CONTINUOUS
 66
     1
 40
0.000000
 41
0.000000
  0
VERTEX
  8
0
  6
CONTINUOUS
 10
3.070320
 20
8.719480
  0
VERTEX
  8
0
  6
CONTINUOUS
 10
3.813040
 20
8.726080
  0
VERTEX
  8
0
  6
CONTINUOUS
 10
3.794120
 20
8.602000
  0
VERTEX
  8
0
  6
CONTINUOUS
 10
3.051400
 20
8.595400
  0
VERTEX
  8
0
  6
CONTINUOUS
 10
3.070320
 20
8.719480
  0
SEQEND
  8
0
  0
SOLID
  8
0
 62
    15
 10
3.051400
 20
8.595400
 11
3.794120
 21
8.602000
 12
3.020600
 22
8.475280
 13
3.763320
 23
8.481880
  0
POLYLINE
  8
0
  6
CONTINUOUS
 66
     1
 40
0.000000
 41
0.000000
  0
VERTEX
  8
0
  6
CONTINUOUS
 10
3.051400
 20
8.595400
  0
VERTEX
  8
0
  6
CONTINUOUS
 10
3.794120
 20
8.602000
  0
VERTEX
  8
0
  6
CONTINUOUS
 10
3.763320
 20
8.481880
  0
VERTEX
  8
0
  6
CONTINUOUS
 10
3.020600
 20
8.475280
  0
VERTEX
  8
0
  6
CONTINUOUS
 10
3.051400
 20
8.595400
  0
SEQEND
  8
0
  0
SOLID
  8
0
 62
    15
 10
3.020600
 20
8.475280
 11
3.763320
 21
8.481880
 12
2.978360
 22
8.360440
 13
3.721520
 23
8.367040
  0
POLYLINE
  8
0
  6
CONTINUOUS
 66
     1
 40
0.000000
 41
0.000000
  0
VERTEX
  8
0
  6
CONTINUOUS
 10
3.020600
 20
8.475280
  0
VERTEX
  8
0
  6
CONTINUOUS
 10
3.763320
 20
8.481880
  0
VERTEX
  8
0
  6
CONTINUOUS
 10
3.721520
 20
8.367040
  0
VERTEX
  8
0
  6
CONTINUOUS
 10
2.978360
 20
8.360440
  0
VERTEX
  8
0
  6
CONTINUOUS
 10
3.020600
 20
8.475280
  0
SEQEND
  8
0
  0
SOLID
  8
0
 62
    15
 10
2.978360
 20
8.360440
 11
3.721520
 21
8.367040
 12
2.925560
 22
8.250880
 13
3.668720
 23
8.257480
  0
POLYLINE
  8
0
  6
CONTINUOUS
 66
     1
 40
0.000000
 41
0.000000
  0
VERTEX
  8
0
  6
CONTINUOUS
 10
2.978360
 20
8.360440
  0
VERTEX
  8
0
  6
CONTINUOUS
 10
3.721520
 20
8.367040
  0
VERTEX
  8
0
  6
CONTINUOUS
 10
3.668720
 20
8.257480
  0
VERTEX
  8
0
  6
CONTINUOUS
 10
2.925560
 20
8.250880
  0
VERTEX
  8
0
  6
CONTINUOUS
 10
2.978360
 20
8.360440
  0
SEQEND
  8
0
  0
SOLID
  8
0
 62
    15
 10
2.925560
 20
8.250880
 11
3.668720
 21
8.257480
 12
2.863080
 22
8.147480
 13
3.605800
 23
8.154520
  0
POLYLINE
  8
0
  6
CONTINUOUS
 66
     1
 40
0.000000
 41
0.000000
  0
VERTEX
  8
0
  6
CONTINUOUS
 10
2.925560
 20
8.250880
  0
VERTEX
  8
0
  6
CONTINUOUS
 10
3.668720
 20
8.257480
  0
VERTEX
  8
0
  6
CONTINUOUS
 10
3.605800
 20
8.154520
  0
VERTEX
  8
0
  6
CONTINUOUS
 10
2.863080
 20
8.147480
  0
VERTEX
  8
0
  6
CONTINUOUS
 10
2.925560
 20
8.250880
  0
SEQEND
  8
0
  0
SOLID
  8
0
 62
    15
 10
2.863080
 20
8.147480
 11
3.605800
 21
8.154520
 12
2.790920
 22
8.051120
 13
3.533640
 23
8.058160
  0
POLYLINE
  8
0
  6
CONTINUOUS
 66
     1
 40
0.000000
 41
0.000000
  0
VERTEX
  8
0
  6
CONTINUOUS
 10
2.863080
 20
8.147480
  0
VERTEX
  8
0
  6
CONTINUOUS
 10
3.605800
 20
8.154520
  0
VERTEX
  8
0
  6
CONTINUOUS
 10
3.533640
 20
8.058160
  0
VERTEX
  8
0
  6
CONTINUOUS
 10
2.790920
 20
8.051120
  0
VERTEX
  8
0
  6
CONTINUOUS
 10
2.863080
 20
8.147480
  0
SEQEND
  8
0
  0
SOLID
  8
0
 62
    15
 10
2.790920
 20
8.051120
 11
3.533640
 21
8.058160
 12
2.709960
 22
7.962240
 13
3.453120
 23
7.969280
  0
POLYLINE
  8
0
  6
CONTINUOUS
 66
     1
 40
0.000000
 41
0.000000
  0
VERTEX
  8
0
  6
CONTINUOUS
 10
2.790920
 20
8.051120
  0
VERTEX
  8
0
  6
CONTINUOUS
 10
3.533640
 20
8.058160
  0
VERTEX
  8
0
  6
CONTINUOUS
 10
3.453120
 20
7.969280
  0
VERTEX
  8
0
  6
CONTINUOUS
 10
2.709960
 20
7.962240
  0
VERTEX
  8
0
  6
CONTINUOUS
 10
2.790920
 20
8.051120
  0
SEQEND
  8
0
  0
SOLID
  8
0
 62
    15
 10
2.709960
 20
7.962240
 11
3.453120
 21
7.969280
 12
2.621080
 22
7.881720
 13
3.364240
 23
7.888320
  0
POLYLINE
  8
0
  6
CONTINUOUS
 66
     1
 40
0.000000
 41
0.000000
  0
VERTEX
  8
0
  6
CONTINUOUS
 10
2.709960
 20
7.962240
  0
VERTEX
  8
0
  6
CONTINUOUS
 10
3.453120
 20
7.969280
  0
VERTEX
  8
0
  6
CONTINUOUS
 10
3.364240
 20
7.888320
  0
VERTEX
  8
0
  6
CONTINUOUS
 10
2.621080
 20
7.881720
  0
VERTEX
  8
0
  6
CONTINUOUS
 10
2.709960
 20
7.962240
  0
SEQEND
  8
0
  0
SOLID
  8
0
 62
    15
 10
2.621080
 20
7.881720
 11
3.364240
 21
7.888320
 12
2.524720
 22
7.809560
 13
3.267880
 23
7.816160
  0
POLYLINE
  8
0
  6
CONTINUOUS
 66
     1
 40
0.000000
 41
0.000000
  0
VERTEX
  8
0
  6
CONTINUOUS
 10
2.621080
 20
7.881720
  0
VERTEX
  8
0
  6
CONTINUOUS
 10
3.364240
 20
7.888320
  0
VERTEX
  8
0
  6
CONTINUOUS
 10
3.267880
 20
7.816160
  0
VERTEX
  8
0
  6
CONTINUOUS
 10
2.524720
 20
7.809560
  0
VERTEX
  8
0
  6
CONTINUOUS
 10
2.621080
 20
7.881720
  0
SEQEND
  8
0
  0
SOLID
  8
0
 62
    15
 10
2.524720
 20
7.809560
 11
3.267880
 21
7.816160
 12
2.421760
 22
7.747080
 13
3.164480
 23
7.753680
  0
POLYLINE
  8
0
  6
CONTINUOUS
 66
     1
 40
0.000000
 41
0.000000
  0
VERTEX
  8
0
  6
CONTINUOUS
 10
2.524720
 20
7.809560
  0
VERTEX
  8
0
  6
CONTINUOUS
 10
3.267880
 20
7.816160
  0
VERTEX
  8
0
  6
CONTINUOUS
 10
3.164480
 20
7.753680
  0
VERTEX
  8
0
  6
CONTINUOUS
 10
2.421760
 20
7.747080
  0
VERTEX
  8
0
  6
CONTINUOUS
 10
2.524720
 20
7.809560
  0
SEQEND
  8
0
  0
SOLID
  8
0
 62
    15
 10
2.421760
 20
7.747080
 11
3.164480
 21
7.753680
 12
2.312200
 22
7.694280
 13
3.055360
 23
7.700880
  0
POLYLINE
  8
0
  6
CONTINUOUS
 66
     1
 40
0.000000
 41
0.000000
  0
VERTEX
  8
0
  6
CONTINUOUS
 10
2.421760
 20
7.747080
  0
VERTEX
  8
0
  6
CONTINUOUS
 10
3.164480
 20
7.753680
  0
VERTEX
  8
0
  6
CONTINUOUS
 10
3.055360
 20
7.700880
  0
VERTEX
  8
0
  6
CONTINUOUS
 10
2.312200
 20
7.694280
  0
VERTEX
  8
0
  6
CONTINUOUS
 10
2.421760
 20
7.747080
  0
SEQEND
  8
0
  0
SOLID
  8
0
 62
    15
 10
2.312200
 20
7.694280
 11
3.055360
 21
7.700880
 12
2.197360
 22
7.652040
 13
2.940080
 23
7.658640
  0
POLYLINE
  8
0
  6
CONTINUOUS
 66
     1
 40
0.000000
 41
0.000000
  0
VERTEX
  8
0
  6
CONTINUOUS
 10
2.312200
 20
7.694280
  0
VERTEX
  8
0
  6
CONTINUOUS
 10
3.055360
 20
7.700880
  0
VERTEX
  8
0
  6
CONTINUOUS
 10
2.940080
 20
7.658640
  0
VERTEX
  8
0
  6
CONTINUOUS
 10
2.197360
 20
7.652040
  0
VERTEX
  8
0
  6
CONTINUOUS
 10
2.312200
 20
7.694280
  0
SEQEND
  8
0
  0
SOLID
  8
0
 62
    15
 10
2.197360
 20
7.652040
 11
2.940080
 21
7.658640
 12
2.077240
 22
7.621240
 13
2.820400
 23
7.627840
  0
POLYLINE
  8
0
  6
CONTINUOUS
 66
     1
 40
0.000000
 41
0.000000
  0
VERTEX
  8
0
  6
CONTINUOUS
 10
2.197360
 20
7.652040
  0
VERTEX
  8
0
  6
CONTINUOUS
 10
2.940080
 20
7.658640
  0
VERTEX
  8
0
  6
CONTINUOUS
 10
2.820400
 20
7.627840
  0
VERTEX
  8
0
  6
CONTINUOUS
 10
2.077240
 20
7.621240
  0
VERTEX
  8
0
  6
CONTINUOUS
 10
2.197360
 20
7.652040
  0
SEQEND
  8
0
  0
SOLID
  8
0
 62
    15
 10
1.953160
 20
7.602320
 11
2.695880
 21
7.608920
 12
1.825120
 22
7.595720
 13
2.568280
 23
7.602320
  0
POLYLINE
  8
0
  6
CONTINUOUS
 66
     1
 40
0.000000
 41
0.000000
  0
VERTEX
  8
0
  6
CONTINUOUS
 10
1.953160
 20
7.602320
  0
VERTEX
  8
0
  6
CONTINUOUS
 10
2.695880
 20
7.608920
  0
VERTEX
  8
0
  6
CONTINUOUS
 10
2.568280
 20
7.602320
  0
VERTEX
  8
0
  6
CONTINUOUS
 10
1.825120
 20
7.595720
  0
VERTEX
  8
0
  6
CONTINUOUS
 10
1.953160
 20
7.602320
  0
SEQEND
  8
0
  0
SOLID
  8
0
 62
    15
 10
2.077240
 20
7.621240
 11
2.820400
 21
7.627840
 12
1.953160
 22
7.602320
 13
2.695880
 23
7.608920
  0
POLYLINE
  8
0
  6
CONTINUOUS
 66
     1
 40
0.000000
 41
0.000000
  0
VERTEX
  8
0
  6
CONTINUOUS
 10
2.077240
 20
7.621240
  0
VERTEX
  8
0
  6
CONTINUOUS
 10
2.820400
 20
7.627840
  0
VERTEX
  8
0
  6
CONTINUOUS
 10
2.695880
 20
7.608920
  0
VERTEX
  8
0
  6
CONTINUOUS
 10
1.953160
 20
7.602320
  0
VERTEX
  8
0
  6
CONTINUOUS
 10
2.077240
 20
7.621240
  0
SEQEND
  8
0
  0
SOLID
  8
0
 62
    15
 10
1.334960
 20
9.601240
 11
2.077680
 21
9.607840
 12
1.829520
 22
9.601240
 13
2.572680
 23
9.607840
  0
POLYLINE
  8
0
  6
CONTINUOUS
 66
     1
 40
0.000000
 41
0.000000
  0
VERTEX
  8
0
  6
CONTINUOUS
 10
1.334960
 20
9.601240
  0
VERTEX
  8
0
  6
CONTINUOUS
 10
2.077680
 20
9.607840
  0
VERTEX
  8
0
  6
CONTINUOUS
 10
2.572680
 20
9.607840
  0
VERTEX
  8
0
  6
CONTINUOUS
 10
1.829520
 20
9.601240
  0
VERTEX
  8
0
  6
CONTINUOUS
 10
1.334960
 20
9.601240
  0
SEQEND
  8
0
  0
POLYLINE
  8
0
  6
CONTINUOUS
 66
     1
 40
0.000000
 41
0.000000
  0
VERTEX
  8
0
  6
CONTINUOUS
 10
1.825120
 20
10.098880
  0
VERTEX
  8
0
  6
CONTINUOUS
 10
1.953160
 20
10.092720
  0
VERTEX
  8
0
  6
CONTINUOUS
 10
2.077240
 20
10.073360
  0
VERTEX
  8
0
  6
CONTINUOUS
 10
2.197360
 20
10.042560
  0
VERTEX
  8
0
  6
CONTINUOUS
 10
2.312200
 20
10.000760
  0
VERTEX
  8
0
  6
CONTINUOUS
 10
2.421760
 20
9.947960
  0
VERTEX
  8
0
  6
CONTINUOUS
 10
2.524720
 20
9.885040
  0
VERTEX
  8
0
  6
CONTINUOUS
 10
2.621080
 20
9.813320
  0
VERTEX
  8
0
  6
CONTINUOUS
 10
2.709960
 20
9.732360
  0
VERTEX
  8
0
  6
CONTINUOUS
 10
2.790920
 20
9.643480
  0
VERTEX
  8
0
  6
CONTINUOUS
 10
2.863080
 20
9.547120
  0
VERTEX
  8
0
  6
CONTINUOUS
 10
2.925560
 20
9.443720
  0
VERTEX
  8
0
  6
CONTINUOUS
 10
2.978360
 20
9.334600
  0
VERTEX
  8
0
  6
CONTINUOUS
 10
3.020600
 20
9.219760
  0
VERTEX
  8
0
  6
CONTINUOUS
 10
3.051400
 20
9.099640
  0
VERTEX
  8
0
  6
CONTINUOUS
 10
3.070320
 20
8.975560
  0
VERTEX
  8
0
  6
CONTINUOUS
 10
3.076480
 20
8.847520
  0
VERTEX
  8
0
  6
CONTINUOUS
 10
3.070320
 20
8.719480
  0
VERTEX
  8
0
  6
CONTINUOUS
 10
3.051400
 20
8.595400
  0
VERTEX
  8
0
  6
CONTINUOUS
 10
3.020600
 20
8.475280
  0
VERTEX
  8
0
  6
CONTINUOUS
 10
2.978360
 20
8.360440
  0
VERTEX
  8
0
  6
CONTINUOUS
 10
2.925560
 20
8.250880
  0
VERTEX
  8
0
  6
CONTINUOUS
 10
2.863080
 20
8.147480
  0
VERTEX
  8
0
  6
CONTINUOUS
 10
2.790920
 20
8.051120
  0
VERTEX
  8
0
  6
CONTINUOUS
 10
2.709960
 20
7.962240
  0
VERTEX
  8
0
  6
CONTINUOUS
 10
2.621080
 20
7.881720
  0
VERTEX
  8
0
  6
CONTINUOUS
 10
2.524720
 20
7.809560
  0
VERTEX
  8
0
  6
CONTINUOUS
 10
2.421760
 20
7.747080
  0
VERTEX
  8
0
  6
CONTINUOUS
 10
2.312200
 20
7.694280
  0
VERTEX
  8
0
  6
CONTINUOUS
 10
2.197360
 20
7.652040
  0
VERTEX
  8
0
  6
CONTINUOUS
 10
2.077240
 20
7.621240
  0
VERTEX
  8
0
  6
CONTINUOUS
 10
1.953160
 20
7.602320
  0
VERTEX
  8
0
  6
CONTINUOUS
 10
1.825120
 20
7.595720
  0
VERTEX
  8
0
  6
CONTINUOUS
 10
1.825120
 20
8.099080
  0
VERTEX
  8
0
  6
CONTINUOUS
 10
1.334960
 20
8.099080
  0
VERTEX
  8
0
  6
CONTINUOUS
 10
1.334960
 20
9.601240
  0
VERTEX
  8
0
  6
CONTINUOUS
 10
1.829520
 20
9.601240
  0
VERTEX
  8
0
  6
CONTINUOUS
 10
1.829520
 20
10.098880
  0
VERTEX
  8
0
  6
CONTINUOUS
 10
1.825120
 20
10.098880
  0
SEQEND
  8
0
  0
TEXT
  8
0
 10
1.689160
 20
1.886280
 40
0.138358
  1
BA  620 2-1/2"
 41
1.000000
  7
SN0
 71
     0
 72
     5
 11
2.760469
 21
1.886280
  0
TEXT
  8
0
 10
1.689160
 20
1.694880
 40
0.138358
  1
BA  621 1-1/4" x 6
 41
1.000000
  7
SN0
 71
     0
 72
     5
 11
3.026817
 21
1.694880
  0
TEXT
  8
0
 10
1.427800
 20
9.406760
 40
0.138358
  1
620
 41
1.000000
  7
SN0
 71
     0
 72
     5
 11
1.704717
 21
9.406760
  0
TEXT
  8
0
 10
0.680240
 20
7.887880
 40
0.138358
  1
621
 41
1.000000
  7
SN0
 71
     0
 72
     5
 11
0.957157
 21
7.887880
  0
ENDSEC
  0
EOF
