  0
SECTION
  2
HEADER
  9
$ACADVER
  1
AC1006
  9
$EXTMIN
 10
0.429000
 20
0.641960
  9
$EXTMAX
 10
8.070920
 20
9.019560
  9
$LTSCALE
 40
0.044000
  9
$PDMODE
 70
    35
  9
$PDSIZE
 40
0.035200
  0
ENDSEC
  0
SECTION
  2
TABLES
  0
TABLE
  2
LTYPE
 70
     9
  0
LTYPE
  2
CONTINUOUS
 70
    64
  3
Solid line
 72
    65
 73
     0
 40
0.000000
  0
LTYPE
  2
DASHED
 70
    64
  3
__ __ __ __ __ __ __ __ __ __ __ __ __ __ __
 72
    65
 73
     2
 40
0.000330
 49
0.000220
 49
-0.000110
  0
LTYPE
  2
HIDDEN
 70
    64
  3
 _ _ _ _ _ _ _ _ _ _ _ _ _ _ _ _ _ _ _ _ _ _
 72
    65
 73
     2
 40
0.000165
 49
0.000110
 49
-0.000055
  0
LTYPE
  2
CENTER
 70
    64
  3
____ _ ____ _ ____ _ ____ _ ____ _ ____ _ ____
 72
    65
 73
     4
 40
0.000880
 49
0.000550
 49
-0.000110
 49
0.000110
 49
-0.000110
  0
LTYPE
  2
PHANTOM
 70
    64
  3
_____ _ _ _____ _ _ _____ _ _ _____ _ _ ____
 72
    65
 73
     6
 40
0.001100
 49
0.000550
 49
-0.000110
 49
0.000110
 49
-0.000110
 49
0.000110
 49
-0.000110
  0
LTYPE
  2
DOT
 70
    64
  3
...............................................
 72
    65
 73
     2
 40
0.000110
 49
0.000000
 49
-0.000110
  0
LTYPE
  2
DASHDOT
 70
    64
  3
__ . __ . __ . __ . __ . __ . __ . __ . __ . __
 72
    65
 73
     4
 40
0.000440
 49
0.000220
 49
-0.000110
 49
0.000000
 49
-0.000110
  0
LTYPE
  2
BORDER
 70
    64
  3
__ __ . __ __ . __ __ . __ __ . __ __ . __ __
 72
    65
 73
     6
 40
0.000770
 49
0.000220
 49
-0.000110
 49
0.000220
 49
-0.000110
 49
0.000000
 49
-0.000110
  0
LTYPE
  2
DIVIDE
 70
    64
  3
__ . . __ . . __ . . __ . . __ . . __ . . __
 72
    65
 73
     6
 40
0.000550
 49
0.000220
 49
-0.000110
 49
0.000000
 49
-0.000110
 49
0.000000
 49
-0.000110
  0
LTYPE
  2
DOTDOT
 70
    64
  3
 . .  . .  . .  . .  . .  . . 
 72
    65
 73
     5
 40
0.000242
 49
-0.000110
 49
0.000000
 49
-0.000110
 49
0.000000
 49
-0.000110
  0
ENDTAB
  0
TABLE
  2
STYLE
 70
     2
  0
STYLE
 70
     0
  2
SN0
 40
0.000000
 41
0.000440
 50
0.000000
 71
     0
 42
0.000000
  3
ROMAND
  0
STYLE
 70
    68
  2
SV0
 40
0.000000
 41
0.000440
 50
0.000000
 71
     0
 42
0.000000
  3
ROMAND
  0
ENDTAB
  0
TABLE
  2
LAYER
 70
     3
  0
LAYER
  2
FOREGROUND
 70
    64
 62
     7
  6
CONTINUOUS
  0
LAYER
  2
BACKGROUND
 70
    65
 62
    -7
  6
CONTINUOUS
  0
LAYER
  2
0
 70
    64
 62
     7
  6
CONTINUOUS
  0
ENDTAB
  0
ENDSEC
  0
SECTION
  2
ENTITIES
  0
POLYLINE
  8
FOREGROUND
  6
CONTINUOUS
 66
     1
 40
0.000000
 41
0.000000
  0
VERTEX
  8
FOREGROUND
  6
CONTINUOUS
 10
0.000000
 20
9.661520
  0
VERTEX
  8
FOREGROUND
  6
CONTINUOUS
 10
8.499920
 20
9.661520
  0
VERTEX
  8
FOREGROUND
  6
CONTINUOUS
 10
8.499920
 20
-1.338480
  0
VERTEX
  8
FOREGROUND
  6
CONTINUOUS
 10
0.000000
 20
-1.338480
  0
VERTEX
  8
FOREGROUND
  6
CONTINUOUS
 10
0.000000
 20
9.661520
  0
SEQEND
  8
0
  0
POLYLINE
  8
FOREGROUND
  6
CONTINUOUS
 66
     1
 40
0.000000
 41
0.000000
  0
VERTEX
  8
FOREGROUND
  6
CONTINUOUS
 10
0.000000
 20
9.661520
  0
VERTEX
  8
FOREGROUND
  6
CONTINUOUS
 10
8.499920
 20
9.661520
  0
VERTEX
  8
FOREGROUND
  6
CONTINUOUS
 10
8.499920
 20
-1.338480
  0
VERTEX
  8
FOREGROUND
  6
CONTINUOUS
 10
0.000000
 20
-1.338480
  0
VERTEX
  8
FOREGROUND
  6
CONTINUOUS
 10
0.000000
 20
9.661520
  0
SEQEND
  8
0
  0
SOLID
  8
0
 62
    15
 10
3.616360
 20
5.964200
 11
4.257000
 21
5.588000
 12
3.334320
 22
5.691400
 13
3.974960
 23
5.315200
  0
POLYLINE
  8
0
  6
CONTINUOUS
 66
     1
 40
0.000000
 41
0.000000
  0
VERTEX
  8
0
  6
CONTINUOUS
 10
3.616360
 20
5.964200
  0
VERTEX
  8
0
  6
CONTINUOUS
 10
4.257000
 20
5.588000
  0
VERTEX
  8
0
  6
CONTINUOUS
 10
3.974960
 20
5.315200
  0
VERTEX
  8
0
  6
CONTINUOUS
 10
3.334320
 20
5.691400
  0
VERTEX
  8
0
  6
CONTINUOUS
 10
3.616360
 20
5.964200
  0
SEQEND
  8
0
  0
SOLID
  8
0
 62
    15
 10
7.430280
 20
8.280800
 11
8.070920
 21
7.904600
 12
7.336120
 22
7.868520
 13
7.977200
 23
7.492320
  0
POLYLINE
  8
0
  6
CONTINUOUS
 66
     1
 40
0.000000
 41
0.000000
  0
VERTEX
  8
0
  6
CONTINUOUS
 10
7.430280
 20
8.280800
  0
VERTEX
  8
0
  6
CONTINUOUS
 10
8.070920
 20
7.904600
  0
VERTEX
  8
0
  6
CONTINUOUS
 10
7.977200
 20
7.492320
  0
VERTEX
  8
0
  6
CONTINUOUS
 10
7.336120
 20
7.868520
  0
VERTEX
  8
0
  6
CONTINUOUS
 10
7.430280
 20
8.280800
  0
SEQEND
  8
0
  0
SOLID
  8
0
 62
    15
 10
7.074320
 20
7.930560
 11
7.714960
 21
7.554360
 12
7.050560
 22
7.914720
 13
7.691200
 23
7.538520
  0
POLYLINE
  8
0
  6
CONTINUOUS
 66
     1
 40
0.000000
 41
0.000000
  0
VERTEX
  8
0
  6
CONTINUOUS
 10
7.074320
 20
7.930560
  0
VERTEX
  8
0
  6
CONTINUOUS
 10
7.714960
 20
7.554360
  0
VERTEX
  8
0
  6
CONTINUOUS
 10
7.691200
 20
7.538520
  0
VERTEX
  8
0
  6
CONTINUOUS
 10
7.050560
 20
7.914720
  0
VERTEX
  8
0
  6
CONTINUOUS
 10
7.074320
 20
7.930560
  0
SEQEND
  8
0
  0
SOLID
  8
0
 62
    15
 10
7.336120
 20
7.868520
 11
7.977200
 21
7.492320
 12
7.067720
 22
7.925280
 13
7.708360
 23
7.549080
  0
POLYLINE
  8
0
  6
CONTINUOUS
 66
     1
 40
0.000000
 41
0.000000
  0
VERTEX
  8
0
  6
CONTINUOUS
 10
7.336120
 20
7.868520
  0
VERTEX
  8
0
  6
CONTINUOUS
 10
7.977200
 20
7.492320
  0
VERTEX
  8
0
  6
CONTINUOUS
 10
7.708360
 20
7.549080
  0
VERTEX
  8
0
  6
CONTINUOUS
 10
7.067720
 20
7.925280
  0
VERTEX
  8
0
  6
CONTINUOUS
 10
7.336120
 20
7.868520
  0
SEQEND
  8
0
  0
SOLID
  8
0
 62
    15
 10
7.050560
 20
7.914720
 11
7.691200
 21
7.538520
 12
7.089720
 22
7.798120
 13
7.730360
 23
7.421920
  0
POLYLINE
  8
0
  6
CONTINUOUS
 66
     1
 40
0.000000
 41
0.000000
  0
VERTEX
  8
0
  6
CONTINUOUS
 10
7.050560
 20
7.914720
  0
VERTEX
  8
0
  6
CONTINUOUS
 10
7.691200
 20
7.538520
  0
VERTEX
  8
0
  6
CONTINUOUS
 10
7.730360
 20
7.421920
  0
VERTEX
  8
0
  6
CONTINUOUS
 10
7.089720
 20
7.798120
  0
VERTEX
  8
0
  6
CONTINUOUS
 10
7.050560
 20
7.914720
  0
SEQEND
  8
0
  0
SOLID
  8
0
 62
    15
 10
7.089720
 20
7.798120
 11
7.730360
 21
7.421920
 12
7.081360
 22
7.695600
 13
7.722000
 23
7.319400
  0
POLYLINE
  8
0
  6
CONTINUOUS
 66
     1
 40
0.000000
 41
0.000000
  0
VERTEX
  8
0
  6
CONTINUOUS
 10
7.089720
 20
7.798120
  0
VERTEX
  8
0
  6
CONTINUOUS
 10
7.730360
 20
7.421920
  0
VERTEX
  8
0
  6
CONTINUOUS
 10
7.722000
 20
7.319400
  0
VERTEX
  8
0
  6
CONTINUOUS
 10
7.081360
 20
7.695600
  0
VERTEX
  8
0
  6
CONTINUOUS
 10
7.089720
 20
7.798120
  0
SEQEND
  8
0
  0
SOLID
  8
0
 62
    15
 10
7.081360
 20
7.695600
 11
7.722000
 21
7.319400
 12
7.033840
 22
7.612000
 13
7.674920
 23
7.235800
  0
POLYLINE
  8
0
  6
CONTINUOUS
 66
     1
 40
0.000000
 41
0.000000
  0
VERTEX
  8
0
  6
CONTINUOUS
 10
7.081360
 20
7.695600
  0
VERTEX
  8
0
  6
CONTINUOUS
 10
7.722000
 20
7.319400
  0
VERTEX
  8
0
  6
CONTINUOUS
 10
7.674920
 20
7.235800
  0
VERTEX
  8
0
  6
CONTINUOUS
 10
7.033840
 20
7.612000
  0
VERTEX
  8
0
  6
CONTINUOUS
 10
7.081360
 20
7.695600
  0
SEQEND
  8
0
  0
SOLID
  8
0
 62
    15
 10
7.033840
 20
7.612000
 11
7.674920
 21
7.235800
 12
6.957720
 22
7.551280
 13
7.598360
 23
7.175080
  0
POLYLINE
  8
0
  6
CONTINUOUS
 66
     1
 40
0.000000
 41
0.000000
  0
VERTEX
  8
0
  6
CONTINUOUS
 10
7.033840
 20
7.612000
  0
VERTEX
  8
0
  6
CONTINUOUS
 10
7.674920
 20
7.235800
  0
VERTEX
  8
0
  6
CONTINUOUS
 10
7.598360
 20
7.175080
  0
VERTEX
  8
0
  6
CONTINUOUS
 10
6.957720
 20
7.551280
  0
VERTEX
  8
0
  6
CONTINUOUS
 10
7.033840
 20
7.612000
  0
SEQEND
  8
0
  0
SOLID
  8
0
 62
    15
 10
6.957720
 20
7.551280
 11
7.598360
 21
7.175080
 12
6.861360
 22
7.517400
 13
7.502000
 23
7.141200
  0
POLYLINE
  8
0
  6
CONTINUOUS
 66
     1
 40
0.000000
 41
0.000000
  0
VERTEX
  8
0
  6
CONTINUOUS
 10
6.957720
 20
7.551280
  0
VERTEX
  8
0
  6
CONTINUOUS
 10
7.598360
 20
7.175080
  0
VERTEX
  8
0
  6
CONTINUOUS
 10
7.502000
 20
7.141200
  0
VERTEX
  8
0
  6
CONTINUOUS
 10
6.861360
 20
7.517400
  0
VERTEX
  8
0
  6
CONTINUOUS
 10
6.957720
 20
7.551280
  0
SEQEND
  8
0
  0
SOLID
  8
0
 62
    15
 10
6.861360
 20
7.517400
 11
7.502000
 21
7.141200
 12
6.754440
 22
7.515200
 13
7.395080
 23
7.139000
  0
POLYLINE
  8
0
  6
CONTINUOUS
 66
     1
 40
0.000000
 41
0.000000
  0
VERTEX
  8
0
  6
CONTINUOUS
 10
6.861360
 20
7.517400
  0
VERTEX
  8
0
  6
CONTINUOUS
 10
7.502000
 20
7.141200
  0
VERTEX
  8
0
  6
CONTINUOUS
 10
7.395080
 20
7.139000
  0
VERTEX
  8
0
  6
CONTINUOUS
 10
6.754440
 20
7.515200
  0
VERTEX
  8
0
  6
CONTINUOUS
 10
6.861360
 20
7.517400
  0
SEQEND
  8
0
  0
SOLID
  8
0
 62
    15
 10
6.546760
 20
7.620360
 11
7.187840
 21
7.244160
 12
6.446880
 22
7.345800
 13
7.087520
 23
6.969600
  0
POLYLINE
  8
0
  6
CONTINUOUS
 66
     1
 40
0.000000
 41
0.000000
  0
VERTEX
  8
0
  6
CONTINUOUS
 10
6.546760
 20
7.620360
  0
VERTEX
  8
0
  6
CONTINUOUS
 10
7.187840
 20
7.244160
  0
VERTEX
  8
0
  6
CONTINUOUS
 10
7.087520
 20
6.969600
  0
VERTEX
  8
0
  6
CONTINUOUS
 10
6.446880
 20
7.345800
  0
VERTEX
  8
0
  6
CONTINUOUS
 10
6.546760
 20
7.620360
  0
SEQEND
  8
0
  0
SOLID
  8
0
 62
    15
 10
6.754440
 20
7.515200
 11
7.395080
 21
7.139000
 12
6.646640
 22
7.547760
 13
7.287280
 23
7.172000
  0
POLYLINE
  8
0
  6
CONTINUOUS
 66
     1
 40
0.000000
 41
0.000000
  0
VERTEX
  8
0
  6
CONTINUOUS
 10
6.754440
 20
7.515200
  0
VERTEX
  8
0
  6
CONTINUOUS
 10
7.395080
 20
7.139000
  0
VERTEX
  8
0
  6
CONTINUOUS
 10
7.287280
 20
7.172000
  0
VERTEX
  8
0
  6
CONTINUOUS
 10
6.646640
 20
7.547760
  0
VERTEX
  8
0
  6
CONTINUOUS
 10
6.754440
 20
7.515200
  0
SEQEND
  8
0
  0
SOLID
  8
0
 62
    15
 10
6.446880
 20
7.345800
 11
7.087520
 21
6.969600
 12
6.212360
 22
7.307080
 13
6.853000
 23
6.930880
  0
POLYLINE
  8
0
  6
CONTINUOUS
 66
     1
 40
0.000000
 41
0.000000
  0
VERTEX
  8
0
  6
CONTINUOUS
 10
6.446880
 20
7.345800
  0
VERTEX
  8
0
  6
CONTINUOUS
 10
7.087520
 20
6.969600
  0
VERTEX
  8
0
  6
CONTINUOUS
 10
6.853000
 20
6.930880
  0
VERTEX
  8
0
  6
CONTINUOUS
 10
6.212360
 20
7.307080
  0
VERTEX
  8
0
  6
CONTINUOUS
 10
6.446880
 20
7.345800
  0
SEQEND
  8
0
  0
SOLID
  8
0
 62
    15
 10
6.212360
 20
7.307080
 11
6.853000
 21
6.930880
 12
5.958480
 22
7.248120
 13
6.599120
 23
6.871920
  0
POLYLINE
  8
0
  6
CONTINUOUS
 66
     1
 40
0.000000
 41
0.000000
  0
VERTEX
  8
0
  6
CONTINUOUS
 10
6.212360
 20
7.307080
  0
VERTEX
  8
0
  6
CONTINUOUS
 10
6.853000
 20
6.930880
  0
VERTEX
  8
0
  6
CONTINUOUS
 10
6.599120
 20
6.871920
  0
VERTEX
  8
0
  6
CONTINUOUS
 10
5.958480
 20
7.248120
  0
VERTEX
  8
0
  6
CONTINUOUS
 10
6.212360
 20
7.307080
  0
SEQEND
  8
0
  0
SOLID
  8
0
 62
    15
 10
5.958480
 20
7.248120
 11
6.599120
 21
6.871920
 12
5.687880
 22
7.168040
 13
6.328960
 23
6.791840
  0
POLYLINE
  8
0
  6
CONTINUOUS
 66
     1
 40
0.000000
 41
0.000000
  0
VERTEX
  8
0
  6
CONTINUOUS
 10
5.958480
 20
7.248120
  0
VERTEX
  8
0
  6
CONTINUOUS
 10
6.599120
 20
6.871920
  0
VERTEX
  8
0
  6
CONTINUOUS
 10
6.328960
 20
6.791840
  0
VERTEX
  8
0
  6
CONTINUOUS
 10
5.687880
 20
7.168040
  0
VERTEX
  8
0
  6
CONTINUOUS
 10
5.958480
 20
7.248120
  0
SEQEND
  8
0
  0
SOLID
  8
0
 62
    15
 10
5.687880
 20
7.168040
 11
6.328960
 21
6.791840
 12
5.404960
 22
7.066840
 13
6.045600
 23
6.690640
  0
POLYLINE
  8
0
  6
CONTINUOUS
 66
     1
 40
0.000000
 41
0.000000
  0
VERTEX
  8
0
  6
CONTINUOUS
 10
5.687880
 20
7.168040
  0
VERTEX
  8
0
  6
CONTINUOUS
 10
6.328960
 20
6.791840
  0
VERTEX
  8
0
  6
CONTINUOUS
 10
6.045600
 20
6.690640
  0
VERTEX
  8
0
  6
CONTINUOUS
 10
5.404960
 20
7.066840
  0
VERTEX
  8
0
  6
CONTINUOUS
 10
5.687880
 20
7.168040
  0
SEQEND
  8
0
  0
SOLID
  8
0
 62
    15
 10
5.404960
 20
7.066840
 11
6.045600
 21
6.690640
 12
4.812280
 22
6.796240
 13
5.453360
 23
6.420040
  0
POLYLINE
  8
0
  6
CONTINUOUS
 66
     1
 40
0.000000
 41
0.000000
  0
VERTEX
  8
0
  6
CONTINUOUS
 10
5.404960
 20
7.066840
  0
VERTEX
  8
0
  6
CONTINUOUS
 10
6.045600
 20
6.690640
  0
VERTEX
  8
0
  6
CONTINUOUS
 10
5.453360
 20
6.420040
  0
VERTEX
  8
0
  6
CONTINUOUS
 10
4.812280
 20
6.796240
  0
VERTEX
  8
0
  6
CONTINUOUS
 10
5.404960
 20
7.066840
  0
SEQEND
  8
0
  0
SOLID
  8
0
 62
    15
 10
4.812280
 20
6.796240
 11
5.453360
 21
6.420040
 12
4.207720
 22
6.430600
 13
4.848360
 23
6.054400
  0
POLYLINE
  8
0
  6
CONTINUOUS
 66
     1
 40
0.000000
 41
0.000000
  0
VERTEX
  8
0
  6
CONTINUOUS
 10
4.812280
 20
6.796240
  0
VERTEX
  8
0
  6
CONTINUOUS
 10
5.453360
 20
6.420040
  0
VERTEX
  8
0
  6
CONTINUOUS
 10
4.848360
 20
6.054400
  0
VERTEX
  8
0
  6
CONTINUOUS
 10
4.207720
 20
6.430600
  0
VERTEX
  8
0
  6
CONTINUOUS
 10
4.812280
 20
6.796240
  0
SEQEND
  8
0
  0
SOLID
  8
0
 62
    15
 10
4.207720
 20
6.430600
 11
4.848360
 21
6.054400
 12
3.908520
 22
6.210600
 13
4.549160
 23
5.834400
  0
POLYLINE
  8
0
  6
CONTINUOUS
 66
     1
 40
0.000000
 41
0.000000
  0
VERTEX
  8
0
  6
CONTINUOUS
 10
4.207720
 20
6.430600
  0
VERTEX
  8
0
  6
CONTINUOUS
 10
4.848360
 20
6.054400
  0
VERTEX
  8
0
  6
CONTINUOUS
 10
4.549160
 20
5.834400
  0
VERTEX
  8
0
  6
CONTINUOUS
 10
3.908520
 20
6.210600
  0
VERTEX
  8
0
  6
CONTINUOUS
 10
4.207720
 20
6.430600
  0
SEQEND
  8
0
  0
SOLID
  8
0
 62
    15
 10
3.908520
 20
6.210600
 11
4.549160
 21
5.834400
 12
3.616360
 22
5.964200
 13
4.257000
 23
5.588000
  0
POLYLINE
  8
0
  6
CONTINUOUS
 66
     1
 40
0.000000
 41
0.000000
  0
VERTEX
  8
0
  6
CONTINUOUS
 10
3.908520
 20
6.210600
  0
VERTEX
  8
0
  6
CONTINUOUS
 10
4.549160
 20
5.834400
  0
VERTEX
  8
0
  6
CONTINUOUS
 10
4.257000
 20
5.588000
  0
VERTEX
  8
0
  6
CONTINUOUS
 10
3.616360
 20
5.964200
  0
VERTEX
  8
0
  6
CONTINUOUS
 10
3.908520
 20
6.210600
  0
SEQEND
  8
0
  0
SOLID
  8
0
 62
    15
 10
5.238640
 20
8.275520
 11
5.879280
 21
7.899320
 12
5.238640
 22
8.272000
 13
5.879280
 23
7.895800
  0
POLYLINE
  8
0
  6
CONTINUOUS
 66
     1
 40
0.000000
 41
0.000000
  0
VERTEX
  8
0
  6
CONTINUOUS
 10
5.238640
 20
8.275520
  0
VERTEX
  8
0
  6
CONTINUOUS
 10
5.879280
 20
7.899320
  0
VERTEX
  8
0
  6
CONTINUOUS
 10
5.879280
 20
7.895800
  0
VERTEX
  8
0
  6
CONTINUOUS
 10
5.238640
 20
8.272000
  0
VERTEX
  8
0
  6
CONTINUOUS
 10
5.238640
 20
8.275520
  0
SEQEND
  8
0
  0
SOLID
  8
0
 62
    15
 10
3.334320
 20
5.691400
 11
3.974960
 21
5.315200
 12
3.065480
 22
5.391320
 13
3.706120
 23
5.015120
  0
POLYLINE
  8
0
  6
CONTINUOUS
 66
     1
 40
0.000000
 41
0.000000
  0
VERTEX
  8
0
  6
CONTINUOUS
 10
3.334320
 20
5.691400
  0
VERTEX
  8
0
  6
CONTINUOUS
 10
3.974960
 20
5.315200
  0
VERTEX
  8
0
  6
CONTINUOUS
 10
3.706120
 20
5.015120
  0
VERTEX
  8
0
  6
CONTINUOUS
 10
3.065480
 20
5.391320
  0
VERTEX
  8
0
  6
CONTINUOUS
 10
3.334320
 20
5.691400
  0
SEQEND
  8
0
  0
SOLID
  8
0
 62
    15
 10
3.065480
 20
5.391320
 11
3.706120
 21
5.015120
 12
2.813360
 22
5.063080
 13
3.454000
 23
4.686880
  0
POLYLINE
  8
0
  6
CONTINUOUS
 66
     1
 40
0.000000
 41
0.000000
  0
VERTEX
  8
0
  6
CONTINUOUS
 10
3.065480
 20
5.391320
  0
VERTEX
  8
0
  6
CONTINUOUS
 10
3.706120
 20
5.015120
  0
VERTEX
  8
0
  6
CONTINUOUS
 10
3.454000
 20
4.686880
  0
VERTEX
  8
0
  6
CONTINUOUS
 10
2.813360
 20
5.063080
  0
VERTEX
  8
0
  6
CONTINUOUS
 10
3.065480
 20
5.391320
  0
SEQEND
  8
0
  0
SOLID
  8
0
 62
    15
 10
2.813360
 20
5.063080
 11
3.454000
 21
4.686880
 12
2.581040
 22
4.705800
 13
3.222120
 23
4.329600
  0
POLYLINE
  8
0
  6
CONTINUOUS
 66
     1
 40
0.000000
 41
0.000000
  0
VERTEX
  8
0
  6
CONTINUOUS
 10
2.813360
 20
5.063080
  0
VERTEX
  8
0
  6
CONTINUOUS
 10
3.454000
 20
4.686880
  0
VERTEX
  8
0
  6
CONTINUOUS
 10
3.222120
 20
4.329600
  0
VERTEX
  8
0
  6
CONTINUOUS
 10
2.581040
 20
4.705800
  0
VERTEX
  8
0
  6
CONTINUOUS
 10
2.813360
 20
5.063080
  0
SEQEND
  8
0
  0
SOLID
  8
0
 62
    15
 10
2.581040
 20
4.705800
 11
3.222120
 21
4.329600
 12
2.372040
 22
4.319040
 13
3.013120
 23
3.942840
  0
POLYLINE
  8
0
  6
CONTINUOUS
 66
     1
 40
0.000000
 41
0.000000
  0
VERTEX
  8
0
  6
CONTINUOUS
 10
2.581040
 20
4.705800
  0
VERTEX
  8
0
  6
CONTINUOUS
 10
3.222120
 20
4.329600
  0
VERTEX
  8
0
  6
CONTINUOUS
 10
3.013120
 20
3.942840
  0
VERTEX
  8
0
  6
CONTINUOUS
 10
2.372040
 20
4.319040
  0
VERTEX
  8
0
  6
CONTINUOUS
 10
2.581040
 20
4.705800
  0
SEQEND
  8
0
  0
SOLID
  8
0
 62
    15
 10
2.372040
 20
4.319040
 11
3.013120
 21
3.942840
 12
2.189880
 22
3.902360
 13
2.830520
 23
3.526160
  0
POLYLINE
  8
0
  6
CONTINUOUS
 66
     1
 40
0.000000
 41
0.000000
  0
VERTEX
  8
0
  6
CONTINUOUS
 10
2.372040
 20
4.319040
  0
VERTEX
  8
0
  6
CONTINUOUS
 10
3.013120
 20
3.942840
  0
VERTEX
  8
0
  6
CONTINUOUS
 10
2.830520
 20
3.526160
  0
VERTEX
  8
0
  6
CONTINUOUS
 10
2.189880
 20
3.902360
  0
VERTEX
  8
0
  6
CONTINUOUS
 10
2.372040
 20
4.319040
  0
SEQEND
  8
0
  0
SOLID
  8
0
 62
    15
 10
2.189880
 20
3.902360
 11
2.830520
 21
3.526160
 12
1.777600
 22
3.801160
 13
2.418240
 23
3.425400
  0
POLYLINE
  8
0
  6
CONTINUOUS
 66
     1
 40
0.000000
 41
0.000000
  0
VERTEX
  8
0
  6
CONTINUOUS
 10
2.189880
 20
3.902360
  0
VERTEX
  8
0
  6
CONTINUOUS
 10
2.830520
 20
3.526160
  0
VERTEX
  8
0
  6
CONTINUOUS
 10
2.418240
 20
3.425400
  0
VERTEX
  8
0
  6
CONTINUOUS
 10
1.777600
 20
3.801160
  0
VERTEX
  8
0
  6
CONTINUOUS
 10
2.189880
 20
3.902360
  0
SEQEND
  8
0
  0
SOLID
  8
0
 62
    15
 10
1.777600
 20
3.801160
 11
2.418240
 21
3.425400
 12
1.767920
 22
3.773440
 13
2.408560
 23
3.397240
  0
POLYLINE
  8
0
  6
CONTINUOUS
 66
     1
 40
0.000000
 41
0.000000
  0
VERTEX
  8
0
  6
CONTINUOUS
 10
1.777600
 20
3.801160
  0
VERTEX
  8
0
  6
CONTINUOUS
 10
2.418240
 20
3.425400
  0
VERTEX
  8
0
  6
CONTINUOUS
 10
2.408560
 20
3.397240
  0
VERTEX
  8
0
  6
CONTINUOUS
 10
1.767920
 20
3.773440
  0
VERTEX
  8
0
  6
CONTINUOUS
 10
1.777600
 20
3.801160
  0
SEQEND
  8
0
  0
SOLID
  8
0
 62
    15
 10
1.767920
 20
3.773440
 11
2.408560
 21
3.397240
 12
1.809720
 22
3.687640
 13
2.450360
 23
3.311440
  0
POLYLINE
  8
0
  6
CONTINUOUS
 66
     1
 40
0.000000
 41
0.000000
  0
VERTEX
  8
0
  6
CONTINUOUS
 10
1.767920
 20
3.773440
  0
VERTEX
  8
0
  6
CONTINUOUS
 10
2.408560
 20
3.397240
  0
VERTEX
  8
0
  6
CONTINUOUS
 10
2.450360
 20
3.311440
  0
VERTEX
  8
0
  6
CONTINUOUS
 10
1.809720
 20
3.687640
  0
VERTEX
  8
0
  6
CONTINUOUS
 10
1.767920
 20
3.773440
  0
SEQEND
  8
0
  0
SOLID
  8
0
 62
    15
 10
1.809720
 20
3.687640
 11
2.450360
 21
3.311440
 12
1.815000
 22
3.591280
 13
2.456080
 23
3.215080
  0
POLYLINE
  8
0
  6
CONTINUOUS
 66
     1
 40
0.000000
 41
0.000000
  0
VERTEX
  8
0
  6
CONTINUOUS
 10
1.809720
 20
3.687640
  0
VERTEX
  8
0
  6
CONTINUOUS
 10
2.450360
 20
3.311440
  0
VERTEX
  8
0
  6
CONTINUOUS
 10
2.456080
 20
3.215080
  0
VERTEX
  8
0
  6
CONTINUOUS
 10
1.815000
 20
3.591280
  0
VERTEX
  8
0
  6
CONTINUOUS
 10
1.809720
 20
3.687640
  0
SEQEND
  8
0
  0
SOLID
  8
0
 62
    15
 10
1.815000
 20
3.591280
 11
2.456080
 21
3.215080
 12
1.788600
 22
3.494920
 13
2.429240
 23
3.118720
  0
POLYLINE
  8
0
  6
CONTINUOUS
 66
     1
 40
0.000000
 41
0.000000
  0
VERTEX
  8
0
  6
CONTINUOUS
 10
1.815000
 20
3.591280
  0
VERTEX
  8
0
  6
CONTINUOUS
 10
2.456080
 20
3.215080
  0
VERTEX
  8
0
  6
CONTINUOUS
 10
2.429240
 20
3.118720
  0
VERTEX
  8
0
  6
CONTINUOUS
 10
1.788600
 20
3.494920
  0
VERTEX
  8
0
  6
CONTINUOUS
 10
1.815000
 20
3.591280
  0
SEQEND
  8
0
  0
SOLID
  8
0
 62
    15
 10
1.788600
 20
3.494920
 11
2.429240
 21
3.118720
 12
1.734480
 22
3.407360
 13
2.375120
 23
3.031160
  0
POLYLINE
  8
0
  6
CONTINUOUS
 66
     1
 40
0.000000
 41
0.000000
  0
VERTEX
  8
0
  6
CONTINUOUS
 10
1.788600
 20
3.494920
  0
VERTEX
  8
0
  6
CONTINUOUS
 10
2.429240
 20
3.118720
  0
VERTEX
  8
0
  6
CONTINUOUS
 10
2.375120
 20
3.031160
  0
VERTEX
  8
0
  6
CONTINUOUS
 10
1.734480
 20
3.407360
  0
VERTEX
  8
0
  6
CONTINUOUS
 10
1.788600
 20
3.494920
  0
SEQEND
  8
0
  0
SOLID
  8
0
 62
    15
 10
1.734480
 20
3.407360
 11
2.375120
 21
3.031160
 12
1.657480
 22
3.337840
 13
2.298120
 23
2.961640
  0
POLYLINE
  8
0
  6
CONTINUOUS
 66
     1
 40
0.000000
 41
0.000000
  0
VERTEX
  8
0
  6
CONTINUOUS
 10
1.734480
 20
3.407360
  0
VERTEX
  8
0
  6
CONTINUOUS
 10
2.375120
 20
3.031160
  0
VERTEX
  8
0
  6
CONTINUOUS
 10
2.298120
 20
2.961640
  0
VERTEX
  8
0
  6
CONTINUOUS
 10
1.657480
 20
3.337840
  0
VERTEX
  8
0
  6
CONTINUOUS
 10
1.734480
 20
3.407360
  0
SEQEND
  8
0
  0
SOLID
  8
0
 62
    15
 10
1.562440
 20
3.296480
 11
2.203080
 21
2.920280
 12
1.453760
 22
3.292520
 13
2.094400
 23
2.916320
  0
POLYLINE
  8
0
  6
CONTINUOUS
 66
     1
 40
0.000000
 41
0.000000
  0
VERTEX
  8
0
  6
CONTINUOUS
 10
1.562440
 20
3.296480
  0
VERTEX
  8
0
  6
CONTINUOUS
 10
2.203080
 20
2.920280
  0
VERTEX
  8
0
  6
CONTINUOUS
 10
2.094400
 20
2.916320
  0
VERTEX
  8
0
  6
CONTINUOUS
 10
1.453760
 20
3.292520
  0
VERTEX
  8
0
  6
CONTINUOUS
 10
1.562440
 20
3.296480
  0
SEQEND
  8
0
  0
SOLID
  8
0
 62
    15
 10
1.657480
 20
3.337840
 11
2.298120
 21
2.961640
 12
1.562440
 22
3.296480
 13
2.203080
 23
2.920280
  0
POLYLINE
  8
0
  6
CONTINUOUS
 66
     1
 40
0.000000
 41
0.000000
  0
VERTEX
  8
0
  6
CONTINUOUS
 10
1.657480
 20
3.337840
  0
VERTEX
  8
0
  6
CONTINUOUS
 10
2.298120
 20
2.961640
  0
VERTEX
  8
0
  6
CONTINUOUS
 10
2.203080
 20
2.920280
  0
VERTEX
  8
0
  6
CONTINUOUS
 10
1.562440
 20
3.296480
  0
VERTEX
  8
0
  6
CONTINUOUS
 10
1.657480
 20
3.337840
  0
SEQEND
  8
0
  0
SOLID
  8
0
 62
    15
 10
1.268960
 20
2.972200
 11
1.909600
 21
2.596000
 12
1.266760
 22
2.972200
 13
1.907400
 23
2.596000
  0
POLYLINE
  8
0
  6
CONTINUOUS
 66
     1
 40
0.000000
 41
0.000000
  0
VERTEX
  8
0
  6
CONTINUOUS
 10
1.268960
 20
2.972200
  0
VERTEX
  8
0
  6
CONTINUOUS
 10
1.909600
 20
2.596000
  0
VERTEX
  8
0
  6
CONTINUOUS
 10
1.907400
 20
2.596000
  0
VERTEX
  8
0
  6
CONTINUOUS
 10
1.266760
 20
2.972200
  0
VERTEX
  8
0
  6
CONTINUOUS
 10
1.268960
 20
2.972200
  0
SEQEND
  8
0
  0
SOLID
  8
0
 62
    15
 10
1.335840
 20
3.335200
 11
1.976480
 21
2.959000
 12
1.268960
 22
2.972200
 13
1.909600
 23
2.596000
  0
POLYLINE
  8
0
  6
CONTINUOUS
 66
     1
 40
0.000000
 41
0.000000
  0
VERTEX
  8
0
  6
CONTINUOUS
 10
1.335840
 20
3.335200
  0
VERTEX
  8
0
  6
CONTINUOUS
 10
1.976480
 20
2.959000
  0
VERTEX
  8
0
  6
CONTINUOUS
 10
1.909600
 20
2.596000
  0
VERTEX
  8
0
  6
CONTINUOUS
 10
1.268960
 20
2.972200
  0
VERTEX
  8
0
  6
CONTINUOUS
 10
1.335840
 20
3.335200
  0
SEQEND
  8
0
  0
SOLID
  8
0
 62
    15
 10
1.453760
 20
3.292520
 11
2.094400
 21
2.916320
 12
1.335840
 22
3.335200
 13
1.976480
 23
2.959000
  0
POLYLINE
  8
0
  6
CONTINUOUS
 66
     1
 40
0.000000
 41
0.000000
  0
VERTEX
  8
0
  6
CONTINUOUS
 10
1.453760
 20
3.292520
  0
VERTEX
  8
0
  6
CONTINUOUS
 10
2.094400
 20
2.916320
  0
VERTEX
  8
0
  6
CONTINUOUS
 10
1.976480
 20
2.959000
  0
VERTEX
  8
0
  6
CONTINUOUS
 10
1.335840
 20
3.335200
  0
VERTEX
  8
0
  6
CONTINUOUS
 10
1.453760
 20
3.292520
  0
SEQEND
  8
0
  0
SOLID
  8
0
 62
    15
 10
1.266760
 20
2.972200
 11
1.907400
 21
2.596000
 12
0.914320
 22
3.048320
 13
1.554960
 23
2.672120
  0
POLYLINE
  8
0
  6
CONTINUOUS
 66
     1
 40
0.000000
 41
0.000000
  0
VERTEX
  8
0
  6
CONTINUOUS
 10
1.266760
 20
2.972200
  0
VERTEX
  8
0
  6
CONTINUOUS
 10
1.907400
 20
2.596000
  0
VERTEX
  8
0
  6
CONTINUOUS
 10
1.554960
 20
2.672120
  0
VERTEX
  8
0
  6
CONTINUOUS
 10
0.914320
 20
3.048320
  0
VERTEX
  8
0
  6
CONTINUOUS
 10
1.266760
 20
2.972200
  0
SEQEND
  8
0
  0
SOLID
  8
0
 62
    15
 10
5.238640
 20
8.272000
 11
5.879280
 21
7.895800
 12
5.542680
 22
7.905920
 13
6.183320
 23
7.529720
  0
POLYLINE
  8
0
  6
CONTINUOUS
 66
     1
 40
0.000000
 41
0.000000
  0
VERTEX
  8
0
  6
CONTINUOUS
 10
5.238640
 20
8.272000
  0
VERTEX
  8
0
  6
CONTINUOUS
 10
5.879280
 20
7.895800
  0
VERTEX
  8
0
  6
CONTINUOUS
 10
6.183320
 20
7.529720
  0
VERTEX
  8
0
  6
CONTINUOUS
 10
5.542680
 20
7.905920
  0
VERTEX
  8
0
  6
CONTINUOUS
 10
5.238640
 20
8.272000
  0
SEQEND
  8
0
  0
POLYLINE
  8
0
  6
CONTINUOUS
 66
     1
 40
0.000000
 41
0.000000
  0
VERTEX
  8
0
  6
CONTINUOUS
 10
5.238640
 20
8.272000
  0
VERTEX
  8
0
  6
CONTINUOUS
 10
5.542680
 20
7.905920
  0
VERTEX
  8
0
  6
CONTINUOUS
 10
6.009960
 20
8.284760
  0
VERTEX
  8
0
  6
CONTINUOUS
 10
7.430280
 20
8.280800
  0
VERTEX
  8
0
  6
CONTINUOUS
 10
7.336120
 20
7.868520
  0
VERTEX
  8
0
  6
CONTINUOUS
 10
7.067720
 20
7.925280
  0
VERTEX
  8
0
  6
CONTINUOUS
 10
7.074320
 20
7.930560
  0
VERTEX
  8
0
  6
CONTINUOUS
 10
7.050560
 20
7.914720
  0
VERTEX
  8
0
  6
CONTINUOUS
 10
7.089720
 20
7.798120
  0
VERTEX
  8
0
  6
CONTINUOUS
 10
7.081360
 20
7.695600
  0
VERTEX
  8
0
  6
CONTINUOUS
 10
7.033840
 20
7.612000
  0
VERTEX
  8
0
  6
CONTINUOUS
 10
6.957720
 20
7.551280
  0
VERTEX
  8
0
  6
CONTINUOUS
 10
6.861360
 20
7.517400
  0
VERTEX
  8
0
  6
CONTINUOUS
 10
6.754440
 20
7.515200
  0
VERTEX
  8
0
  6
CONTINUOUS
 10
6.646640
 20
7.547760
  0
VERTEX
  8
0
  6
CONTINUOUS
 10
6.546760
 20
7.620360
  0
VERTEX
  8
0
  6
CONTINUOUS
 10
6.446880
 20
7.345800
  0
VERTEX
  8
0
  6
CONTINUOUS
 10
6.212360
 20
7.307080
  0
VERTEX
  8
0
  6
CONTINUOUS
 10
5.958480
 20
7.248120
  0
VERTEX
  8
0
  6
CONTINUOUS
 10
5.687880
 20
7.168040
  0
VERTEX
  8
0
  6
CONTINUOUS
 10
5.404960
 20
7.066840
  0
VERTEX
  8
0
  6
CONTINUOUS
 10
4.812280
 20
6.796240
  0
VERTEX
  8
0
  6
CONTINUOUS
 10
4.207720
 20
6.430600
  0
VERTEX
  8
0
  6
CONTINUOUS
 10
3.908520
 20
6.210600
  0
VERTEX
  8
0
  6
CONTINUOUS
 10
3.616360
 20
5.964200
  0
VERTEX
  8
0
  6
CONTINUOUS
 10
3.334320
 20
5.691400
  0
VERTEX
  8
0
  6
CONTINUOUS
 10
3.065480
 20
5.391320
  0
VERTEX
  8
0
  6
CONTINUOUS
 10
2.813360
 20
5.063080
  0
VERTEX
  8
0
  6
CONTINUOUS
 10
2.581040
 20
4.705800
  0
VERTEX
  8
0
  6
CONTINUOUS
 10
2.372040
 20
4.319040
  0
VERTEX
  8
0
  6
CONTINUOUS
 10
2.189880
 20
3.902360
  0
VERTEX
  8
0
  6
CONTINUOUS
 10
1.777600
 20
3.801160
  0
VERTEX
  8
0
  6
CONTINUOUS
 10
1.767920
 20
3.773440
  0
VERTEX
  8
0
  6
CONTINUOUS
 10
1.809720
 20
3.687640
  0
VERTEX
  8
0
  6
CONTINUOUS
 10
1.815000
 20
3.591280
  0
VERTEX
  8
0
  6
CONTINUOUS
 10
1.788600
 20
3.494920
  0
VERTEX
  8
0
  6
CONTINUOUS
 10
1.734480
 20
3.407360
  0
VERTEX
  8
0
  6
CONTINUOUS
 10
1.657480
 20
3.337840
  0
VERTEX
  8
0
  6
CONTINUOUS
 10
1.562440
 20
3.296480
  0
VERTEX
  8
0
  6
CONTINUOUS
 10
1.453760
 20
3.292520
  0
VERTEX
  8
0
  6
CONTINUOUS
 10
1.335840
 20
3.335200
  0
VERTEX
  8
0
  6
CONTINUOUS
 10
1.268960
 20
2.972200
  0
VERTEX
  8
0
  6
CONTINUOUS
 10
1.266760
 20
2.972200
  0
VERTEX
  8
0
  6
CONTINUOUS
 10
0.914320
 20
3.048320
  0
VERTEX
  8
0
  6
CONTINUOUS
 10
0.916520
 20
3.149080
  0
VERTEX
  8
0
  6
CONTINUOUS
 10
0.890120
 20
4.928880
  0
VERTEX
  8
0
  6
CONTINUOUS
 10
5.022600
 20
8.275520
  0
VERTEX
  8
0
  6
CONTINUOUS
 10
5.238640
 20
8.275520
  0
VERTEX
  8
0
  6
CONTINUOUS
 10
5.238640
 20
8.272000
  0
SEQEND
  8
0
  0
TEXT
  8
0
 10
2.757040
 20
2.839760
 40
0.137851
  1
BA  619
 41
1.000000
  7
SN0
 71
     0
 72
     5
 11
3.346404
 21
2.839760
  0
TEXT
  8
0
 10
2.527360
 20
2.648360
 40
0.137851
  1
1-3/4" x 8-3/8"
 41
1.000000
  7
SN0
 71
     0
 72
     5
 11
3.573303
 21
2.648360
  0
POLYLINE
  8
0
  6
CONTINUOUS
 66
     1
 40
0.014080
 41
0.014080
  0
VERTEX
  8
0
  6
CONTINUOUS
 10
0.575080
 20
7.296960
  0
VERTEX
  8
0
  6
CONTINUOUS
 10
0.813120
 20
7.300040
  0
VERTEX
  8
0
  6
CONTINUOUS
 10
1.050720
 20
7.303560
  0
VERTEX
  8
0
  6
CONTINUOUS
 10
1.049840
 20
7.905040
  0
VERTEX
  8
0
  6
CONTINUOUS
 10
1.944360
 20
9.007680
  0
VERTEX
  8
0
  6
CONTINUOUS
 10
2.206160
 20
8.675920
  0
VERTEX
  8
0
  6
CONTINUOUS
 10
1.993640
 20
8.502560
  0
VERTEX
  8
0
  6
CONTINUOUS
 10
1.993640
 20
8.510920
  0
VERTEX
  8
0
  6
CONTINUOUS
 10
1.990560
 20
8.482320
  0
VERTEX
  8
0
  6
CONTINUOUS
 10
2.038960
 20
8.470440
  0
VERTEX
  8
0
  6
CONTINUOUS
 10
2.081200
 20
8.453280
  0
VERTEX
  8
0
  6
CONTINUOUS
 10
2.117720
 20
8.432160
  0
VERTEX
  8
0
  6
CONTINUOUS
 10
2.148520
 20
8.407080
  0
VERTEX
  8
0
  6
CONTINUOUS
 10
2.173600
 20
8.378920
  0
VERTEX
  8
0
  6
CONTINUOUS
 10
2.192960
 20
8.347680
  0
VERTEX
  8
0
  6
CONTINUOUS
 10
2.207040
 20
8.314680
  0
VERTEX
  8
0
  6
CONTINUOUS
 10
2.211000
 20
8.302800
  0
VERTEX
  8
0
  6
CONTINUOUS
 10
2.216280
 20
8.279480
  0
VERTEX
  8
0
  6
CONTINUOUS
 10
2.219360
 20
8.255720
  0
VERTEX
  8
0
  6
CONTINUOUS
 10
2.220240
 20
8.231080
  0
VERTEX
  8
0
  6
CONTINUOUS
 10
2.218920
 20
8.206440
  0
VERTEX
  8
0
  6
CONTINUOUS
 10
2.215400
 20
8.181800
  0
VERTEX
  8
0
  6
CONTINUOUS
 10
2.210120
 20
8.157160
  0
VERTEX
  8
0
  6
CONTINUOUS
 10
2.192960
 20
8.109200
  0
VERTEX
  8
0
  6
CONTINUOUS
 10
2.167880
 20
8.063000
  0
VERTEX
  8
0
  6
CONTINUOUS
 10
2.152480
 20
8.041440
  0
VERTEX
  8
0
  6
CONTINUOUS
 10
2.115960
 20
8.000960
  0
VERTEX
  8
0
  6
CONTINUOUS
 10
2.095280
 20
7.982920
  0
VERTEX
  8
0
  6
CONTINUOUS
 10
2.072400
 20
7.966200
  0
VERTEX
  8
0
  6
CONTINUOUS
 10
2.048200
 20
7.951240
  0
VERTEX
  8
0
  6
CONTINUOUS
 10
2.009040
 20
7.931880
  0
VERTEX
  8
0
  6
CONTINUOUS
 10
1.965920
 20
7.917360
  0
VERTEX
  8
0
  6
CONTINUOUS
 10
1.935560
 20
7.910320
  0
VERTEX
  8
0
  6
CONTINUOUS
 10
1.903440
 20
7.905920
  0
VERTEX
  8
0
  6
CONTINUOUS
 10
2.054360
 20
7.655120
  0
VERTEX
  8
0
  6
CONTINUOUS
 10
1.995840
 20
7.555240
  0
VERTEX
  8
0
  6
CONTINUOUS
 10
1.937320
 20
7.448320
  0
VERTEX
  8
0
  6
CONTINUOUS
 10
1.880120
 20
7.334360
  0
VERTEX
  8
0
  6
CONTINUOUS
 10
1.823800
 20
7.213800
  0
VERTEX
  8
0
  6
CONTINUOUS
 10
1.769240
 20
7.086640
  0
VERTEX
  8
0
  6
CONTINUOUS
 10
1.716440
 20
6.953320
  0
VERTEX
  8
0
  6
CONTINUOUS
 10
1.665400
 20
6.813840
  0
VERTEX
  8
0
  6
CONTINUOUS
 10
1.594120
 20
6.594720
  0
VERTEX
  8
0
  6
CONTINUOUS
 10
1.550560
 20
6.441600
  0
VERTEX
  8
0
  6
CONTINUOUS
 10
1.509640
 20
6.284080
  0
VERTEX
  8
0
  6
CONTINUOUS
 10
1.473120
 20
6.121280
  0
VERTEX
  8
0
  6
CONTINUOUS
 10
1.440120
 20
5.954080
  0
VERTEX
  8
0
  6
CONTINUOUS
 10
1.411080
 20
5.782920
  0
VERTEX
  8
0
  6
CONTINUOUS
 10
1.387320
 20
5.607800
  0
VERTEX
  8
0
  6
CONTINUOUS
 10
1.367960
 20
5.428720
  0
VERTEX
  8
0
  6
CONTINUOUS
 10
1.354320
 20
5.246560
  0
VERTEX
  8
0
  6
CONTINUOUS
 10
1.345960
 20
5.060880
  0
VERTEX
  8
0
  6
CONTINUOUS
 10
1.343760
 20
4.872560
  0
VERTEX
  8
0
  6
CONTINUOUS
 10
1.347720
 20
4.681600
  0
VERTEX
  8
0
  6
CONTINUOUS
 10
1.352120
 20
4.585240
  0
VERTEX
  8
0
  6
CONTINUOUS
 10
1.358280
 20
4.488440
  0
VERTEX
  8
0
  6
CONTINUOUS
 10
1.366200
 20
4.390760
  0
VERTEX
  8
0
  6
CONTINUOUS
 10
1.375880
 20
4.292640
  0
VERTEX
  8
0
  6
CONTINUOUS
 10
1.387320
 20
4.194520
  0
VERTEX
  8
0
  6
CONTINUOUS
 10
1.415920
 20
3.996080
  0
VERTEX
  8
0
  6
CONTINUOUS
 10
1.433080
 20
3.896640
  0
VERTEX
  8
0
  6
CONTINUOUS
 10
1.452440
 20
3.796760
  0
VERTEX
  8
0
  6
CONTINUOUS
 10
1.473560
 20
3.696440
  0
VERTEX
  8
0
  6
CONTINUOUS
 10
1.496440
 20
3.596120
  0
VERTEX
  8
0
  6
CONTINUOUS
 10
1.549240
 20
3.394160
  0
VERTEX
  8
0
  6
CONTINUOUS
 10
1.579160
 20
3.292960
  0
VERTEX
  8
0
  6
CONTINUOUS
 10
1.610840
 20
3.191760
  0
VERTEX
  8
0
  6
CONTINUOUS
 10
1.681240
 20
2.989360
  0
VERTEX
  8
0
  6
CONTINUOUS
 10
1.720400
 20
2.887720
  0
VERTEX
  8
0
  6
CONTINUOUS
 10
1.761320
 20
2.786520
  0
VERTEX
  8
0
  6
CONTINUOUS
 10
1.804880
 20
2.684880
  0
VERTEX
  8
0
  6
CONTINUOUS
 10
1.851080
 20
2.583680
  0
VERTEX
  8
0
  6
CONTINUOUS
 10
1.899480
 20
2.482480
  0
VERTEX
  8
0
  6
CONTINUOUS
 10
1.977360
 20
2.331120
  0
VERTEX
  8
0
  6
CONTINUOUS
 10
2.060960
 20
2.179760
  0
VERTEX
  8
0
  6
CONTINUOUS
 10
1.881000
 20
1.795640
  0
VERTEX
  8
0
  6
CONTINUOUS
 10
1.896400
 20
1.771000
  0
VERTEX
  8
0
  6
CONTINUOUS
 10
1.921040
 20
1.769240
  0
VERTEX
  8
0
  6
CONTINUOUS
 10
1.944800
 20
1.765280
  0
VERTEX
  8
0
  6
CONTINUOUS
 10
1.978680
 20
1.754280
  0
VERTEX
  8
0
  6
CONTINUOUS
 10
2.010800
 20
1.738440
  0
VERTEX
  8
0
  6
CONTINUOUS
 10
2.031040
 20
1.725240
  0
VERTEX
  8
0
  6
CONTINUOUS
 10
2.068000
 20
1.693120
  0
VERTEX
  8
0
  6
CONTINUOUS
 10
2.084720
 20
1.675080
  0
VERTEX
  8
0
  6
CONTINUOUS
 10
2.113760
 20
1.634160
  0
VERTEX
  8
0
  6
CONTINUOUS
 10
2.137520
 20
1.588840
  0
VERTEX
  8
0
  6
CONTINUOUS
 10
2.154680
 20
1.540000
  0
VERTEX
  8
0
  6
CONTINUOUS
 10
2.164800
 20
1.488960
  0
VERTEX
  8
0
  6
CONTINUOUS
 10
2.167440
 20
1.463440
  0
VERTEX
  8
0
  6
CONTINUOUS
 10
2.167880
 20
1.437480
  0
VERTEX
  8
0
  6
CONTINUOUS
 10
2.166120
 20
1.411520
  0
VERTEX
  8
0
  6
CONTINUOUS
 10
2.162600
 20
1.385560
  0
VERTEX
  8
0
  6
CONTINUOUS
 10
2.156880
 20
1.360480
  0
VERTEX
  8
0
  6
CONTINUOUS
 10
2.148960
 20
1.335400
  0
VERTEX
  8
0
  6
CONTINUOUS
 10
2.132680
 20
1.299760
  0
VERTEX
  8
0
  6
CONTINUOUS
 10
2.111120
 20
1.265440
  0
VERTEX
  8
0
  6
CONTINUOUS
 10
2.083840
 20
1.234200
  0
VERTEX
  8
0
  6
CONTINUOUS
 10
2.062720
 20
1.214840
  0
VERTEX
  8
0
  6
CONTINUOUS
 10
2.025320
 20
1.188440
  0
VERTEX
  8
0
  6
CONTINUOUS
 10
1.982200
 20
1.166000
  0
VERTEX
  8
0
  6
CONTINUOUS
 10
1.966360
 20
1.159400
  0
VERTEX
  8
0
  6
CONTINUOUS
 10
2.207040
 20
0.879120
  0
VERTEX
  8
0
  6
CONTINUOUS
 10
1.925000
 20
0.651200
  0
VERTEX
  8
0
  6
CONTINUOUS
 10
1.847560
 20
0.715880
  0
VERTEX
  8
0
  6
CONTINUOUS
 10
0.446160
 20
1.813240
  0
VERTEX
  8
0
  6
CONTINUOUS
 10
0.436480
 20
7.131080
  0
VERTEX
  8
0
  6
CONTINUOUS
 10
0.572440
 20
7.299160
  0
VERTEX
  8
0
  6
CONTINUOUS
 10
0.575080
 20
7.296960
  0
SEQEND
  8
0
  0
ENDSEC
  0
EOF
