  0
SECTION
  2
HEADER
  9
$ACADVER
  1
AC1006
  9
$EXTMIN
 10
2.537920
 20
0.586520
  9
$EXTMAX
 10
7.597920
 20
5.096080
  9
$LTSCALE
 40
0.044000
  9
$PDMODE
 70
    35
  9
$PDSIZE
 40
0.035200
  0
ENDSEC
  0
SECTION
  2
TABLES
  0
TABLE
  2
LTYPE
 70
     9
  0
LTYPE
  2
CONTINUOUS
 70
    64
  3
Solid line
 72
    65
 73
     0
 40
0.000000
  0
LTYPE
  2
DASHED
 70
    64
  3
__ __ __ __ __ __ __ __ __ __ __ __ __ __ __
 72
    65
 73
     2
 40
0.000330
 49
0.000220
 49
-0.000110
  0
LTYPE
  2
HIDDEN
 70
    64
  3
 _ _ _ _ _ _ _ _ _ _ _ _ _ _ _ _ _ _ _ _ _ _
 72
    65
 73
     2
 40
0.000165
 49
0.000110
 49
-0.000055
  0
LTYPE
  2
CENTER
 70
    64
  3
____ _ ____ _ ____ _ ____ _ ____ _ ____ _ ____
 72
    65
 73
     4
 40
0.000880
 49
0.000550
 49
-0.000110
 49
0.000110
 49
-0.000110
  0
LTYPE
  2
PHANTOM
 70
    64
  3
_____ _ _ _____ _ _ _____ _ _ _____ _ _ ____
 72
    65
 73
     6
 40
0.001100
 49
0.000550
 49
-0.000110
 49
0.000110
 49
-0.000110
 49
0.000110
 49
-0.000110
  0
LTYPE
  2
DOT
 70
    64
  3
...............................................
 72
    65
 73
     2
 40
0.000110
 49
0.000000
 49
-0.000110
  0
LTYPE
  2
DASHDOT
 70
    64
  3
__ . __ . __ . __ . __ . __ . __ . __ . __ . __
 72
    65
 73
     4
 40
0.000440
 49
0.000220
 49
-0.000110
 49
0.000000
 49
-0.000110
  0
LTYPE
  2
BORDER
 70
    64
  3
__ __ . __ __ . __ __ . __ __ . __ __ . __ __
 72
    65
 73
     6
 40
0.000770
 49
0.000220
 49
-0.000110
 49
0.000220
 49
-0.000110
 49
0.000000
 49
-0.000110
  0
LTYPE
  2
DIVIDE
 70
    64
  3
__ . . __ . . __ . . __ . . __ . . __ . . __
 72
    65
 73
     6
 40
0.000550
 49
0.000220
 49
-0.000110
 49
0.000000
 49
-0.000110
 49
0.000000
 49
-0.000110
  0
LTYPE
  2
DOTDOT
 70
    64
  3
 . .  . .  . .  . .  . .  . . 
 72
    65
 73
     5
 40
0.000242
 49
-0.000110
 49
0.000000
 49
-0.000110
 49
0.000000
 49
-0.000110
  0
ENDTAB
  0
TABLE
  2
STYLE
 70
     2
  0
STYLE
 70
     0
  2
SN0
 40
0.000000
 41
0.000440
 50
0.000000
 71
     0
 42
0.000000
  3
ROMAND
  0
STYLE
 70
    68
  2
SV0
 40
0.000000
 41
0.000440
 50
0.000000
 71
     0
 42
0.000000
  3
ROMAND
  0
ENDTAB
  0
TABLE
  2
LAYER
 70
     3
  0
LAYER
  2
FOREGROUND
 70
    64
 62
     7
  6
CONTINUOUS
  0
LAYER
  2
BACKGROUND
 70
    65
 62
    -7
  6
CONTINUOUS
  0
LAYER
  2
0
 70
    64
 62
     7
  6
CONTINUOUS
  0
ENDTAB
  0
ENDSEC
  0
SECTION
  2
ENTITIES
  0
POLYLINE
  8
FOREGROUND
  6
CONTINUOUS
 66
     1
 40
0.000000
 41
0.000000
  0
VERTEX
  8
FOREGROUND
  6
CONTINUOUS
 10
0.000000
 20
5.682600
  0
VERTEX
  8
FOREGROUND
  6
CONTINUOUS
 10
8.499920
 20
5.682600
  0
VERTEX
  8
FOREGROUND
  6
CONTINUOUS
 10
8.499920
 20
-5.317400
  0
VERTEX
  8
FOREGROUND
  6
CONTINUOUS
 10
0.000000
 20
-5.317400
  0
VERTEX
  8
FOREGROUND
  6
CONTINUOUS
 10
0.000000
 20
5.682600
  0
SEQEND
  8
0
  0
POLYLINE
  8
FOREGROUND
  6
CONTINUOUS
 66
     1
 40
0.000000
 41
0.000000
  0
VERTEX
  8
FOREGROUND
  6
CONTINUOUS
 10
0.000000
 20
5.682600
  0
VERTEX
  8
FOREGROUND
  6
CONTINUOUS
 10
8.499920
 20
5.682600
  0
VERTEX
  8
FOREGROUND
  6
CONTINUOUS
 10
8.499920
 20
-5.317400
  0
VERTEX
  8
FOREGROUND
  6
CONTINUOUS
 10
0.000000
 20
-5.317400
  0
VERTEX
  8
FOREGROUND
  6
CONTINUOUS
 10
0.000000
 20
5.682600
  0
SEQEND
  8
0
  0
POLYLINE
  8
0
  6
CONTINUOUS
 66
     1
 40
0.014080
 41
0.014080
  0
VERTEX
  8
0
  6
CONTINUOUS
 10
3.676640
 20
3.714040
  0
VERTEX
  8
0
  6
CONTINUOUS
 10
7.590880
 20
3.714040
  0
VERTEX
  8
0
  6
CONTINUOUS
 10
7.590880
 20
4.050640
  0
VERTEX
  8
0
  6
CONTINUOUS
 10
7.554800
 20
4.051080
  0
VERTEX
  8
0
  6
CONTINUOUS
 10
7.527080
 20
4.053720
  0
VERTEX
  8
0
  6
CONTINUOUS
 10
7.497600
 20
4.059880
  0
VERTEX
  8
0
  6
CONTINUOUS
 10
7.466360
 20
4.071320
  0
VERTEX
  8
0
  6
CONTINUOUS
 10
7.434240
 20
4.088920
  0
VERTEX
  8
0
  6
CONTINUOUS
 10
7.417960
 20
4.100800
  0
VERTEX
  8
0
  6
CONTINUOUS
 10
7.385840
 20
4.131160
  0
VERTEX
  8
0
  6
CONTINUOUS
 10
7.354160
 20
4.172080
  0
VERTEX
  8
0
  6
CONTINUOUS
 10
7.324240
 20
4.212120
  0
VERTEX
  8
0
  6
CONTINUOUS
 10
7.302240
 20
4.234560
  0
VERTEX
  8
0
  6
CONTINUOUS
 10
7.281120
 20
4.251280
  0
VERTEX
  8
0
  6
CONTINUOUS
 10
7.267040
 20
4.258760
  0
VERTEX
  8
0
  6
CONTINUOUS
 10
7.252960
 20
4.264040
  0
VERTEX
  8
0
  6
CONTINUOUS
 10
7.238440
 20
4.266680
  0
VERTEX
  8
0
  6
CONTINUOUS
 10
7.223920
 20
4.267560
  0
VERTEX
  8
0
  6
CONTINUOUS
 10
7.208960
 20
4.265800
  0
VERTEX
  8
0
  6
CONTINUOUS
 10
7.177280
 20
4.257000
  0
VERTEX
  8
0
  6
CONTINUOUS
 10
7.142960
 20
4.241160
  0
VERTEX
  8
0
  6
CONTINUOUS
 10
7.105120
 20
4.219160
  0
VERTEX
  8
0
  6
CONTINUOUS
 10
7.054080
 20
4.219160
  0
VERTEX
  8
0
  6
CONTINUOUS
 10
6.951560
 20
4.290440
  0
VERTEX
  8
0
  6
CONTINUOUS
 10
6.052640
 20
4.290880
  0
VERTEX
  8
0
  6
CONTINUOUS
 10
5.953200
 20
4.340160
  0
VERTEX
  8
0
  6
CONTINUOUS
 10
4.783680
 20
4.340160
  0
VERTEX
  8
0
  6
CONTINUOUS
 10
4.671920
 20
4.402200
  0
VERTEX
  8
0
  6
CONTINUOUS
 10
3.574120
 20
4.401760
  0
VERTEX
  8
0
  6
CONTINUOUS
 10
3.574120
 20
3.715800
  0
VERTEX
  8
0
  6
CONTINUOUS
 10
3.676640
 20
3.715800
  0
SEQEND
  8
0
  0
POLYLINE
  8
0
  6
CONTINUOUS
 66
     1
 40
0.014080
 41
0.014080
  0
VERTEX
  8
0
  6
CONTINUOUS
 10
3.580720
 20
3.714920
  0
VERTEX
  8
0
  6
CONTINUOUS
 10
2.551120
 20
3.714920
  0
VERTEX
  8
0
  6
CONTINUOUS
 10
2.551120
 20
5.088160
  0
VERTEX
  8
0
  6
CONTINUOUS
 10
3.167560
 20
5.088160
  0
VERTEX
  8
0
  6
CONTINUOUS
 10
3.167560
 20
4.997520
  0
VERTEX
  8
0
  6
CONTINUOUS
 10
3.229160
 20
4.997520
  0
VERTEX
  8
0
  6
CONTINUOUS
 10
3.250720
 20
5.028760
  0
VERTEX
  8
0
  6
CONTINUOUS
 10
3.262160
 20
5.041960
  0
VERTEX
  8
0
  6
CONTINUOUS
 10
3.286800
 20
5.062640
  0
VERTEX
  8
0
  6
CONTINUOUS
 10
3.313200
 20
5.076720
  0
VERTEX
  8
0
  6
CONTINUOUS
 10
3.326840
 20
5.081560
  0
VERTEX
  8
0
  6
CONTINUOUS
 10
3.355440
 20
5.086840
  0
VERTEX
  8
0
  6
CONTINUOUS
 10
3.384480
 20
5.086840
  0
VERTEX
  8
0
  6
CONTINUOUS
 10
3.414400
 20
5.082000
  0
VERTEX
  8
0
  6
CONTINUOUS
 10
3.444320
 20
5.073200
  0
VERTEX
  8
0
  6
CONTINUOUS
 10
3.474240
 20
5.060440
  0
VERTEX
  8
0
  6
CONTINUOUS
 10
3.518240
 20
5.035360
  0
VERTEX
  8
0
  6
CONTINUOUS
 10
3.560040
 20
5.004560
  0
VERTEX
  8
0
  6
CONTINUOUS
 10
3.586000
 20
4.981680
  0
VERTEX
  8
0
  6
CONTINUOUS
 10
3.610640
 20
4.957480
  0
VERTEX
  8
0
  6
CONTINUOUS
 10
3.633080
 20
4.932400
  0
VERTEX
  8
0
  6
CONTINUOUS
 10
3.713600
 20
4.828120
  0
VERTEX
  8
0
  6
CONTINUOUS
 10
3.782680
 20
4.748040
  0
VERTEX
  8
0
  6
CONTINUOUS
 10
3.833720
 20
4.698760
  0
VERTEX
  8
0
  6
CONTINUOUS
 10
3.860120
 20
4.676320
  0
VERTEX
  8
0
  6
CONTINUOUS
 10
3.901040
 20
4.646840
  0
VERTEX
  8
0
  6
CONTINUOUS
 10
3.943720
 20
4.622200
  0
VERTEX
  8
0
  6
CONTINUOUS
 10
3.987280
 20
4.604600
  0
VERTEX
  8
0
  6
CONTINUOUS
 10
4.017200
 20
4.597120
  0
VERTEX
  8
0
  6
CONTINUOUS
 10
4.047560
 20
4.593600
  0
VERTEX
  8
0
  6
CONTINUOUS
 10
4.062960
 20
4.593160
  0
VERTEX
  8
0
  6
CONTINUOUS
 10
4.063840
 20
4.589640
  0
VERTEX
  8
0
  6
CONTINUOUS
 10
4.063840
 20
4.401320
  0
VERTEX
  8
0
  6
CONTINUOUS
 10
3.581600
 20
4.401760
  0
VERTEX
  8
0
  6
CONTINUOUS
 10
3.581600
 20
3.717120
  0
VERTEX
  8
0
  6
CONTINUOUS
 10
3.580720
 20
3.714920
  0
SEQEND
  8
0
  0
TEXT
  8
0
 10
4.374480
 20
0.821920
 40
0.138227
  1
BA  616 1-1/2" x 1-3/8"
 41
1.000000
  7
SN0
 71
     0
 72
     5
 11
6.060978
 21
0.821920
  0
TEXT
  8
0
 10
4.374480
 20
0.630520
 40
0.138227
  1
BA  617 11/16" x 4"
 41
1.000000
  7
SN0
 71
     0
 72
     5
 11
5.812279
 21
0.630520
  0
SOLID
  8
0
 62
    15
 10
7.254280
 20
1.597200
 11
7.260000
 21
2.343880
 12
7.282880
 22
1.579160
 13
7.288160
 23
2.325840
  0
POLYLINE
  8
0
  6
CONTINUOUS
 66
     1
 40
0.000000
 41
0.000000
  0
VERTEX
  8
0
  6
CONTINUOUS
 10
7.254280
 20
1.597200
  0
VERTEX
  8
0
  6
CONTINUOUS
 10
7.260000
 20
2.343880
  0
VERTEX
  8
0
  6
CONTINUOUS
 10
7.288160
 20
2.325840
  0
VERTEX
  8
0
  6
CONTINUOUS
 10
7.282880
 20
1.579160
  0
VERTEX
  8
0
  6
CONTINUOUS
 10
7.254280
 20
1.597200
  0
SEQEND
  8
0
  0
SOLID
  8
0
 62
    15
 10
3.564880
 20
1.740200
 11
3.570600
 21
2.486880
 12
4.659600
 22
1.740200
 13
4.664880
 23
2.486880
  0
POLYLINE
  8
0
  6
CONTINUOUS
 66
     1
 40
0.000000
 41
0.000000
  0
VERTEX
  8
0
  6
CONTINUOUS
 10
3.564880
 20
1.740200
  0
VERTEX
  8
0
  6
CONTINUOUS
 10
3.570600
 20
2.486880
  0
VERTEX
  8
0
  6
CONTINUOUS
 10
4.664880
 20
2.486880
  0
VERTEX
  8
0
  6
CONTINUOUS
 10
4.659600
 20
1.740200
  0
VERTEX
  8
0
  6
CONTINUOUS
 10
3.564880
 20
1.740200
  0
SEQEND
  8
0
  0
SOLID
  8
0
 62
    15
 10
4.659600
 20
1.740200
 11
4.664880
 21
2.486880
 12
4.770920
 22
1.678600
 13
4.776640
 23
2.425280
  0
POLYLINE
  8
0
  6
CONTINUOUS
 66
     1
 40
0.000000
 41
0.000000
  0
VERTEX
  8
0
  6
CONTINUOUS
 10
4.659600
 20
1.740200
  0
VERTEX
  8
0
  6
CONTINUOUS
 10
4.664880
 20
2.486880
  0
VERTEX
  8
0
  6
CONTINUOUS
 10
4.776640
 20
2.425280
  0
VERTEX
  8
0
  6
CONTINUOUS
 10
4.770920
 20
1.678600
  0
VERTEX
  8
0
  6
CONTINUOUS
 10
4.659600
 20
1.740200
  0
SEQEND
  8
0
  0
SOLID
  8
0
 62
    15
 10
4.770920
 20
1.678600
 11
4.776640
 21
2.425280
 12
5.940880
 22
1.678600
 13
5.946160
 23
2.425280
  0
POLYLINE
  8
0
  6
CONTINUOUS
 66
     1
 40
0.000000
 41
0.000000
  0
VERTEX
  8
0
  6
CONTINUOUS
 10
4.770920
 20
1.678600
  0
VERTEX
  8
0
  6
CONTINUOUS
 10
4.776640
 20
2.425280
  0
VERTEX
  8
0
  6
CONTINUOUS
 10
5.946160
 20
2.425280
  0
VERTEX
  8
0
  6
CONTINUOUS
 10
5.940880
 20
1.678600
  0
VERTEX
  8
0
  6
CONTINUOUS
 10
4.770920
 20
1.678600
  0
SEQEND
  8
0
  0
SOLID
  8
0
 62
    15
 10
5.940880
 20
1.678600
 11
5.946160
 21
2.425280
 12
6.040760
 22
1.628880
 13
6.046040
 23
2.375560
  0
POLYLINE
  8
0
  6
CONTINUOUS
 66
     1
 40
0.000000
 41
0.000000
  0
VERTEX
  8
0
  6
CONTINUOUS
 10
5.940880
 20
1.678600
  0
VERTEX
  8
0
  6
CONTINUOUS
 10
5.946160
 20
2.425280
  0
VERTEX
  8
0
  6
CONTINUOUS
 10
6.046040
 20
2.375560
  0
VERTEX
  8
0
  6
CONTINUOUS
 10
6.040760
 20
1.628880
  0
VERTEX
  8
0
  6
CONTINUOUS
 10
5.940880
 20
1.678600
  0
SEQEND
  8
0
  0
SOLID
  8
0
 62
    15
 10
6.040760
 20
1.628880
 11
6.046040
 21
2.375560
 12
6.938800
 22
1.628440
 13
6.944520
 23
2.375120
  0
POLYLINE
  8
0
  6
CONTINUOUS
 66
     1
 40
0.000000
 41
0.000000
  0
VERTEX
  8
0
  6
CONTINUOUS
 10
6.040760
 20
1.628880
  0
VERTEX
  8
0
  6
CONTINUOUS
 10
6.046040
 20
2.375560
  0
VERTEX
  8
0
  6
CONTINUOUS
 10
6.944520
 20
2.375120
  0
VERTEX
  8
0
  6
CONTINUOUS
 10
6.938800
 20
1.628440
  0
VERTEX
  8
0
  6
CONTINUOUS
 10
6.040760
 20
1.628880
  0
SEQEND
  8
0
  0
SOLID
  8
0
 62
    15
 10
6.938800
 20
1.628440
 11
6.944520
 21
2.375120
 12
7.041320
 22
1.557160
 13
7.047040
 23
2.303840
  0
POLYLINE
  8
0
  6
CONTINUOUS
 66
     1
 40
0.000000
 41
0.000000
  0
VERTEX
  8
0
  6
CONTINUOUS
 10
6.938800
 20
1.628440
  0
VERTEX
  8
0
  6
CONTINUOUS
 10
6.944520
 20
2.375120
  0
VERTEX
  8
0
  6
CONTINUOUS
 10
7.047040
 20
2.303840
  0
VERTEX
  8
0
  6
CONTINUOUS
 10
7.041320
 20
1.557160
  0
VERTEX
  8
0
  6
CONTINUOUS
 10
6.938800
 20
1.628440
  0
SEQEND
  8
0
  0
SOLID
  8
0
 62
    15
 10
7.041320
 20
1.557160
 11
7.047040
 21
2.303840
 12
7.092360
 22
1.557160
 13
7.098080
 23
2.303840
  0
POLYLINE
  8
0
  6
CONTINUOUS
 66
     1
 40
0.000000
 41
0.000000
  0
VERTEX
  8
0
  6
CONTINUOUS
 10
7.041320
 20
1.557160
  0
VERTEX
  8
0
  6
CONTINUOUS
 10
7.047040
 20
2.303840
  0
VERTEX
  8
0
  6
CONTINUOUS
 10
7.098080
 20
2.303840
  0
VERTEX
  8
0
  6
CONTINUOUS
 10
7.092360
 20
1.557160
  0
VERTEX
  8
0
  6
CONTINUOUS
 10
7.041320
 20
1.557160
  0
SEQEND
  8
0
  0
SOLID
  8
0
 62
    15
 10
7.092360
 20
1.557160
 11
7.098080
 21
2.303840
 12
7.130200
 22
1.579600
 13
7.135920
 23
2.326280
  0
POLYLINE
  8
0
  6
CONTINUOUS
 66
     1
 40
0.000000
 41
0.000000
  0
VERTEX
  8
0
  6
CONTINUOUS
 10
7.092360
 20
1.557160
  0
VERTEX
  8
0
  6
CONTINUOUS
 10
7.098080
 20
2.303840
  0
VERTEX
  8
0
  6
CONTINUOUS
 10
7.135920
 20
2.326280
  0
VERTEX
  8
0
  6
CONTINUOUS
 10
7.130200
 20
1.579600
  0
VERTEX
  8
0
  6
CONTINUOUS
 10
7.092360
 20
1.557160
  0
SEQEND
  8
0
  0
SOLID
  8
0
 62
    15
 10
7.130200
 20
1.579600
 11
7.135920
 21
2.326280
 12
7.164520
 22
1.595440
 13
7.170240
 23
2.342120
  0
POLYLINE
  8
0
  6
CONTINUOUS
 66
     1
 40
0.000000
 41
0.000000
  0
VERTEX
  8
0
  6
CONTINUOUS
 10
7.130200
 20
1.579600
  0
VERTEX
  8
0
  6
CONTINUOUS
 10
7.135920
 20
2.326280
  0
VERTEX
  8
0
  6
CONTINUOUS
 10
7.170240
 20
2.342120
  0
VERTEX
  8
0
  6
CONTINUOUS
 10
7.164520
 20
1.595440
  0
VERTEX
  8
0
  6
CONTINUOUS
 10
7.130200
 20
1.579600
  0
SEQEND
  8
0
  0
SOLID
  8
0
 62
    15
 10
7.164520
 20
1.595440
 11
7.170240
 21
2.342120
 12
7.196200
 22
1.604240
 13
7.201920
 23
2.350920
  0
POLYLINE
  8
0
  6
CONTINUOUS
 66
     1
 40
0.000000
 41
0.000000
  0
VERTEX
  8
0
  6
CONTINUOUS
 10
7.164520
 20
1.595440
  0
VERTEX
  8
0
  6
CONTINUOUS
 10
7.170240
 20
2.342120
  0
VERTEX
  8
0
  6
CONTINUOUS
 10
7.201920
 20
2.350920
  0
VERTEX
  8
0
  6
CONTINUOUS
 10
7.196200
 20
1.604240
  0
VERTEX
  8
0
  6
CONTINUOUS
 10
7.164520
 20
1.595440
  0
SEQEND
  8
0
  0
SOLID
  8
0
 62
    15
 10
7.196200
 20
1.604240
 11
7.201920
 21
2.350920
 12
7.226120
 22
1.605120
 13
7.231400
 23
2.351800
  0
POLYLINE
  8
0
  6
CONTINUOUS
 66
     1
 40
0.000000
 41
0.000000
  0
VERTEX
  8
0
  6
CONTINUOUS
 10
7.196200
 20
1.604240
  0
VERTEX
  8
0
  6
CONTINUOUS
 10
7.201920
 20
2.350920
  0
VERTEX
  8
0
  6
CONTINUOUS
 10
7.231400
 20
2.351800
  0
VERTEX
  8
0
  6
CONTINUOUS
 10
7.226120
 20
1.605120
  0
VERTEX
  8
0
  6
CONTINUOUS
 10
7.196200
 20
1.604240
  0
SEQEND
  8
0
  0
SOLID
  8
0
 62
    15
 10
7.226120
 20
1.605120
 11
7.231400
 21
2.351800
 12
7.254280
 22
1.597200
 13
7.260000
 23
2.343880
  0
POLYLINE
  8
0
  6
CONTINUOUS
 66
     1
 40
0.000000
 41
0.000000
  0
VERTEX
  8
0
  6
CONTINUOUS
 10
7.226120
 20
1.605120
  0
VERTEX
  8
0
  6
CONTINUOUS
 10
7.231400
 20
2.351800
  0
VERTEX
  8
0
  6
CONTINUOUS
 10
7.260000
 20
2.343880
  0
VERTEX
  8
0
  6
CONTINUOUS
 10
7.254280
 20
1.597200
  0
VERTEX
  8
0
  6
CONTINUOUS
 10
7.226120
 20
1.605120
  0
SEQEND
  8
0
  0
SOLID
  8
0
 62
    15
 10
3.561800
 20
1.740200
 11
3.567080
 21
2.486880
 12
3.566640
 22
1.740200
 13
3.572360
 23
2.486880
  0
POLYLINE
  8
0
  6
CONTINUOUS
 66
     1
 40
0.000000
 41
0.000000
  0
VERTEX
  8
0
  6
CONTINUOUS
 10
3.561800
 20
1.740200
  0
VERTEX
  8
0
  6
CONTINUOUS
 10
3.567080
 20
2.486880
  0
VERTEX
  8
0
  6
CONTINUOUS
 10
3.572360
 20
2.486880
  0
VERTEX
  8
0
  6
CONTINUOUS
 10
3.566640
 20
1.740200
  0
VERTEX
  8
0
  6
CONTINUOUS
 10
3.561800
 20
1.740200
  0
SEQEND
  8
0
  0
SOLID
  8
0
 62
    15
 10
7.282880
 20
1.579160
 11
7.288160
 21
2.325840
 12
7.311480
 22
1.550560
 13
7.317200
 23
2.297240
  0
POLYLINE
  8
0
  6
CONTINUOUS
 66
     1
 40
0.000000
 41
0.000000
  0
VERTEX
  8
0
  6
CONTINUOUS
 10
7.282880
 20
1.579160
  0
VERTEX
  8
0
  6
CONTINUOUS
 10
7.288160
 20
2.325840
  0
VERTEX
  8
0
  6
CONTINUOUS
 10
7.317200
 20
2.297240
  0
VERTEX
  8
0
  6
CONTINUOUS
 10
7.311480
 20
1.550560
  0
VERTEX
  8
0
  6
CONTINUOUS
 10
7.282880
 20
1.579160
  0
SEQEND
  8
0
  0
SOLID
  8
0
 62
    15
 10
7.311480
 20
1.550560
 11
7.317200
 21
2.297240
 12
7.341840
 22
1.510520
 13
7.347560
 23
2.257200
  0
POLYLINE
  8
0
  6
CONTINUOUS
 66
     1
 40
0.000000
 41
0.000000
  0
VERTEX
  8
0
  6
CONTINUOUS
 10
7.311480
 20
1.550560
  0
VERTEX
  8
0
  6
CONTINUOUS
 10
7.317200
 20
2.297240
  0
VERTEX
  8
0
  6
CONTINUOUS
 10
7.347560
 20
2.257200
  0
VERTEX
  8
0
  6
CONTINUOUS
 10
7.341840
 20
1.510520
  0
VERTEX
  8
0
  6
CONTINUOUS
 10
7.311480
 20
1.550560
  0
SEQEND
  8
0
  0
SOLID
  8
0
 62
    15
 10
7.341840
 20
1.510520
 11
7.347560
 21
2.257200
 12
7.373520
 22
1.470040
 13
7.378800
 23
2.216280
  0
POLYLINE
  8
0
  6
CONTINUOUS
 66
     1
 40
0.000000
 41
0.000000
  0
VERTEX
  8
0
  6
CONTINUOUS
 10
7.341840
 20
1.510520
  0
VERTEX
  8
0
  6
CONTINUOUS
 10
7.347560
 20
2.257200
  0
VERTEX
  8
0
  6
CONTINUOUS
 10
7.378800
 20
2.216280
  0
VERTEX
  8
0
  6
CONTINUOUS
 10
7.373520
 20
1.470040
  0
VERTEX
  8
0
  6
CONTINUOUS
 10
7.341840
 20
1.510520
  0
SEQEND
  8
0
  0
SOLID
  8
0
 62
    15
 10
7.373520
 20
1.470040
 11
7.378800
 21
2.216280
 12
7.405640
 22
1.439240
 13
7.411360
 23
2.185920
  0
POLYLINE
  8
0
  6
CONTINUOUS
 66
     1
 40
0.000000
 41
0.000000
  0
VERTEX
  8
0
  6
CONTINUOUS
 10
7.373520
 20
1.470040
  0
VERTEX
  8
0
  6
CONTINUOUS
 10
7.378800
 20
2.216280
  0
VERTEX
  8
0
  6
CONTINUOUS
 10
7.411360
 20
2.185920
  0
VERTEX
  8
0
  6
CONTINUOUS
 10
7.405640
 20
1.439240
  0
VERTEX
  8
0
  6
CONTINUOUS
 10
7.373520
 20
1.470040
  0
SEQEND
  8
0
  0
SOLID
  8
0
 62
    15
 10
7.405640
 20
1.439240
 11
7.411360
 21
2.185920
 12
7.438200
 22
1.417680
 13
7.443480
 23
2.164360
  0
POLYLINE
  8
0
  6
CONTINUOUS
 66
     1
 40
0.000000
 41
0.000000
  0
VERTEX
  8
0
  6
CONTINUOUS
 10
7.405640
 20
1.439240
  0
VERTEX
  8
0
  6
CONTINUOUS
 10
7.411360
 20
2.185920
  0
VERTEX
  8
0
  6
CONTINUOUS
 10
7.443480
 20
2.164360
  0
VERTEX
  8
0
  6
CONTINUOUS
 10
7.438200
 20
1.417680
  0
VERTEX
  8
0
  6
CONTINUOUS
 10
7.405640
 20
1.439240
  0
SEQEND
  8
0
  0
SOLID
  8
0
 62
    15
 10
7.438200
 20
1.417680
 11
7.443480
 21
2.164360
 12
7.469880
 22
1.403600
 13
7.475160
 23
2.150280
  0
POLYLINE
  8
0
  6
CONTINUOUS
 66
     1
 40
0.000000
 41
0.000000
  0
VERTEX
  8
0
  6
CONTINUOUS
 10
7.438200
 20
1.417680
  0
VERTEX
  8
0
  6
CONTINUOUS
 10
7.443480
 20
2.164360
  0
VERTEX
  8
0
  6
CONTINUOUS
 10
7.475160
 20
2.150280
  0
VERTEX
  8
0
  6
CONTINUOUS
 10
7.469880
 20
1.403600
  0
VERTEX
  8
0
  6
CONTINUOUS
 10
7.438200
 20
1.417680
  0
SEQEND
  8
0
  0
SOLID
  8
0
 62
    15
 10
7.469880
 20
1.403600
 11
7.475160
 21
2.150280
 12
7.500240
 22
1.394800
 13
7.505520
 23
2.141480
  0
POLYLINE
  8
0
  6
CONTINUOUS
 66
     1
 40
0.000000
 41
0.000000
  0
VERTEX
  8
0
  6
CONTINUOUS
 10
7.469880
 20
1.403600
  0
VERTEX
  8
0
  6
CONTINUOUS
 10
7.475160
 20
2.150280
  0
VERTEX
  8
0
  6
CONTINUOUS
 10
7.505520
 20
2.141480
  0
VERTEX
  8
0
  6
CONTINUOUS
 10
7.500240
 20
1.394800
  0
VERTEX
  8
0
  6
CONTINUOUS
 10
7.469880
 20
1.403600
  0
SEQEND
  8
0
  0
SOLID
  8
0
 62
    15
 10
7.500240
 20
1.394800
 11
7.505520
 21
2.141480
 12
7.528840
 22
1.390840
 13
7.534120
 23
2.137520
  0
POLYLINE
  8
0
  6
CONTINUOUS
 66
     1
 40
0.000000
 41
0.000000
  0
VERTEX
  8
0
  6
CONTINUOUS
 10
7.500240
 20
1.394800
  0
VERTEX
  8
0
  6
CONTINUOUS
 10
7.505520
 20
2.141480
  0
VERTEX
  8
0
  6
CONTINUOUS
 10
7.534120
 20
2.137520
  0
VERTEX
  8
0
  6
CONTINUOUS
 10
7.528840
 20
1.390840
  0
VERTEX
  8
0
  6
CONTINUOUS
 10
7.500240
 20
1.394800
  0
SEQEND
  8
0
  0
SOLID
  8
0
 62
    15
 10
7.528840
 20
1.390840
 11
7.534120
 21
2.137520
 12
7.555240
 22
1.389080
 13
7.560520
 23
2.135760
  0
POLYLINE
  8
0
  6
CONTINUOUS
 66
     1
 40
0.000000
 41
0.000000
  0
VERTEX
  8
0
  6
CONTINUOUS
 10
7.528840
 20
1.390840
  0
VERTEX
  8
0
  6
CONTINUOUS
 10
7.534120
 20
2.137520
  0
VERTEX
  8
0
  6
CONTINUOUS
 10
7.560520
 20
2.135760
  0
VERTEX
  8
0
  6
CONTINUOUS
 10
7.555240
 20
1.389080
  0
VERTEX
  8
0
  6
CONTINUOUS
 10
7.528840
 20
1.390840
  0
SEQEND
  8
0
  0
SOLID
  8
0
 62
    15
 10
7.578560
 20
1.053800
 11
7.583840
 21
1.800480
 12
7.579440
 22
1.053800
 13
7.584720
 23
1.800480
  0
POLYLINE
  8
0
  6
CONTINUOUS
 66
     1
 40
0.000000
 41
0.000000
  0
VERTEX
  8
0
  6
CONTINUOUS
 10
7.578560
 20
1.053800
  0
VERTEX
  8
0
  6
CONTINUOUS
 10
7.583840
 20
1.800480
  0
VERTEX
  8
0
  6
CONTINUOUS
 10
7.584720
 20
1.800480
  0
VERTEX
  8
0
  6
CONTINUOUS
 10
7.579440
 20
1.053800
  0
VERTEX
  8
0
  6
CONTINUOUS
 10
7.578560
 20
1.053800
  0
SEQEND
  8
0
  0
SOLID
  8
0
 62
    15
 10
7.578560
 20
1.389080
 11
7.583840
 21
2.135760
 12
7.578560
 22
1.053800
 13
7.583840
 23
1.800480
  0
POLYLINE
  8
0
  6
CONTINUOUS
 66
     1
 40
0.000000
 41
0.000000
  0
VERTEX
  8
0
  6
CONTINUOUS
 10
7.578560
 20
1.389080
  0
VERTEX
  8
0
  6
CONTINUOUS
 10
7.583840
 20
2.135760
  0
VERTEX
  8
0
  6
CONTINUOUS
 10
7.583840
 20
1.800480
  0
VERTEX
  8
0
  6
CONTINUOUS
 10
7.578560
 20
1.053800
  0
VERTEX
  8
0
  6
CONTINUOUS
 10
7.578560
 20
1.389080
  0
SEQEND
  8
0
  0
SOLID
  8
0
 62
    15
 10
7.555240
 20
1.389080
 11
7.560520
 21
2.135760
 12
7.578560
 22
1.389080
 13
7.583840
 23
2.135760
  0
POLYLINE
  8
0
  6
CONTINUOUS
 66
     1
 40
0.000000
 41
0.000000
  0
VERTEX
  8
0
  6
CONTINUOUS
 10
7.555240
 20
1.389080
  0
VERTEX
  8
0
  6
CONTINUOUS
 10
7.560520
 20
2.135760
  0
VERTEX
  8
0
  6
CONTINUOUS
 10
7.583840
 20
2.135760
  0
VERTEX
  8
0
  6
CONTINUOUS
 10
7.578560
 20
1.389080
  0
VERTEX
  8
0
  6
CONTINUOUS
 10
7.555240
 20
1.389080
  0
SEQEND
  8
0
  0
POLYLINE
  8
0
  6
CONTINUOUS
 66
     1
 40
0.000000
 41
0.000000
  0
VERTEX
  8
0
  6
CONTINUOUS
 10
7.579440
 20
1.053800
  0
VERTEX
  8
0
  6
CONTINUOUS
 10
7.578560
 20
1.053800
  0
VERTEX
  8
0
  6
CONTINUOUS
 10
7.541600
 20
1.053800
  0
VERTEX
  8
0
  6
CONTINUOUS
 10
7.518720
 20
1.054240
  0
VERTEX
  8
0
  6
CONTINUOUS
 10
7.419720
 20
1.054240
  0
VERTEX
  8
0
  6
CONTINUOUS
 10
7.377480
 20
1.054240
  0
VERTEX
  8
0
  6
CONTINUOUS
 10
5.963760
 20
1.054240
  0
VERTEX
  8
0
  6
CONTINUOUS
 10
4.344120
 20
1.054240
  0
VERTEX
  8
0
  6
CONTINUOUS
 10
4.195840
 20
1.054240
  0
VERTEX
  8
0
  6
CONTINUOUS
 10
3.564440
 20
1.054240
  0
VERTEX
  8
0
  6
CONTINUOUS
 10
3.561800
 20
1.053800
  0
VERTEX
  8
0
  6
CONTINUOUS
 10
3.561800
 20
1.740200
  0
VERTEX
  8
0
  6
CONTINUOUS
 10
3.566640
 20
1.740200
  0
VERTEX
  8
0
  6
CONTINUOUS
 10
3.564880
 20
1.740200
  0
VERTEX
  8
0
  6
CONTINUOUS
 10
4.659600
 20
1.740200
  0
VERTEX
  8
0
  6
CONTINUOUS
 10
4.770920
 20
1.678600
  0
VERTEX
  8
0
  6
CONTINUOUS
 10
5.940880
 20
1.678600
  0
VERTEX
  8
0
  6
CONTINUOUS
 10
6.040760
 20
1.628880
  0
VERTEX
  8
0
  6
CONTINUOUS
 10
6.938800
 20
1.628440
  0
VERTEX
  8
0
  6
CONTINUOUS
 10
7.041320
 20
1.557160
  0
VERTEX
  8
0
  6
CONTINUOUS
 10
7.092360
 20
1.557160
  0
VERTEX
  8
0
  6
CONTINUOUS
 10
7.130200
 20
1.579600
  0
VERTEX
  8
0
  6
CONTINUOUS
 10
7.164520
 20
1.595440
  0
VERTEX
  8
0
  6
CONTINUOUS
 10
7.196200
 20
1.604240
  0
VERTEX
  8
0
  6
CONTINUOUS
 10
7.226120
 20
1.605120
  0
VERTEX
  8
0
  6
CONTINUOUS
 10
7.254280
 20
1.597200
  0
VERTEX
  8
0
  6
CONTINUOUS
 10
7.282880
 20
1.579160
  0
VERTEX
  8
0
  6
CONTINUOUS
 10
7.311480
 20
1.550560
  0
VERTEX
  8
0
  6
CONTINUOUS
 10
7.341840
 20
1.510520
  0
VERTEX
  8
0
  6
CONTINUOUS
 10
7.373520
 20
1.470040
  0
VERTEX
  8
0
  6
CONTINUOUS
 10
7.405640
 20
1.439240
  0
VERTEX
  8
0
  6
CONTINUOUS
 10
7.438200
 20
1.417680
  0
VERTEX
  8
0
  6
CONTINUOUS
 10
7.469880
 20
1.403600
  0
VERTEX
  8
0
  6
CONTINUOUS
 10
7.500240
 20
1.394800
  0
VERTEX
  8
0
  6
CONTINUOUS
 10
7.528840
 20
1.390840
  0
VERTEX
  8
0
  6
CONTINUOUS
 10
7.555240
 20
1.389080
  0
VERTEX
  8
0
  6
CONTINUOUS
 10
7.578560
 20
1.389080
  0
VERTEX
  8
0
  6
CONTINUOUS
 10
7.578560
 20
1.053800
  0
VERTEX
  8
0
  6
CONTINUOUS
 10
7.579440
 20
1.053800
  0
SEQEND
  8
0
  0
SOLID
  8
0
 62
    15
 10
3.568840
 20
1.739760
 11
3.576320
 21
2.492160
 12
3.568840
 22
1.055560
 13
3.576320
 23
1.808400
  0
POLYLINE
  8
0
  6
CONTINUOUS
 66
     1
 40
0.000000
 41
0.000000
  0
VERTEX
  8
0
  6
CONTINUOUS
 10
3.568840
 20
1.739760
  0
VERTEX
  8
0
  6
CONTINUOUS
 10
3.576320
 20
2.492160
  0
VERTEX
  8
0
  6
CONTINUOUS
 10
3.576320
 20
1.808400
  0
VERTEX
  8
0
  6
CONTINUOUS
 10
3.568840
 20
1.055560
  0
VERTEX
  8
0
  6
CONTINUOUS
 10
3.568840
 20
1.739760
  0
SEQEND
  8
0
  0
SOLID
  8
0
 62
    15
 10
3.155240
 20
2.426600
 11
3.162280
 21
3.179440
 12
3.155240
 22
2.335960
 13
3.162280
 23
3.088800
  0
POLYLINE
  8
0
  6
CONTINUOUS
 66
     1
 40
0.000000
 41
0.000000
  0
VERTEX
  8
0
  6
CONTINUOUS
 10
3.155240
 20
2.426600
  0
VERTEX
  8
0
  6
CONTINUOUS
 10
3.162280
 20
3.179440
  0
VERTEX
  8
0
  6
CONTINUOUS
 10
3.162280
 20
3.088800
  0
VERTEX
  8
0
  6
CONTINUOUS
 10
3.155240
 20
2.335960
  0
VERTEX
  8
0
  6
CONTINUOUS
 10
3.155240
 20
2.426600
  0
SEQEND
  8
0
  0
SOLID
  8
0
 62
    15
 10
3.155240
 20
2.335960
 11
3.162280
 21
3.088800
 12
3.216400
 22
2.335960
 13
3.223880
 23
3.088800
  0
POLYLINE
  8
0
  6
CONTINUOUS
 66
     1
 40
0.000000
 41
0.000000
  0
VERTEX
  8
0
  6
CONTINUOUS
 10
3.155240
 20
2.335960
  0
VERTEX
  8
0
  6
CONTINUOUS
 10
3.162280
 20
3.088800
  0
VERTEX
  8
0
  6
CONTINUOUS
 10
3.223880
 20
3.088800
  0
VERTEX
  8
0
  6
CONTINUOUS
 10
3.216400
 20
2.335960
  0
VERTEX
  8
0
  6
CONTINUOUS
 10
3.155240
 20
2.335960
  0
SEQEND
  8
0
  0
SOLID
  8
0
 62
    15
 10
3.216400
 20
2.335960
 11
3.223880
 21
3.088800
 12
3.237960
 22
2.367200
 13
3.245440
 23
3.120040
  0
POLYLINE
  8
0
  6
CONTINUOUS
 66
     1
 40
0.000000
 41
0.000000
  0
VERTEX
  8
0
  6
CONTINUOUS
 10
3.216400
 20
2.335960
  0
VERTEX
  8
0
  6
CONTINUOUS
 10
3.223880
 20
3.088800
  0
VERTEX
  8
0
  6
CONTINUOUS
 10
3.245440
 20
3.120040
  0
VERTEX
  8
0
  6
CONTINUOUS
 10
3.237960
 20
2.367200
  0
VERTEX
  8
0
  6
CONTINUOUS
 10
3.216400
 20
2.335960
  0
SEQEND
  8
0
  0
SOLID
  8
0
 62
    15
 10
3.237960
 20
2.367200
 11
3.245440
 21
3.120040
 12
3.261720
 22
2.391400
 13
3.269200
 23
3.143800
  0
POLYLINE
  8
0
  6
CONTINUOUS
 66
     1
 40
0.000000
 41
0.000000
  0
VERTEX
  8
0
  6
CONTINUOUS
 10
3.237960
 20
2.367200
  0
VERTEX
  8
0
  6
CONTINUOUS
 10
3.245440
 20
3.120040
  0
VERTEX
  8
0
  6
CONTINUOUS
 10
3.269200
 20
3.143800
  0
VERTEX
  8
0
  6
CONTINUOUS
 10
3.261720
 20
2.391400
  0
VERTEX
  8
0
  6
CONTINUOUS
 10
3.237960
 20
2.367200
  0
SEQEND
  8
0
  0
SOLID
  8
0
 62
    15
 10
3.261720
 20
2.391400
 11
3.269200
 21
3.143800
 12
3.287240
 22
2.408560
 13
3.294720
 23
3.161400
  0
POLYLINE
  8
0
  6
CONTINUOUS
 66
     1
 40
0.000000
 41
0.000000
  0
VERTEX
  8
0
  6
CONTINUOUS
 10
3.261720
 20
2.391400
  0
VERTEX
  8
0
  6
CONTINUOUS
 10
3.269200
 20
3.143800
  0
VERTEX
  8
0
  6
CONTINUOUS
 10
3.294720
 20
3.161400
  0
VERTEX
  8
0
  6
CONTINUOUS
 10
3.287240
 20
2.408560
  0
VERTEX
  8
0
  6
CONTINUOUS
 10
3.261720
 20
2.391400
  0
SEQEND
  8
0
  0
SOLID
  8
0
 62
    15
 10
3.287240
 20
2.408560
 11
3.294720
 21
3.161400
 12
3.314520
 22
2.419560
 13
3.321560
 23
3.172400
  0
POLYLINE
  8
0
  6
CONTINUOUS
 66
     1
 40
0.000000
 41
0.000000
  0
VERTEX
  8
0
  6
CONTINUOUS
 10
3.287240
 20
2.408560
  0
VERTEX
  8
0
  6
CONTINUOUS
 10
3.294720
 20
3.161400
  0
VERTEX
  8
0
  6
CONTINUOUS
 10
3.321560
 20
3.172400
  0
VERTEX
  8
0
  6
CONTINUOUS
 10
3.314520
 20
2.419560
  0
VERTEX
  8
0
  6
CONTINUOUS
 10
3.287240
 20
2.408560
  0
SEQEND
  8
0
  0
SOLID
  8
0
 62
    15
 10
3.314520
 20
2.419560
 11
3.321560
 21
3.172400
 12
3.372160
 22
2.424840
 13
3.379200
 23
3.177680
  0
POLYLINE
  8
0
  6
CONTINUOUS
 66
     1
 40
0.000000
 41
0.000000
  0
VERTEX
  8
0
  6
CONTINUOUS
 10
3.314520
 20
2.419560
  0
VERTEX
  8
0
  6
CONTINUOUS
 10
3.321560
 20
3.172400
  0
VERTEX
  8
0
  6
CONTINUOUS
 10
3.379200
 20
3.177680
  0
VERTEX
  8
0
  6
CONTINUOUS
 10
3.372160
 20
2.424840
  0
VERTEX
  8
0
  6
CONTINUOUS
 10
3.314520
 20
2.419560
  0
SEQEND
  8
0
  0
SOLID
  8
0
 62
     7
 10
3.372160
 20
2.424840
 11
3.379200
 21
3.177680
 12
3.431560
 22
2.411200
 13
3.439040
 23
3.164040
  0
POLYLINE
  8
0
  6
CONTINUOUS
 66
     1
 40
0.000000
 41
0.000000
  0
VERTEX
  8
0
  6
CONTINUOUS
 10
3.372160
 20
2.424840
  0
VERTEX
  8
0
  6
CONTINUOUS
 10
3.379200
 20
3.177680
  0
VERTEX
  8
0
  6
CONTINUOUS
 10
3.439040
 20
3.164040
  0
VERTEX
  8
0
  6
CONTINUOUS
 10
3.431560
 20
2.411200
  0
VERTEX
  8
0
  6
CONTINUOUS
 10
3.372160
 20
2.424840
  0
SEQEND
  8
0
  0
SOLID
  8
0
 62
     7
 10
3.431560
 20
2.411200
 11
3.439040
 21
3.164040
 12
3.490960
 22
2.382600
 13
3.498440
 23
3.135000
  0
POLYLINE
  8
0
  6
CONTINUOUS
 66
     1
 40
0.000000
 41
0.000000
  0
VERTEX
  8
0
  6
CONTINUOUS
 10
3.431560
 20
2.411200
  0
VERTEX
  8
0
  6
CONTINUOUS
 10
3.439040
 20
3.164040
  0
VERTEX
  8
0
  6
CONTINUOUS
 10
3.498440
 20
3.135000
  0
VERTEX
  8
0
  6
CONTINUOUS
 10
3.490960
 20
2.382600
  0
VERTEX
  8
0
  6
CONTINUOUS
 10
3.431560
 20
2.411200
  0
SEQEND
  8
0
  0
SOLID
  8
0
 62
     7
 10
3.490960
 20
2.382600
 11
3.498440
 21
3.135000
 12
3.547280
 22
2.342560
 13
3.554760
 23
3.095400
  0
POLYLINE
  8
0
  6
CONTINUOUS
 66
     1
 40
0.000000
 41
0.000000
  0
VERTEX
  8
0
  6
CONTINUOUS
 10
3.490960
 20
2.382600
  0
VERTEX
  8
0
  6
CONTINUOUS
 10
3.498440
 20
3.135000
  0
VERTEX
  8
0
  6
CONTINUOUS
 10
3.554760
 20
3.095400
  0
VERTEX
  8
0
  6
CONTINUOUS
 10
3.547280
 20
2.342560
  0
VERTEX
  8
0
  6
CONTINUOUS
 10
3.490960
 20
2.382600
  0
SEQEND
  8
0
  0
SOLID
  8
0
 62
    15
 10
2.538800
 20
2.426600
 11
2.545840
 21
3.179440
 12
3.155240
 22
2.426600
 13
3.162280
 23
3.179440
  0
POLYLINE
  8
0
  6
CONTINUOUS
 66
     1
 40
0.000000
 41
0.000000
  0
VERTEX
  8
0
  6
CONTINUOUS
 10
2.538800
 20
2.426600
  0
VERTEX
  8
0
  6
CONTINUOUS
 10
2.545840
 20
3.179440
  0
VERTEX
  8
0
  6
CONTINUOUS
 10
3.162280
 20
3.179440
  0
VERTEX
  8
0
  6
CONTINUOUS
 10
3.155240
 20
2.426600
  0
VERTEX
  8
0
  6
CONTINUOUS
 10
2.538800
 20
2.426600
  0
SEQEND
  8
0
  0
SOLID
  8
0
 62
    15
 10
3.597880
 20
2.295480
 11
3.605360
 21
3.048320
 12
3.640120
 22
2.245320
 13
3.647600
 23
2.998160
  0
POLYLINE
  8
0
  6
CONTINUOUS
 66
     1
 40
0.000000
 41
0.000000
  0
VERTEX
  8
0
  6
CONTINUOUS
 10
3.597880
 20
2.295480
  0
VERTEX
  8
0
  6
CONTINUOUS
 10
3.605360
 20
3.048320
  0
VERTEX
  8
0
  6
CONTINUOUS
 10
3.647600
 20
2.998160
  0
VERTEX
  8
0
  6
CONTINUOUS
 10
3.640120
 20
2.245320
  0
VERTEX
  8
0
  6
CONTINUOUS
 10
3.597880
 20
2.295480
  0
SEQEND
  8
0
  0
SOLID
  8
0
 62
    15
 10
3.640120
 20
2.245320
 11
3.647600
 21
2.998160
 12
3.722840
 22
2.139280
 13
3.730320
 23
2.892120
  0
POLYLINE
  8
0
  6
CONTINUOUS
 66
     1
 40
0.000000
 41
0.000000
  0
VERTEX
  8
0
  6
CONTINUOUS
 10
3.640120
 20
2.245320
  0
VERTEX
  8
0
  6
CONTINUOUS
 10
3.647600
 20
2.998160
  0
VERTEX
  8
0
  6
CONTINUOUS
 10
3.730320
 20
2.892120
  0
VERTEX
  8
0
  6
CONTINUOUS
 10
3.722840
 20
2.139280
  0
VERTEX
  8
0
  6
CONTINUOUS
 10
3.640120
 20
2.245320
  0
SEQEND
  8
0
  0
SOLID
  8
0
 62
    15
 10
3.722840
 20
2.139280
 11
3.730320
 21
2.892120
 12
3.820960
 22
2.037200
 13
3.828440
 23
2.790040
  0
POLYLINE
  8
0
  6
CONTINUOUS
 66
     1
 40
0.000000
 41
0.000000
  0
VERTEX
  8
0
  6
CONTINUOUS
 10
3.722840
 20
2.139280
  0
VERTEX
  8
0
  6
CONTINUOUS
 10
3.730320
 20
2.892120
  0
VERTEX
  8
0
  6
CONTINUOUS
 10
3.828440
 20
2.790040
  0
VERTEX
  8
0
  6
CONTINUOUS
 10
3.820960
 20
2.037200
  0
VERTEX
  8
0
  6
CONTINUOUS
 10
3.722840
 20
2.139280
  0
SEQEND
  8
0
  0
SOLID
  8
0
 62
     7
 10
3.820960
 20
2.037200
 11
3.828440
 21
2.790040
 12
3.874640
 22
1.994520
 13
3.882120
 23
2.746920
  0
POLYLINE
  8
0
  6
CONTINUOUS
 66
     1
 40
0.000000
 41
0.000000
  0
VERTEX
  8
0
  6
CONTINUOUS
 10
3.820960
 20
2.037200
  0
VERTEX
  8
0
  6
CONTINUOUS
 10
3.828440
 20
2.790040
  0
VERTEX
  8
0
  6
CONTINUOUS
 10
3.882120
 20
2.746920
  0
VERTEX
  8
0
  6
CONTINUOUS
 10
3.874640
 20
1.994520
  0
VERTEX
  8
0
  6
CONTINUOUS
 10
3.820960
 20
2.037200
  0
SEQEND
  8
0
  0
SOLID
  8
0
 62
     7
 10
3.874640
 20
1.994520
 11
3.882120
 21
2.746920
 12
3.930960
 22
1.960640
 13
3.938440
 23
2.713480
  0
POLYLINE
  8
0
  6
CONTINUOUS
 66
     1
 40
0.000000
 41
0.000000
  0
VERTEX
  8
0
  6
CONTINUOUS
 10
3.874640
 20
1.994520
  0
VERTEX
  8
0
  6
CONTINUOUS
 10
3.882120
 20
2.746920
  0
VERTEX
  8
0
  6
CONTINUOUS
 10
3.938440
 20
2.713480
  0
VERTEX
  8
0
  6
CONTINUOUS
 10
3.930960
 20
1.960640
  0
VERTEX
  8
0
  6
CONTINUOUS
 10
3.874640
 20
1.994520
  0
SEQEND
  8
0
  0
SOLID
  8
0
 62
     7
 10
3.930960
 20
1.960640
 11
3.938440
 21
2.713480
 12
3.989920
 22
1.939080
 13
3.997400
 23
2.691480
  0
POLYLINE
  8
0
  6
CONTINUOUS
 66
     1
 40
0.000000
 41
0.000000
  0
VERTEX
  8
0
  6
CONTINUOUS
 10
3.930960
 20
1.960640
  0
VERTEX
  8
0
  6
CONTINUOUS
 10
3.938440
 20
2.713480
  0
VERTEX
  8
0
  6
CONTINUOUS
 10
3.997400
 20
2.691480
  0
VERTEX
  8
0
  6
CONTINUOUS
 10
3.989920
 20
1.939080
  0
VERTEX
  8
0
  6
CONTINUOUS
 10
3.930960
 20
1.960640
  0
SEQEND
  8
0
  0
SOLID
  8
0
 62
     7
 10
3.989920
 20
1.939080
 11
3.997400
 21
2.691480
 12
4.050640
 22
1.931600
 13
4.058120
 23
2.684440
  0
POLYLINE
  8
0
  6
CONTINUOUS
 66
     1
 40
0.000000
 41
0.000000
  0
VERTEX
  8
0
  6
CONTINUOUS
 10
3.989920
 20
1.939080
  0
VERTEX
  8
0
  6
CONTINUOUS
 10
3.997400
 20
2.691480
  0
VERTEX
  8
0
  6
CONTINUOUS
 10
4.058120
 20
2.684440
  0
VERTEX
  8
0
  6
CONTINUOUS
 10
4.050640
 20
1.931600
  0
VERTEX
  8
0
  6
CONTINUOUS
 10
3.989920
 20
1.939080
  0
SEQEND
  8
0
  0
SOLID
  8
0
 62
    15
 10
4.051520
 20
1.928080
 11
4.058560
 21
2.680920
 12
4.051520
 22
1.739760
 13
4.058560
 23
2.492160
  0
POLYLINE
  8
0
  6
CONTINUOUS
 66
     1
 40
0.000000
 41
0.000000
  0
VERTEX
  8
0
  6
CONTINUOUS
 10
4.051520
 20
1.928080
  0
VERTEX
  8
0
  6
CONTINUOUS
 10
4.058560
 20
2.680920
  0
VERTEX
  8
0
  6
CONTINUOUS
 10
4.058560
 20
2.492160
  0
VERTEX
  8
0
  6
CONTINUOUS
 10
4.051520
 20
1.739760
  0
VERTEX
  8
0
  6
CONTINUOUS
 10
4.051520
 20
1.928080
  0
SEQEND
  8
0
  0
SOLID
  8
0
 62
    15
 10
4.050640
 20
1.931600
 11
4.058120
 21
2.684440
 12
4.051520
 22
1.928080
 13
4.058560
 23
2.680920
  0
POLYLINE
  8
0
  6
CONTINUOUS
 66
     1
 40
0.000000
 41
0.000000
  0
VERTEX
  8
0
  6
CONTINUOUS
 10
4.050640
 20
1.931600
  0
VERTEX
  8
0
  6
CONTINUOUS
 10
4.058120
 20
2.684440
  0
VERTEX
  8
0
  6
CONTINUOUS
 10
4.058560
 20
2.680920
  0
VERTEX
  8
0
  6
CONTINUOUS
 10
4.051520
 20
1.928080
  0
VERTEX
  8
0
  6
CONTINUOUS
 10
4.050640
 20
1.931600
  0
SEQEND
  8
0
  0
SOLID
  8
0
 62
    15
 10
3.547280
 20
2.342560
 11
3.554760
 21
3.095400
 12
3.597880
 22
2.295480
 13
3.605360
 23
3.048320
  0
POLYLINE
  8
0
  6
CONTINUOUS
 66
     1
 40
0.000000
 41
0.000000
  0
VERTEX
  8
0
  6
CONTINUOUS
 10
3.547280
 20
2.342560
  0
VERTEX
  8
0
  6
CONTINUOUS
 10
3.554760
 20
3.095400
  0
VERTEX
  8
0
  6
CONTINUOUS
 10
3.605360
 20
3.048320
  0
VERTEX
  8
0
  6
CONTINUOUS
 10
3.597880
 20
2.295480
  0
VERTEX
  8
0
  6
CONTINUOUS
 10
3.547280
 20
2.342560
  0
SEQEND
  8
0
  0
POLYLINE
  8
0
  6
CONTINUOUS
 66
     1
 40
0.000000
 41
0.000000
  0
VERTEX
  8
0
  6
CONTINUOUS
 10
3.568400
 20
1.053360
  0
VERTEX
  8
0
  6
CONTINUOUS
 10
2.538800
 20
1.053360
  0
VERTEX
  8
0
  6
CONTINUOUS
 10
2.538800
 20
2.426600
  0
VERTEX
  8
0
  6
CONTINUOUS
 10
3.155240
 20
2.426600
  0
VERTEX
  8
0
  6
CONTINUOUS
 10
3.155240
 20
2.335960
  0
VERTEX
  8
0
  6
CONTINUOUS
 10
3.216400
 20
2.335960
  0
VERTEX
  8
0
  6
CONTINUOUS
 10
3.237960
 20
2.367200
  0
VERTEX
  8
0
  6
CONTINUOUS
 10
3.261720
 20
2.391400
  0
VERTEX
  8
0
  6
CONTINUOUS
 10
3.287240
 20
2.408560
  0
VERTEX
  8
0
  6
CONTINUOUS
 10
3.314520
 20
2.419560
  0
VERTEX
  8
0
  6
CONTINUOUS
 10
3.372160
 20
2.424840
  0
VERTEX
  8
0
  6
CONTINUOUS
 10
3.431560
 20
2.411200
  0
VERTEX
  8
0
  6
CONTINUOUS
 10
3.490960
 20
2.382600
  0
VERTEX
  8
0
  6
CONTINUOUS
 10
3.547280
 20
2.342560
  0
VERTEX
  8
0
  6
CONTINUOUS
 10
3.597880
 20
2.295480
  0
VERTEX
  8
0
  6
CONTINUOUS
 10
3.640120
 20
2.245320
  0
VERTEX
  8
0
  6
CONTINUOUS
 10
3.722840
 20
2.139280
  0
VERTEX
  8
0
  6
CONTINUOUS
 10
3.820960
 20
2.037200
  0
VERTEX
  8
0
  6
CONTINUOUS
 10
3.874640
 20
1.994520
  0
VERTEX
  8
0
  6
CONTINUOUS
 10
3.930960
 20
1.960640
  0
VERTEX
  8
0
  6
CONTINUOUS
 10
3.989920
 20
1.939080
  0
VERTEX
  8
0
  6
CONTINUOUS
 10
4.050640
 20
1.931600
  0
VERTEX
  8
0
  6
CONTINUOUS
 10
4.051520
 20
1.928080
  0
VERTEX
  8
0
  6
CONTINUOUS
 10
4.051520
 20
1.739760
  0
VERTEX
  8
0
  6
CONTINUOUS
 10
3.568840
 20
1.739760
  0
VERTEX
  8
0
  6
CONTINUOUS
 10
3.568840
 20
1.055560
  0
VERTEX
  8
0
  6
CONTINUOUS
 10
3.568400
 20
1.053360
  0
SEQEND
  8
0
  0
TEXT
  8
0
 10
2.589400
 20
1.165120
 40
0.138227
  1
616
 41
1.000000
  7
SN0
 71
     0
 72
     5
 11
2.866688
 21
1.165120
  0
TEXT
  8
0
 10
3.625600
 20
1.165560
 40
0.138227
  1
617
 41
1.000000
  7
SN0
 71
     0
 72
     5
 11
3.902888
 21
1.165560
  0
ENDSEC
  0
EOF
